  0
SECTION
  2
HEADER
  9
$ACADVER
  1
AC1015
  9
$ACADMAINTVER
 70
     6
  9
$DWGCODEPAGE
  3
ANSI_1252
  9
$INSBASE
 10
0.0
 20
0.0
 30
0.0
  9
$EXTMIN
 10
0.0
 20
0.0
 30
0.0
  9
$EXTMAX
 10
34.0
 20
22.0
 30
0.0
  9
$LIMMIN
 10
0.0
 20
0.0
  9
$LIMMAX
 10
34.0
 20
22.0
  9
$ORTHOMODE
 70
     0
  9
$REGENMODE
 70
     1
  9
$FILLMODE
 70
     1
  9
$QTEXTMODE
 70
     0
  9
$MIRRTEXT
 70
     1
  9
$LTSCALE
 40
1.0
  9
$ATTMODE
 70
     1
  9
$TEXTSIZE
 40
0.1377952756
  9
$TRACEWID
 40
0.05
  9
$TEXTSTYLE
  7
Standard
  9
$CLAYER
  8
0
  9
$CELTYPE
  6
ByLayer
  9
$CECOLOR
 62
   256
  9
$CELTSCALE
 40
1.0
  9
$DISPSILH
 70
     0
  9
$DIMSCALE
 40
1.0
  9
$DIMASZ
 40
0.2362204724
  9
$DIMEXO
 40
0.0393700787
  9
$DIMDLI
 40
0.38
  9
$DIMRND
 40
0.0
  9
$DIMDLE
 40
0.0
  9
$DIMEXE
 40
0.0393700787
  9
$DIMTP
 40
0.0
  9
$DIMTM
 40
0.0
  9
$DIMTXT
 40
0.1377952756
  9
$DIMCEN
 40
0.09
  9
$DIMTSZ
 40
0.0
  9
$DIMTOL
 70
     0
  9
$DIMLIM
 70
     0
  9
$DIMTIH
 70
     1
  9
$DIMTOH
 70
     1
  9
$DIMSE1
 70
     0
  9
$DIMSE2
 70
     0
  9
$DIMTAD
 70
     1
  9
$DIMZIN
 70
     1
  9
$DIMBLK
  1

  9
$DIMASO
 70
     1
  9
$DIMSHO
 70
     1
  9
$DIMPOST
  1

  9
$DIMAPOST
  1

  9
$DIMALT
 70
     0
  9
$DIMALTD
 70
     2
  9
$DIMALTF
 40
25.4
  9
$DIMLFAC
 40
6.0
  9
$DIMTOFL
 70
     0
  9
$DIMTVP
 40
0.0
  9
$DIMTIX
 70
     0
  9
$DIMSOXD
 70
     0
  9
$DIMSAH
 70
     0
  9
$DIMBLK1
  1

  9
$DIMBLK2
  1

  9
$DIMSTYLE
  2
Standard
  9
$DIMCLRD
 70
     0
  9
$DIMCLRE
 70
     0
  9
$DIMCLRT
 70
     0
  9
$DIMTFAC
 40
1.0
  9
$DIMGAP
 40
0.06
  9
$DIMJUST
 70
     0
  9
$DIMSD1
 70
     0
  9
$DIMSD2
 70
     0
  9
$DIMTOLJ
 70
     1
  9
$DIMTZIN
 70
     1
  9
$DIMALTZ
 70
     0
  9
$DIMALTTZ
 70
     0
  9
$DIMUPT
 70
     0
  9
$DIMDEC
 70
     4
  9
$DIMTDEC
 70
     4
  9
$DIMALTU
 70
     2
  9
$DIMALTTD
 70
     2
  9
$DIMTXSTY
  7
Standard
  9
$DIMAUNIT
 70
     0
  9
$DIMADEC
 70
     0
  9
$DIMALTRND
 40
0.0
  9
$DIMAZIN
 70
     0
  9
$DIMDSEP
 70
    46
  9
$DIMATFIT
 70
     3
  9
$DIMFRAC
 70
     0
  9
$DIMLDRBLK
  1

  9
$DIMLUNIT
 70
     2
  9
$DIMLWD
 70
    -2
  9
$DIMLWE
 70
    -2
  9
$DIMTMOVE
 70
     0
  9
$LUNITS
 70
     2
  9
$LUPREC
 70
     4
  9
$SKETCHINC
 40
0.1
  9
$FILLETRAD
 40
0.5
  9
$AUNITS
 70
     0
  9
$AUPREC
 70
     0
  9
$MENU
  1
.
  9
$ELEVATION
 40
0.0
  9
$PELEVATION
 40
0.0
  9
$THICKNESS
 40
0.0
  9
$LIMCHECK
 70
     0
  9
$CHAMFERA
 40
0.5
  9
$CHAMFERB
 40
0.5
  9
$CHAMFERC
 40
1.0
  9
$CHAMFERD
 40
0.0
  9
$SKPOLY
 70
     0
  9
$TDCREATE
 40
2454440.877022616
  9
$TDUCREATE
 40
2454441.210355949
  9
$TDUPDATE
 40
2454440.877022627
  9
$TDUUPDATE
 40
2454441.210355961
  9
$TDINDWG
 40
0.0000000116
  9
$TDUSRTIMER
 40
0.0000000116
  9
$USRTIMER
 70
     1
  9
$ANGBASE
 50
0.0
  9
$ANGDIR
 70
     0
  9
$PDMODE
 70
     0
  9
$PDSIZE
 40
-1.0
  9
$PLINEWID
 40
0.0
  9
$SPLFRAME
 70
     0
  9
$SPLINETYPE
 70
     6
  9
$SPLINESEGS
 70
     8
  9
$HANDSEED
  5
3CE
  9
$SURFTAB1
 70
     6
  9
$SURFTAB2
 70
     6
  9
$SURFTYPE
 70
     6
  9
$SURFU
 70
     6
  9
$SURFV
 70
     6
  9
$UCSBASE
  2

  9
$UCSNAME
  2

  9
$UCSORG
 10
0.0
 20
0.0
 30
0.0
  9
$UCSXDIR
 10
1.0
 20
0.0
 30
0.0
  9
$UCSYDIR
 10
0.0
 20
1.0
 30
0.0
  9
$UCSORTHOREF
  2

  9
$UCSORTHOVIEW
 70
     0
  9
$UCSORGTOP
 10
0.0
 20
0.0
 30
0.0
  9
$UCSORGBOTTOM
 10
0.0
 20
0.0
 30
0.0
  9
$UCSORGLEFT
 10
0.0
 20
0.0
 30
0.0
  9
$UCSORGRIGHT
 10
0.0
 20
0.0
 30
0.0
  9
$UCSORGFRONT
 10
0.0
 20
0.0
 30
0.0
  9
$UCSORGBACK
 10
0.0
 20
0.0
 30
0.0
  9
$PUCSBASE
  2

  9
$PUCSNAME
  2

  9
$PUCSORG
 10
0.0
 20
0.0
 30
0.0
  9
$PUCSXDIR
 10
1.0
 20
0.0
 30
0.0
  9
$PUCSYDIR
 10
0.0
 20
1.0
 30
0.0
  9
$PUCSORTHOREF
  2

  9
$PUCSORTHOVIEW
 70
     0
  9
$PUCSORGTOP
 10
0.0
 20
0.0
 30
0.0
  9
$PUCSORGBOTTOM
 10
0.0
 20
0.0
 30
0.0
  9
$PUCSORGLEFT
 10
0.0
 20
0.0
 30
0.0
  9
$PUCSORGRIGHT
 10
0.0
 20
0.0
 30
0.0
  9
$PUCSORGFRONT
 10
0.0
 20
0.0
 30
0.0
  9
$PUCSORGBACK
 10
0.0
 20
0.0
 30
0.0
  9
$USERI1
 70
     0
  9
$USERI2
 70
     0
  9
$USERI3
 70
     0
  9
$USERI4
 70
     0
  9
$USERI5
 70
     0
  9
$USERR1
 40
0.0
  9
$USERR2
 40
0.0
  9
$USERR3
 40
0.0
  9
$USERR4
 40
0.0
  9
$USERR5
 40
0.0
  9
$WORLDVIEW
 70
     1
  9
$SHADEDGE
 70
     3
  9
$SHADEDIF
 70
    70
  9
$TILEMODE
 70
     1
  9
$MAXACTVP
 70
    64
  9
$PINSBASE
 10
0.0
 20
0.0
 30
0.0
  9
$PLIMCHECK
 70
     0
  9
$PEXTMIN
 10
1.0000000000E+20
 20
1.0000000000E+20
 30
1.0000000000E+20
  9
$PEXTMAX
 10
-1.0000000000E+20
 20
-1.0000000000E+20
 30
-1.0000000000E+20
  9
$PLIMMIN
 10
0.0
 20
0.0
  9
$PLIMMAX
 10
12.0
 20
9.0
  9
$UNITMODE
 70
     0
  9
$VISRETAIN
 70
     1
  9
$PLINEGEN
 70
     0
  9
$PSLTSCALE
 70
     1
  9
$TREEDEPTH
 70
  3020
  9
$CMLSTYLE
  2
Standard
  9
$CMLJUST
 70
     0
  9
$CMLSCALE
 40
1.0
  9
$PROXYGRAPHICS
 70
     1
  9
$MEASUREMENT
 70
     0
  9
$CELWEIGHT
370
    -1
  9
$ENDCAPS
280
     0
  9
$JOINSTYLE
280
     0
  9
$LWDISPLAY
290
     1
  9
$INSUNITS
 70
     1
  9
$HYPERLINKBASE
  1

  9
$STYLESHEET
  1

  9
$XEDIT
290
     1
  9
$CEPSNTYPE
380
     0
  9
$PSTYLEMODE
290
     1
  9
$FINGERPRINTGUID
  2
{13282E83-8E14-4B5F-8322-CD5509051DAE}
  9
$VERSIONGUID
  2
{FAEB1C32-E019-11D5-929B-00C0DF256EC4}
  9
$EXTNAMES
290
     1
  9
$PSVPSCALE
 40
0.0
  9
$OLESTARTUP
290
     0
  0
ENDSEC
  0
SECTION
  2
CLASSES
  0
CLASS
  1
ACDBDICTIONARYWDFLT
  2
AcDbDictionaryWithDefault
  3
ObjectDBX Classes
 90
        0
280
     0
281
     0
  0
CLASS
  1
VISUALSTYLE
  2
AcDbVisualStyle
  3
ObjectDBX Classes
 90
     4095
280
     0
281
     0
  0
CLASS
  1
ACDBPLACEHOLDER
  2
AcDbPlaceHolder
  3
ObjectDBX Classes
 90
        0
280
     0
281
     0
  0
CLASS
  1
LAYOUT
  2
AcDbLayout
  3
ObjectDBX Classes
 90
        0
280
     0
281
     0
  0
ENDSEC
  0
SECTION
  2
TABLES
  0
TABLE
  2
VPORT
  5
8
330
0
100
AcDbSymbolTable
 70
     1
  0
VPORT
  5
29
330
8
100
AcDbSymbolTableRecord
100
AcDbViewportTableRecord
  2
*Active
 70
     0
 10
0.0
 20
0.0
 11
1.0
 21
1.0
 12
17.0
 22
11.0
 13
0.0
 23
0.0
 14
0.5
 24
0.5
 15
0.5
 25
0.5
 16
0.0
 26
0.0
 36
1.0
 17
0.0
 27
0.0
 37
0.0
 40
22.0
 41
1.5454545455
 42
50.0
 43
0.0
 44
0.0
 50
0.0
 51
0.0
 71
     0
 72
  2000
 73
     1
 74
     3
 75
     0
 76
     0
 77
     0
 78
     0
281
     0
 65
     1
110
0.0
120
0.0
130
0.0
111
1.0
121
0.0
131
0.0
112
0.0
122
1.0
132
0.0
 79
     0
146
0.0
  0
ENDTAB
  0
TABLE
  2
LTYPE
  5
5
330
0
100
AcDbSymbolTable
 70
     6
  0
LTYPE
  5
14
330
5
100
AcDbSymbolTableRecord
100
AcDbLinetypeTableRecord
  2
ByBlock
 70
     0
  3

 72
    65
 73
     0
 40
0.0
  0
LTYPE
  5
15
330
5
100
AcDbSymbolTableRecord
100
AcDbLinetypeTableRecord
  2
ByLayer
 70
     0
  3

 72
    65
 73
     0
 40
0.0
  0
LTYPE
  5
16
330
5
100
AcDbSymbolTableRecord
100
AcDbLinetypeTableRecord
  2
Continuous
 70
     0
  3
Solid line
 72
    65
 73
     0
 40
0.0
  0
LTYPE
  5
3B
330
5
100
AcDbSymbolTableRecord
100
AcDbLinetypeTableRecord
  2
HIDDEN
 70
     0
  3
Hidden __ __ __ __ __ __ __ __ __ __ __ __ __ __
 72
    65
 73
     2
 40
0.075
 49
0.05
 74
     0
 49
-0.025
 74
     0
  0
LTYPE
  5
3C
330
5
100
AcDbSymbolTableRecord
100
AcDbLinetypeTableRecord
  2
PHANTOM
 70
     0
  3
Phantom ______  __  __  ______  __  __  ______
 72
    65
 73
     6
 40
0.5
 49
0.25
 74
     0
 49
-0.05
 74
     0
 49
0.05
 74
     0
 49
-0.05
 74
     0
 49
0.05
 74
     0
 49
-0.05
 74
     0
  0
LTYPE
  5
3D
330
5
100
AcDbSymbolTableRecord
100
AcDbLinetypeTableRecord
  2
CENTER
 70
     0
  3
Center ____ _ ____ _ ____ _ ____ _ ____ _ ____
 72
    65
 73
     4
 40
0.4
 49
0.25
 74
     0
 49
-0.05
 74
     0
 49
0.05
 74
     0
 49
-0.05
 74
     0
  0
LTYPE
  5
3E
330
5
100
AcDbSymbolTableRecord
100
AcDbLinetypeTableRecord
  2
CENTERX2
 70
     0
  3
Center (2x) ________  __  ________  __  _____
 72
    65
 73
     4
 40
0.8
 49
0.5
 74
     0
 49
-0.1
 74
     0
 49
0.1
 74
     0
 49
-0.1
 74
     0
  0
LTYPE
  5
3F
330
5
100
AcDbSymbolTableRecord
100
AcDbLinetypeTableRecord
  2
DOT2
 70
     0
  3
Dot (.5x) ........................................
 72
    65
 73
     2
 40
0.025
 49
0.0
 74
     0
 49
-0.025
 74
     0
  0
ENDTAB
  0
TABLE
  2
LAYER
  5
2
330
0
100
AcDbSymbolTable
 70
    13
  0
LAYER
  5
10
330
2
100
AcDbSymbolTableRecord
100
AcDbLayerTableRecord
  2
0
 70
     0
 62
     7
  6
Continuous
370
    -3
390
F
  0
LAYER
  5
40
330
2
100
AcDbSymbolTableRecord
100
AcDbLayerTableRecord
  2
SLD-0
 70
     0
 62
   179
  6
Continuous
370
    -3
390
F
  0
LAYER
  5
41
330
2
100
AcDbSymbolTableRecord
100
AcDbLayerTableRecord
  2
2
 70
     0
 62
     2
  6
Continuous
370
    -3
390
F
  0
LAYER
  5
42
330
2
100
AcDbSymbolTableRecord
100
AcDbLayerTableRecord
  2
3
 70
     0
 62
     3
  6
HIDDEN
370
    -3
390
F
  0
LAYER
  5
43
330
2
100
AcDbSymbolTableRecord
100
AcDbLayerTableRecord
  2
4
 70
     0
 62
     4
  6
Continuous
370
    -3
390
F
  0
LAYER
  5
44
330
2
100
AcDbSymbolTableRecord
100
AcDbLayerTableRecord
  2
TRMODEL1
 70
     0
 62
   179
  6
Continuous
370
    -3
390
F
  0
LAYER
  5
45
330
2
100
AcDbSymbolTableRecord
100
AcDbLayerTableRecord
  2
TRMODEL2
 70
     0
 62
     3
  6
Continuous
370
    -3
390
F
  0
LAYER
  5
46
330
2
100
AcDbSymbolTableRecord
100
AcDbLayerTableRecord
  2
TRMODEL3
 70
     0
 62
     1
  6
HIDDEN
370
    -3
390
F
  0
LAYER
  5
47
330
2
100
AcDbSymbolTableRecord
100
AcDbLayerTableRecord
  2
TRDIM
 70
     0
 62
     3
  6
Continuous
370
    -3
390
F
  0
LAYER
  5
48
330
2
100
AcDbSymbolTableRecord
100
AcDbLayerTableRecord
  2
TRDETAIL1
 70
     0
 62
     1
  6
Continuous
370
    -3
390
F
  0
LAYER
  5
49
330
2
100
AcDbSymbolTableRecord
100
AcDbLayerTableRecord
  2
TRDETAIL2
 70
     0
 62
     6
  6
HIDDEN
370
    -3
390
F
  0
LAYER
  5
4A
330
2
100
AcDbSymbolTableRecord
100
AcDbLayerTableRecord
  2
TRDETAIL3
 70
     0
 62
     4
  6
CENTERX2
370
    -3
390
F
  0
LAYER
  5
4B
330
2
100
AcDbSymbolTableRecord
100
AcDbLayerTableRecord
  2
TRTEXT
 70
     0
 62
   179
  6
Continuous
370
    -3
390
F
  0
ENDTAB
  0
TABLE
  2
STYLE
  5
3
330
0
100
AcDbSymbolTable
 70
     2
  0
STYLE
  5
11
330
3
100
AcDbSymbolTableRecord
100
AcDbTextStyleTableRecord
  2
Standard
 70
     0
 40
0.0
 41
1.0
 50
0.0
 71
     0
 42
0.2
  3
txt
  4

  0
STYLE
  5
3A1
330
3
100
AcDbSymbolTableRecord
100
AcDbTextStyleTableRecord
  2
SLDTEXTSTYLE0
 70
     0
 40
0.0
 41
0.7
 50
0.0
 71
     0
 42
0.2
  3
TXT
  4

  0
ENDTAB
  0
TABLE
  2
VIEW
  5
6
330
0
100
AcDbSymbolTable
 70
     0
  0
ENDTAB
  0
TABLE
  2
UCS
  5
7
330
0
100
AcDbSymbolTable
 70
     0
  0
ENDTAB
  0
TABLE
  2
APPID
  5
9
330
0
100
AcDbSymbolTable
 70
     1
  0
APPID
  5
12
330
9
100
AcDbSymbolTableRecord
100
AcDbRegAppTableRecord
  2
ACAD
 70
     0
  0
ENDTAB
  0
TABLE
  2
DIMSTYLE
  5
A
330
0
100
AcDbSymbolTable
 70
     1
100
AcDbDimStyleTable
  0
DIMSTYLE
105
27
330
A
100
AcDbSymbolTableRecord
100
AcDbDimStyleTableRecord
  2
Standard
 70
     0
340
11
  0
ENDTAB
  0
TABLE
  2
BLOCK_RECORD
  5
1
330
0
100
AcDbSymbolTable
 70
     1
  0
BLOCK_RECORD
  5
1F
330
1
100
AcDbSymbolTableRecord
100
AcDbBlockTableRecord
  2
*Model_Space
340
22
  0
BLOCK_RECORD
  5
1B
330
1
100
AcDbSymbolTableRecord
100
AcDbBlockTableRecord
  2
*Paper_Space
340
1E
  0
BLOCK_RECORD
  5
23
330
1
100
AcDbSymbolTableRecord
100
AcDbBlockTableRecord
  2
*Paper_Space0
340
26
  0
ENDTAB
  0
ENDSEC
  0
SECTION
  2
BLOCKS
  0
BLOCK
  5
20
330
1F
100
AcDbEntity
  8
0
100
AcDbBlockBegin
  2
*Model_Space
 70
     0
 71
     0
 10
0.0
 20
0.0
 30
0.0
  3
*Model_Space
  1

  0
ENDBLK
  5
21
330
1F
100
AcDbEntity
  8
0
100
AcDbBlockEnd
  0
BLOCK
  5
1C
330
1B
100
AcDbEntity
 67
     1
  8
0
100
AcDbBlockBegin
  2
*Paper_Space
 70
     0
 71
     0
 10
0.0
 20
0.0
 30
0.0
  3
*Paper_Space
  1

  0
ENDBLK
  5
1D
330
1B
100
AcDbEntity
 67
     1
  8
0
100
AcDbBlockEnd
  0
BLOCK
  5
24
330
23
100
AcDbEntity
  8
0
100
AcDbBlockBegin
  2
*Paper_Space0
 70
     0
 71
     0
 10
0.0
 20
0.0
 30
0.0
  3
*Paper_Space0
  1

  0
ENDBLK
  5
25
330
23
100
AcDbEntity
  8
0
100
AcDbBlockEnd
  0
ENDSEC
  0
SECTION
  2
ENTITIES
  0
LINE
  5
4C
330
1F
100
AcDbEntity
  8
TRMODEL1
  6
Continuous
 62
     4
100
AcDbLine
 10
28.8666635327
 20
7.3675087779
 30
0.0
 11
37.9939432454
 21
7.3675087779
 31
0.0
  0
LINE
  5
4D
330
1F
100
AcDbEntity
  8
TRMODEL1
  6
Continuous
 62
     4
100
AcDbLine
 10
18.0290315089
 20
10.1097711167
 30
0.0
 11
37.9939432454
 21
10.1097711167
 31
0.0
  0
LINE
  5
4E
330
1F
100
AcDbEntity
  8
TRMODEL1
  6
Continuous
 62
     4
100
AcDbLine
 10
28.8666635327
 20
1.8829841004
 30
0.0
 11
37.9939432454
 21
1.8829841004
 31
0.0
  0
LINE
  5
4F
330
1F
100
AcDbEntity
  8
TRMODEL1
  6
Continuous
 62
     4
100
AcDbLine
 10
28.8666635327
 20
5.9963776085
 30
0.0
 11
37.9939432454
 21
5.9963776085
 31
0.0
  0
LINE
  5
50
330
1F
100
AcDbEntity
  8
TRMODEL1
  6
Continuous
 62
     4
100
AcDbLine
 10
28.8666635327
 20
4.6252464391
 30
0.0
 11
37.9939432454
 21
4.6252464391
 31
0.0
  0
LINE
  5
51
330
1F
100
AcDbEntity
  8
TRMODEL1
  6
Continuous
 62
     4
100
AcDbLine
 10
28.8666635327
 20
3.2541152698
 30
0.0
 11
37.9939432454
 21
3.2541152698
 31
0.0
  0
LINE
  5
52
330
1F
100
AcDbEntity
  8
TRMODEL1
  6
Continuous
 62
     4
100
AcDbLine
 10
18.0290315089
 20
11.7553292276
 30
0.0
 11
37.9939432454
 21
11.7553292276
 31
0.0
  0
LINE
  5
53
330
1F
100
AcDbEntity
  8
TRMODEL1
  6
Continuous
 62
     4
100
AcDbLine
 10
37.9939432454
 20
11.7553292276
 30
0.0
 11
37.9939432454
 21
0.3662484936
 31
0.0
  0
LINE
  5
54
330
1F
100
AcDbEntity
  8
TRMODEL1
  6
Continuous
 62
     4
100
AcDbLine
 10
37.9939432454
 20
0.3662484936
 30
0.0
 11
18.0290315089
 21
0.3662484936
 31
0.0
  0
LINE
  5
55
330
1F
100
AcDbEntity
  8
TRMODEL1
  6
Continuous
 62
     4
100
AcDbLine
 10
18.0290315089
 20
0.3662484936
 30
0.0
 11
18.0290315089
 21
11.7553292276
 31
0.0
  0
LINE
  5
56
330
1F
100
AcDbEntity
  8
TRMODEL1
  6
Continuous
 62
     4
100
AcDbLine
 10
24.6606932398
 20
0.3662484936
 30
0.0
 11
24.6606932398
 21
10.1097711167
 31
0.0
  0
LINE
  5
57
330
1F
100
AcDbEntity
  8
TRMODEL1
  6
Continuous
 62
     4
100
AcDbLine
 10
18.0290315089
 20
0.3662484936
 30
0.0
 11
18.0290315089
 21
10.1097711167
 31
0.0
  0
LINE
  5
58
330
1F
100
AcDbEntity
  8
TRMODEL1
  6
Continuous
 62
     4
100
AcDbLine
 10
28.8666635327
 20
0.3662484936
 30
0.0
 11
28.8666635327
 21
10.1097711167
 31
0.0
  0
LINE
  5
59
330
1F
100
AcDbEntity
  8
TRMODEL1
  6
Continuous
 62
     4
100
AcDbLine
 10
27.2447047364
 20
0.3662484936
 30
0.0
 11
27.2447047364
 21
10.1097711167
 31
0.0
  0
LINE
  5
5A
330
1F
100
AcDbEntity
  8
TRMODEL1
  6
Continuous
 62
     4
100
AcDbLine
 10
21.1341767647
 20
0.3662484936
 30
0.0
 11
21.1341767647
 21
7.3675087779
 31
0.0
  0
LINE
  5
5B
330
1F
100
AcDbEntity
  8
TRMODEL1
  6
Continuous
 62
     4
100
AcDbLine
 10
18.0290315089
 20
1.8829841004
 30
0.0
 11
27.2447047364
 21
1.8829841004
 31
0.0
  0
LINE
  5
5C
330
1F
100
AcDbEntity
  8
TRMODEL1
  6
Continuous
 62
     4
100
AcDbLine
 10
18.0290315089
 20
3.2541152698
 30
0.0
 11
27.2447047364
 21
3.2541152698
 31
0.0
  0
LINE
  5
5D
330
1F
100
AcDbEntity
  8
TRMODEL1
  6
Continuous
 62
     4
100
AcDbLine
 10
18.0290315089
 20
4.6252464391
 30
0.0
 11
27.2447047364
 21
4.6252464391
 31
0.0
  0
LINE
  5
5E
330
1F
100
AcDbEntity
  8
TRMODEL1
  6
Continuous
 62
     4
100
AcDbLine
 10
18.0290315089
 20
5.9963776085
 30
0.0
 11
27.2447047364
 21
5.9963776085
 31
0.0
  0
LINE
  5
5F
330
1F
100
AcDbEntity
  8
TRMODEL1
  6
Continuous
 62
     4
100
AcDbLine
 10
18.0290315089
 20
7.3675087779
 30
0.0
 11
27.2447047364
 21
7.3675087779
 31
0.0
  0
LINE
  5
60
330
1F
100
AcDbEntity
  8
TRMODEL1
  6
Continuous
 62
     4
100
AcDbLine
 10
35.4983252636
 20
0.3662484936
 30
0.0
 11
35.4983252636
 21
10.1097711167
 31
0.0
  0
LINE
  5
61
330
1F
100
AcDbEntity
  8
TRMODEL1
  6
Continuous
 62
     4
100
AcDbLine
 10
31.9718087885
 20
0.3662484936
 30
0.0
 11
31.9718087885
 21
7.3675087779
 31
0.0
  0
LINE
  5
62
330
1F
100
AcDbEntity
  8
TRMODEL1
  6
Continuous
 62
     4
100
AcDbLine
 10
7.4156265252
 20
4.92578125
 30
0.0
 11
7.4156265252
 21
0.92578125
 31
0.0
  0
LINE
  5
63
330
1F
100
AcDbEntity
  8
TRMODEL1
  6
Continuous
 62
     4
100
AcDbLine
 10
7.3156265252
 20
4.92578125
 30
0.0
 11
7.3156265252
 21
0.92578125
 31
0.0
  0
LINE
  5
64
330
1F
100
AcDbEntity
  8
TRMODEL1
  6
Continuous
 62
     4
100
AcDbLine
 10
9.4406265252
 20
4.92578125
 30
0.0
 11
9.4406265252
 21
0.92578125
 31
0.0
  0
LINE
  5
65
330
1F
100
AcDbEntity
  8
TRMODEL1
  6
Continuous
 62
     4
100
AcDbLine
 10
9.3406265252
 20
4.92578125
 30
0.0
 11
9.3406265252
 21
0.92578125
 31
0.0
  0
LINE
  5
66
330
1F
100
AcDbEntity
  8
TRMODEL1
  6
Continuous
 62
     2
100
AcDbLine
 10
4.1531130994
 20
10.17578125
 30
0.0
 11
4.1531130994
 21
0.17578125
 31
0.0
  0
LINE
  5
67
330
1F
100
AcDbEntity
  8
TRMODEL1
  6
Continuous
 62
     2
100
AcDbLine
 10
1.0706010745
 20
11.67578125
 30
0.0
 11
1.0706010745
 21
0.17578125
 31
0.0
  0
LINE
  5
68
330
1F
100
AcDbEntity
  8
TRMODEL1
  6
Continuous
 62
     4
100
AcDbLine
 10
8.7729669382
 20
0.42578125
 30
0.0
 11
7.9832861122
 21
0.42578125
 31
0.0
  0
LINE
  5
69
330
1F
100
AcDbEntity
  8
TRMODEL1
  6
Continuous
 62
     4
100
AcDbLine
 10
7.4712064707
 20
0.92578125
 30
0.0
 11
9.2850470766
 21
0.92578125
 31
0.0
  0
LINE
  5
6A
330
1F
100
AcDbEntity
  8
TRMODEL1
  6
Continuous
 62
     4
100
AcDbLine
 10
9.2850630334
 20
0.92578125
 30
0.0
 11
7.4711900171
 21
0.92578125
 31
0.0
  0
LINE
  5
6B
330
1F
100
AcDbEntity
  8
TRMODEL1
  6
Continuous
 62
     4
100
AcDbLine
 10
9.2821388035
 20
0.5213304284
 30
0.0
 11
8.9652599062
 21
0.5556958113
 31
0.0
  0
LINE
  5
6C
330
1F
100
AcDbEntity
  8
TRMODEL1
  6
Continuous
 62
     4
100
AcDbLine
 10
8.9652599062
 20
0.5556958113
 30
0.0
 11
8.6473521773
 21
0.5809838596
 31
0.0
  0
LINE
  5
6D
330
1F
100
AcDbEntity
  8
TRMODEL1
  6
Continuous
 62
     4
100
AcDbLine
 10
8.6473521773
 20
0.5809838596
 30
0.0
 11
8.3267896265
 21
0.5883307661
 31
0.0
  0
LINE
  5
6E
330
1F
100
AcDbEntity
  8
TRMODEL1
  6
Continuous
 62
     4
100
AcDbLine
 10
8.3267896265
 20
0.5883307661
 30
0.0
 11
8.0050493375
 21
0.5743220713
 31
0.0
  0
LINE
  5
6F
330
1F
100
AcDbEntity
  8
TRMODEL1
  6
Continuous
 62
     4
100
AcDbLine
 10
8.0050493375
 20
0.5743220713
 30
0.0
 11
7.4741142469
 21
0.5213304284
 31
0.0
  0
LINE
  5
70
330
1F
100
AcDbEntity
  8
TRMODEL1
  6
Continuous
 62
     4
100
AcDbLine
 10
8.7951293983
 20
0.4269602258
 30
0.0
 11
8.867216881
 21
0.4284308202
 31
0.0
  0
LINE
  5
71
330
1F
100
AcDbEntity
  8
TRMODEL1
  6
Continuous
 62
     4
100
AcDbLine
 10
8.867216881
 20
0.4284308202
 30
0.0
 11
8.9255518757
 21
0.4309089984
 31
0.0
  0
LINE
  5
72
330
1F
100
AcDbEntity
  8
TRMODEL1
  6
Continuous
 62
     4
100
AcDbLine
 10
8.9255518757
 20
0.4309089984
 30
0.0
 11
8.968280287
 21
0.4347176204
 31
0.0
  0
LINE
  5
73
330
1F
100
AcDbEntity
  8
TRMODEL1
  6
Continuous
 62
     4
100
AcDbLine
 10
8.968280287
 20
0.4347176204
 30
0.0
 11
8.99443265
 21
0.440122933
 31
0.0
  0
LINE
  5
74
330
1F
100
AcDbEntity
  8
TRMODEL1
  6
Continuous
 62
     4
100
AcDbLine
 10
8.99443265
 20
0.440122933
 30
0.0
 11
9.0030632374
 21
0.447375645
 31
0.0
  0
LINE
  5
75
330
1F
100
AcDbEntity
  8
TRMODEL1
  6
Continuous
 62
     4
100
AcDbLine
 10
9.0030632374
 20
0.447375645
 30
0.0
 11
8.9942637259
 21
0.4565644426
 31
0.0
  0
LINE
  5
76
330
1F
100
AcDbEntity
  8
TRMODEL1
  6
Continuous
 62
     4
100
AcDbLine
 10
8.9942637259
 20
0.4565644426
 30
0.0
 11
8.9680552732
 21
0.4677354793
 31
0.0
  0
LINE
  5
77
330
1F
100
AcDbEntity
  8
TRMODEL1
  6
Continuous
 62
     4
100
AcDbLine
 10
8.9680552732
 20
0.4677354793
 30
0.0
 11
8.9254984276
 21
0.4805964632
 31
0.0
  0
LINE
  5
78
330
1F
100
AcDbEntity
  8
TRMODEL1
  6
Continuous
 62
     4
100
AcDbLine
 10
8.9254984276
 20
0.4805964632
 30
0.0
 11
8.8671097779
 21
0.4948557798
 31
0.0
  0
LINE
  5
79
330
1F
100
AcDbEntity
  8
TRMODEL1
  6
Continuous
 62
     4
100
AcDbLine
 10
8.8671097779
 20
0.4948557798
 30
0.0
 11
8.7950085603
 21
0.5095912842
 31
0.0
  0
LINE
  5
7A
330
1F
100
AcDbEntity
  8
TRMODEL1
  6
Continuous
 62
     4
100
AcDbLine
 10
8.7950085603
 20
0.5095912842
 30
0.0
 11
8.7100452774
 21
0.523912126
 31
0.0
  0
LINE
  5
7B
330
1F
100
AcDbEntity
  8
TRMODEL1
  6
Continuous
 62
     4
100
AcDbLine
 10
8.7100452774
 20
0.523912126
 30
0.0
 11
8.6153313912
 21
0.5362710504
 31
0.0
  0
LINE
  5
7C
330
1F
100
AcDbEntity
  8
TRMODEL1
  6
Continuous
 62
     4
100
AcDbLine
 10
8.6153313912
 20
0.5362710504
 30
0.0
 11
8.51414068
 21
0.5450867993
 31
0.0
  0
LINE
  5
7D
330
1F
100
AcDbEntity
  8
TRMODEL1
  6
Continuous
 62
     4
100
AcDbLine
 10
8.51414068
 20
0.5450867993
 30
0.0
 11
8.4088019582
 21
0.5493120583
 31
0.0
  0
LINE
  5
7E
330
1F
100
AcDbEntity
  8
TRMODEL1
  6
Continuous
 62
     4
100
AcDbLine
 10
8.4088019582
 20
0.5493120583
 30
0.0
 11
8.3063667373
 21
0.548262876
 31
0.0
  0
LINE
  5
7F
330
1F
100
AcDbEntity
  8
TRMODEL1
  6
Continuous
 62
     4
100
AcDbLine
 10
8.3063667373
 20
0.548262876
 30
0.0
 11
8.2059880341
 21
0.5424954237
 31
0.0
  0
LINE
  5
80
330
1F
100
AcDbEntity
  8
TRMODEL1
  6
Continuous
 62
     4
100
AcDbLine
 10
8.2059880341
 20
0.5424954237
 30
0.0
 11
8.1115396978
 21
0.5328375159
 31
0.0
  0
LINE
  5
81
330
1F
100
AcDbEntity
  8
TRMODEL1
  6
Continuous
 62
     4
100
AcDbLine
 10
8.1115396978
 20
0.5328375159
 30
0.0
 11
8.0242286125
 21
0.5205061668
 31
0.0
  0
LINE
  5
82
330
1F
100
AcDbEntity
  8
TRMODEL1
  6
Continuous
 62
     4
100
AcDbLine
 10
8.0242286125
 20
0.5205061668
 30
0.0
 11
7.9437300222
 21
0.5062487544
 31
0.0
  0
LINE
  5
83
330
1F
100
AcDbEntity
  8
TRMODEL1
  6
Continuous
 62
     4
100
AcDbLine
 10
7.9437300222
 20
0.5062487544
 30
0.0
 11
7.8752126893
 21
0.4916784291
 31
0.0
  0
LINE
  5
84
330
1F
100
AcDbEntity
  8
TRMODEL1
  6
Continuous
 62
     4
100
AcDbLine
 10
7.8752126893
 20
0.4916784291
 30
0.0
 11
7.819645018
 21
0.4775286012
 31
0.0
  0
LINE
  5
85
330
1F
100
AcDbEntity
  8
TRMODEL1
  6
Continuous
 62
     4
100
AcDbLine
 10
7.819645018
 20
0.4775286012
 30
0.0
 11
7.7800794249
 21
0.4647812108
 31
0.0
  0
LINE
  5
86
330
1F
100
AcDbEntity
  8
TRMODEL1
  6
Continuous
 62
     4
100
AcDbLine
 10
7.7800794249
 20
0.4647812108
 30
0.0
 11
7.75804663
 21
0.4539771654
 31
0.0
  0
LINE
  5
87
330
1F
100
AcDbEntity
  8
TRMODEL1
  6
Continuous
 62
     4
100
AcDbLine
 10
7.75804663
 20
0.4539771654
 30
0.0
 11
7.7537763398
 21
0.4451637613
 31
0.0
  0
LINE
  5
88
330
1F
100
AcDbEntity
  8
TRMODEL1
  6
Continuous
 62
     4
100
AcDbLine
 10
7.7537763398
 20
0.4451637613
 30
0.0
 11
7.7674991749
 21
0.4384278591
 31
0.0
  0
LINE
  5
89
330
1F
100
AcDbEntity
  8
TRMODEL1
  6
Continuous
 62
     4
100
AcDbLine
 10
7.7674991749
 20
0.4384278591
 30
0.0
 11
7.7984901707
 21
0.4334711914
 31
0.0
  0
LINE
  5
8A
330
1F
100
AcDbEntity
  8
TRMODEL1
  6
Continuous
 62
     4
100
AcDbLine
 10
7.7984901707
 20
0.4334711914
 30
0.0
 11
7.8458869366
 21
0.4300825388
 31
0.0
  0
LINE
  5
8B
330
1F
100
AcDbEntity
  8
TRMODEL1
  6
Continuous
 62
     4
100
AcDbLine
 10
7.8458869366
 20
0.4300825388
 30
0.0
 11
7.9082371757
 21
0.4279202731
 31
0.0
  0
LINE
  5
8C
330
1F
100
AcDbEntity
  8
TRMODEL1
  6
Continuous
 62
     4
100
AcDbLine
 10
7.9082371757
 20
0.4279202731
 30
0.0
 11
7.9611236522
 21
0.4269602258
 31
0.0
  0
LINE
  5
8D
330
1F
100
AcDbEntity
  8
TRMODEL1
  6
Continuous
 62
     4
100
AcDbLine
 10
6.6979085461
 20
0.3019833441
 30
0.0
 11
10.0583445044
 21
0.3019833441
 31
0.0
  0
LINE
  5
8E
330
1F
100
AcDbEntity
  8
TRMODEL1
  6
Continuous
 62
     4
100
AcDbLine
 10
10.8781265252
 20
0.17578125
 30
0.0
 11
5.8781265252
 21
0.17578125
 31
0.0
  0
LINE
  5
8F
330
1F
100
AcDbEntity
  8
TRMODEL1
  6
Continuous
 62
     4
100
AcDbLine
 10
6.7938229225
 20
0.5131178316
 30
0.0
 11
7.3691434945
 21
0.7318145121
 31
0.0
  0
LINE
  5
90
330
1F
100
AcDbEntity
  8
TRMODEL1
  6
Continuous
 62
     4
100
AcDbLine
 10
7.208791897
 20
0.7318145121
 30
0.0
 11
6.628072756
 21
0.5131178316
 31
0.0
  0
LINE
  5
91
330
1F
100
AcDbEntity
  8
TRMODEL1
  6
Continuous
 62
     4
100
AcDbLine
 10
7.4711900171
 20
0.92578125
 30
0.0
 11
7.4741142469
 21
0.5213304284
 31
0.0
  0
LINE
  5
92
330
1F
100
AcDbEntity
  8
TRMODEL1
  6
Continuous
 62
     2
100
AcDbLine
 10
5.5552839336
 20
0.17578125
 30
0.0
 11
3.9421755994
 21
0.17578125
 31
0.0
  0
LINE
  5
93
330
1F
100
AcDbEntity
  8
TRMODEL1
  6
Continuous
 62
     2
100
AcDbLine
 10
5.5552839336
 20
0.17578125
 30
0.0
 11
0.8596635745
 21
0.17578125
 31
0.0
  0
LINE
  5
94
330
1F
100
AcDbEntity
  8
TRMODEL1
  6
Continuous
 62
     2
100
AcDbLine
 10
0.8948198245
 20
0.3515625
 30
0.0
 11
1.2463823245
 21
0.0
 31
0.0
  0
LINE
  5
95
330
1F
100
AcDbEntity
  8
TRMODEL1
  6
Continuous
 62
     2
100
AcDbLine
 10
3.9773318494
 20
0.3515625
 30
0.0
 11
4.3288943494
 21
0.0
 31
0.0
  0
LINE
  5
96
330
1F
100
AcDbEntity
  8
TRMODEL1
  6
Continuous
 62
     4
100
AcDbLine
 10
5.8781265252
 20
0.3019833441
 30
0.0
 11
6.5269464847
 21
0.3019833441
 31
0.0
  0
LINE
  5
97
330
1F
100
AcDbEntity
  8
TRMODEL1
  6
Continuous
 62
     4
100
AcDbLine
 10
6.0375799606
 20
0.4269602258
 30
0.0
 11
6.1141062714
 21
0.4284308202
 31
0.0
  0
LINE
  5
98
330
1F
100
AcDbEntity
  8
TRMODEL1
  6
Continuous
 62
     4
100
AcDbLine
 10
6.1141062714
 20
0.4284308202
 30
0.0
 11
6.2015465429
 21
0.4309089984
 31
0.0
  0
LINE
  5
99
330
1F
100
AcDbEntity
  8
TRMODEL1
  6
Continuous
 62
     4
100
AcDbLine
 10
6.2015465429
 20
0.4309089984
 30
0.0
 11
6.2975443583
 21
0.4347176204
 31
0.0
  0
LINE
  5
9A
330
1F
100
AcDbEntity
  8
TRMODEL1
  6
Continuous
 62
     4
100
AcDbLine
 10
6.2975443583
 20
0.4347176204
 30
0.0
 11
6.3992431265
 21
0.440122933
 31
0.0
  0
LINE
  5
9B
330
1F
100
AcDbEntity
  8
TRMODEL1
  6
Continuous
 62
     4
100
AcDbLine
 10
6.3992431265
 20
0.440122933
 30
0.0
 11
6.5037071994
 21
0.447375645
 31
0.0
  0
LINE
  5
9C
330
1F
100
AcDbEntity
  8
TRMODEL1
  6
Continuous
 62
     4
100
AcDbLine
 10
6.5037071994
 20
0.447375645
 30
0.0
 11
6.5606221779
 21
0.4523898383
 31
0.0
  0
LINE
  5
9D
330
1F
100
AcDbEntity
  8
TRMODEL1
  6
Continuous
 62
     4
100
AcDbLine
 10
6.0375799606
 20
0.4269602258
 30
0.0
 11
6.5465802961
 21
0.4269602258
 31
0.0
  0
LINE
  5
9E
330
1F
100
AcDbEntity
  8
TRMODEL1
  6
Continuous
 62
     4
100
AcDbLine
 10
5.8781265252
 20
0.3019833441
 30
0.0
 11
5.8781265252
 21
0.17578125
 31
0.0
  0
LINE
  5
9F
330
1F
100
AcDbEntity
  8
TRMODEL1
  6
Continuous
 62
     4
100
AcDbLine
 10
6.0186411815
 20
0.42578125
 30
0.0
 11
6.0375799606
 21
0.4269602258
 31
0.0
  0
LINE
  5
A0
330
1F
100
AcDbEntity
  8
TRMODEL1
  6
Continuous
 62
     4
100
AcDbLine
 10
6.0186411815
 20
0.42578125
 30
0.0
 11
5.9858326388
 21
0.42578125
 31
0.0
  0
LINE
  5
A1
330
1F
100
AcDbEntity
  8
TRMODEL1
  6
Continuous
 62
     4
100
AcDbLine
 10
7.9611236522
 20
0.4269602258
 30
0.0
 11
7.9832861122
 21
0.42578125
 31
0.0
  0
LINE
  5
A2
330
1F
100
AcDbEntity
  8
TRMODEL1
  6
Continuous
 62
     4
100
AcDbLine
 10
7.4741142469
 20
0.5213304284
 30
0.0
 11
7.1311343467
 21
0.4554749822
 31
0.0
  0
LINE
  5
A3
330
1F
100
AcDbEntity
  8
TRMODEL1
  6
Continuous
 62
     4
100
AcDbLine
 10
7.1311343467
 20
0.4554749822
 30
0.0
 11
6.7830834392
 21
0.4269602258
 31
0.0
  0
LINE
  5
A4
330
1F
100
AcDbEntity
  8
TRMODEL1
  6
Continuous
 62
     4
100
AcDbLine
 10
6.5272934767
 20
0.3315237763
 30
0.0
 11
6.5355076381
 21
0.3936781937
 31
0.0
  0
LINE
  5
A5
330
1F
100
AcDbEntity
  8
TRMODEL1
  6
Continuous
 62
     4
100
AcDbLine
 10
6.5355076381
 20
0.3936781937
 30
0.0
 11
6.5577662369
 21
0.4488432142
 31
0.0
  0
LINE
  5
A6
330
1F
100
AcDbEntity
  8
TRMODEL1
  6
Continuous
 62
     4
100
AcDbLine
 10
6.5577662369
 20
0.4488432142
 30
0.0
 11
6.5915555408
 21
0.4908041496
 31
0.0
  0
LINE
  5
A7
330
1F
100
AcDbEntity
  8
TRMODEL1
  6
Continuous
 62
     4
100
AcDbLine
 10
6.5915555408
 20
0.4908041496
 30
0.0
 11
6.628072756
 21
0.5131178316
 31
0.0
  0
LINE
  5
A8
330
1F
100
AcDbEntity
  8
TRMODEL1
  6
Continuous
 62
     4
100
AcDbLine
 10
6.5272934767
 20
0.3315237763
 30
0.0
 11
6.6975263269
 21
0.3315237763
 31
0.0
  0
LINE
  5
A9
330
1F
100
AcDbEntity
  8
TRMODEL1
  6
Continuous
 62
     4
100
AcDbLine
 10
6.5272934767
 20
0.3315237763
 30
0.0
 11
6.5269464847
 21
0.3019833441
 31
0.0
  0
LINE
  5
AA
330
1F
100
AcDbEntity
  8
TRMODEL1
  6
Continuous
 62
     4
100
AcDbLine
 10
6.628072756
 20
0.5131178316
 30
0.0
 11
6.7938229225
 21
0.5131178316
 31
0.0
  0
LINE
  5
AB
330
1F
100
AcDbEntity
  8
TRMODEL1
  6
Continuous
 62
     4
100
AcDbLine
 10
6.7938229225
 20
0.5131178316
 30
0.0
 11
6.7535645861
 21
0.4867880975
 31
0.0
  0
LINE
  5
AC
330
1F
100
AcDbEntity
  8
TRMODEL1
  6
Continuous
 62
     4
100
AcDbLine
 10
6.7535645861
 20
0.4867880975
 30
0.0
 11
6.7219758869
 21
0.4429412589
 31
0.0
  0
LINE
  5
AD
330
1F
100
AcDbEntity
  8
TRMODEL1
  6
Continuous
 62
     4
100
AcDbLine
 10
6.7219758869
 20
0.4429412589
 30
0.0
 11
6.7026471925
 21
0.3865707965
 31
0.0
  0
LINE
  5
AE
330
1F
100
AcDbEntity
  8
TRMODEL1
  6
Continuous
 62
     4
100
AcDbLine
 10
6.7026471925
 20
0.3865707965
 30
0.0
 11
6.6975263269
 21
0.3315237763
 31
0.0
  0
LINE
  5
AF
330
1F
100
AcDbEntity
  8
TRMODEL1
  6
Continuous
 62
     4
100
AcDbLine
 10
6.6979085461
 20
0.3019833441
 30
0.0
 11
6.6975263269
 21
0.3315237763
 31
0.0
  0
LINE
  5
B0
330
1F
100
AcDbEntity
  8
TRMODEL1
  6
Continuous
 62
     4
100
AcDbLine
 10
6.6979085461
 20
0.3019833441
 30
0.0
 11
6.702349782
 21
0.343308999
 31
0.0
  0
LINE
  5
B1
330
1F
100
AcDbEntity
  8
TRMODEL1
  6
Continuous
 62
     4
100
AcDbLine
 10
6.702349782
 20
0.343308999
 30
0.0
 11
6.7162437078
 21
0.37998755
 31
0.0
  0
LINE
  5
B2
330
1F
100
AcDbEntity
  8
TRMODEL1
  6
Continuous
 62
     4
100
AcDbLine
 10
6.7162437078
 20
0.37998755
 30
0.0
 11
6.7380209628
 21
0.4078871116
 31
0.0
  0
LINE
  5
B3
330
1F
100
AcDbEntity
  8
TRMODEL1
  6
Continuous
 62
     4
100
AcDbLine
 10
6.7380209628
 20
0.4078871116
 30
0.0
 11
6.7652457378
 21
0.4238856768
 31
0.0
  0
LINE
  5
B4
330
1F
100
AcDbEntity
  8
TRMODEL1
  6
Continuous
 62
     4
100
AcDbLine
 10
6.7652457378
 20
0.4238856768
 30
0.0
 11
6.7830834392
 21
0.4269602258
 31
0.0
  0
LINE
  5
B5
330
1F
100
AcDbEntity
  8
TRMODEL1
  6
Continuous
 62
     4
100
AcDbLine
 10
7.6520109596
 20
0.520255838
 30
0.0
 11
7.6449962038
 21
0.5258155886
 31
0.0
  0
LINE
  5
B6
330
1F
100
AcDbEntity
  8
TRMODEL1
  6
Continuous
 62
     4
100
AcDbLine
 10
7.6449962038
 20
0.5258155886
 30
0.0
 11
7.6245886412
 21
0.5293947603
 31
0.0
  0
LINE
  5
B7
330
1F
100
AcDbEntity
  8
TRMODEL1
  6
Continuous
 62
     4
100
AcDbLine
 10
7.6245886412
 20
0.5293947603
 30
0.0
 11
7.5934514019
 21
0.5303325609
 31
0.0
  0
LINE
  5
B8
330
1F
100
AcDbEntity
  8
TRMODEL1
  6
Continuous
 62
     4
100
AcDbLine
 10
7.5934514019
 20
0.5303325609
 30
0.0
 11
7.5554418814
 21
0.5285454564
 31
0.0
  0
LINE
  5
B9
330
1F
100
AcDbEntity
  8
TRMODEL1
  6
Continuous
 62
     4
100
AcDbLine
 10
7.5554418814
 20
0.5285454564
 30
0.0
 11
7.5144353647
 21
0.5243860069
 31
0.0
  0
LINE
  5
BA
330
1F
100
AcDbEntity
  8
TRMODEL1
  6
Continuous
 62
     4
100
AcDbLine
 10
7.5144353647
 20
0.5243860069
 30
0.0
 11
7.4744295184
 21
0.5184726272
 31
0.0
  0
LINE
  5
BB
330
1F
100
AcDbEntity
  8
TRMODEL1
  6
Continuous
 62
     4
100
AcDbLine
 10
7.4744295184
 20
0.5184726272
 30
0.0
 11
7.4397902657
 21
0.5116212189
 31
0.0
  0
LINE
  5
BC
330
1F
100
AcDbEntity
  8
TRMODEL1
  6
Continuous
 62
     4
100
AcDbLine
 10
7.4397902657
 20
0.5116212189
 30
0.0
 11
7.414832422
 21
0.504740092
 31
0.0
  0
LINE
  5
BD
330
1F
100
AcDbEntity
  8
TRMODEL1
  6
Continuous
 62
     4
100
AcDbLine
 10
7.414832422
 20
0.504740092
 30
0.0
 11
7.4028269498
 21
0.4986459903
 31
0.0
  0
LINE
  5
BE
330
1F
100
AcDbEntity
  8
TRMODEL1
  6
Continuous
 62
     4
100
AcDbLine
 10
7.4028269498
 20
0.4986459903
 30
0.0
 11
7.4020109596
 21
0.4968923239
 31
0.0
  0
LINE
  5
BF
330
1F
100
AcDbEntity
  8
TRMODEL1
  6
Continuous
 62
     4
100
AcDbLine
 10
7.4020109596
 20
0.4968923239
 30
0.0
 11
7.409007388
 21
0.4927464276
 31
0.0
  0
LINE
  5
C0
330
1F
100
AcDbEntity
  8
TRMODEL1
  6
Continuous
 62
     4
100
AcDbLine
 10
7.409007388
 20
0.4927464276
 30
0.0
 11
7.429304199
 21
0.4902864663
 31
0.0
  0
LINE
  5
C1
330
1F
100
AcDbEntity
  8
TRMODEL1
  6
Continuous
 62
     4
100
AcDbLine
 10
7.429304199
 20
0.4902864663
 30
0.0
 11
7.4604664105
 21
0.4896573771
 31
0.0
  0
LINE
  5
C2
330
1F
100
AcDbEntity
  8
TRMODEL1
  6
Continuous
 62
     4
100
AcDbLine
 10
7.4604664105
 20
0.4896573771
 30
0.0
 11
7.4988907564
 21
0.4908656408
 31
0.0
  0
LINE
  5
C3
330
1F
100
AcDbEntity
  8
TRMODEL1
  6
Continuous
 62
     4
100
AcDbLine
 10
7.4988907564
 20
0.4908656408
 30
0.0
 11
7.5403673812
 21
0.4938413876
 31
0.0
  0
LINE
  5
C4
330
1F
100
AcDbEntity
  8
TRMODEL1
  6
Continuous
 62
     4
100
AcDbLine
 10
7.5403673812
 20
0.4938413876
 30
0.0
 11
7.5804279317
 21
0.4984321369
 31
0.0
  0
LINE
  5
C5
330
1F
100
AcDbEntity
  8
TRMODEL1
  6
Continuous
 62
     4
100
AcDbLine
 10
7.5804279317
 20
0.4984321369
 30
0.0
 11
7.6147115866
 21
0.5043582447
 31
0.0
  0
LINE
  5
C6
330
1F
100
AcDbEntity
  8
TRMODEL1
  6
Continuous
 62
     4
100
AcDbLine
 10
7.6147115866
 20
0.5043582447
 30
0.0
 11
7.6393191878
 21
0.5111493936
 31
0.0
  0
LINE
  5
C7
330
1F
100
AcDbEntity
  8
TRMODEL1
  6
Continuous
 62
     4
100
AcDbLine
 10
7.6393191878
 20
0.5111493936
 30
0.0
 11
7.6512105185
 21
0.518088103
 31
0.0
  0
LINE
  5
C8
330
1F
100
AcDbEntity
  8
TRMODEL1
  6
Continuous
 62
     4
100
AcDbLine
 10
7.6512105185
 20
0.518088103
 30
0.0
 11
7.6520109596
 21
0.520255838
 31
0.0
  0
LINE
  5
C9
330
1F
100
AcDbEntity
  8
TRMODEL1
  6
Continuous
 62
     4
100
AcDbLine
 10
6.7830834392
 20
0.4269602258
 30
0.0
 11
7.9611236522
 21
0.4269602258
 31
0.0
  0
LINE
  5
CA
330
1F
100
AcDbEntity
  8
TRMODEL1
  6
Continuous
 62
     4
100
AcDbLine
 10
7.2850861915
 20
0.92578125
 30
0.0
 11
7.2709453377
 21
0.9223899724
 31
0.0
  0
LINE
  5
CB
330
1F
100
AcDbEntity
  8
TRMODEL1
  6
Continuous
 62
     4
100
AcDbLine
 10
7.2709453377
 20
0.9223899724
 30
0.0
 11
7.2583145281
 21
0.9125862494
 31
0.0
  0
LINE
  5
CC
330
1F
100
AcDbEntity
  8
TRMODEL1
  6
Continuous
 62
     4
100
AcDbLine
 10
7.2583145281
 20
0.9125862494
 30
0.0
 11
7.2486474077
 21
0.8974992281
 31
0.0
  0
LINE
  5
CD
330
1F
100
AcDbEntity
  8
TRMODEL1
  6
Continuous
 62
     4
100
AcDbLine
 10
7.2486474077
 20
0.8974992281
 30
0.0
 11
7.2430290375
 21
0.8788715742
 31
0.0
  0
LINE
  5
CE
330
1F
100
AcDbEntity
  8
TRMODEL1
  6
Continuous
 62
     4
100
AcDbLine
 10
7.2430290375
 20
0.8788715742
 30
0.0
 11
7.2418546086
 21
0.86578125
 31
0.0
  0
LINE
  5
CF
330
1F
100
AcDbEntity
  8
TRMODEL1
  6
Continuous
 62
     4
100
AcDbLine
 10
7.2418546086
 20
0.86578125
 30
0.0
 11
7.3988992118
 21
0.86578125
 31
0.0
  0
LINE
  5
D0
330
1F
100
AcDbEntity
  8
TRMODEL1
  6
Continuous
 62
     4
100
AcDbLine
 10
7.3999074511
 20
0.7897700617
 30
0.0
 11
7.2409864973
 21
0.7897700617
 31
0.0
  0
LINE
  5
D1
330
1F
100
AcDbEntity
  8
TRMODEL1
  6
Continuous
 62
     4
100
AcDbLine
 10
7.208791897
 20
0.7318145121
 30
0.0
 11
7.3691434945
 21
0.7318145121
 31
0.0
  0
LINE
  5
D2
330
1F
100
AcDbEntity
  8
TRMODEL1
  6
Continuous
 62
     4
100
AcDbLine
 10
7.2418546086
 20
0.86578125
 30
0.0
 11
7.2409864973
 21
0.7897700617
 31
0.0
  0
LINE
  5
D3
330
1F
100
AcDbEntity
  8
TRMODEL1
  6
Continuous
 62
     4
100
AcDbLine
 10
7.2409864973
 20
0.7897700617
 30
0.0
 11
7.2383752768
 21
0.7699630691
 31
0.0
  0
LINE
  5
D4
330
1F
100
AcDbEntity
  8
TRMODEL1
  6
Continuous
 62
     4
100
AcDbLine
 10
7.2383752768
 20
0.7699630691
 30
0.0
 11
7.2312886105
 21
0.7523803025
 31
0.0
  0
LINE
  5
D5
330
1F
100
AcDbEntity
  8
TRMODEL1
  6
Continuous
 62
     4
100
AcDbLine
 10
7.2312886105
 20
0.7523803025
 30
0.0
 11
7.2205240873
 21
0.7389906065
 31
0.0
  0
LINE
  5
D6
330
1F
100
AcDbEntity
  8
TRMODEL1
  6
Continuous
 62
     4
100
AcDbLine
 10
7.2205240873
 20
0.7389906065
 30
0.0
 11
7.208791897
 21
0.7318145121
 31
0.0
  0
LINE
  5
D7
330
1F
100
AcDbEntity
  8
TRMODEL1
  6
Continuous
 62
     4
100
AcDbLine
 10
7.3156265252
 20
0.92578125
 30
0.0
 11
7.4156265252
 21
0.92578125
 31
0.0
  0
LINE
  5
D8
330
1F
100
AcDbEntity
  8
TRMODEL1
  6
Continuous
 62
     4
100
AcDbLine
 10
7.4406496834
 20
0.92578125
 30
0.0
 11
7.4037838339
 21
0.92578125
 31
0.0
  0
LINE
  5
D9
330
1F
100
AcDbEntity
  8
TRMODEL1
  6
Continuous
 62
     4
100
AcDbLine
 10
7.3178169856
 20
0.92578125
 30
0.0
 11
7.3278609935
 21
0.9245266878
 31
0.0
  0
LINE
  5
DA
330
1F
100
AcDbEntity
  8
TRMODEL1
  6
Continuous
 62
     4
100
AcDbLine
 10
7.3278609935
 20
0.9245266878
 30
0.0
 11
7.3493885737
 21
0.9233169898
 31
0.0
  0
LINE
  5
DB
330
1F
100
AcDbEntity
  8
TRMODEL1
  6
Continuous
 62
     4
100
AcDbLine
 10
7.3493885737
 20
0.9233169898
 30
0.0
 11
7.3793082106
 21
0.9247952174
 31
0.0
  0
LINE
  5
DC
330
1F
100
AcDbEntity
  8
TRMODEL1
  6
Continuous
 62
     4
100
AcDbLine
 10
7.3793082106
 20
0.9247952174
 30
0.0
 11
7.4037838339
 21
0.92578125
 31
0.0
  0
LINE
  5
DD
330
1F
100
AcDbEntity
  8
TRMODEL1
  6
Continuous
 62
     4
100
AcDbLine
 10
7.3178169856
 20
0.92578125
 30
0.0
 11
7.2850861915
 21
0.92578125
 31
0.0
  0
LINE
  5
DE
330
1F
100
AcDbEntity
  8
TRMODEL1
  6
Continuous
 62
     4
100
AcDbLine
 10
7.3988992118
 20
0.86578125
 30
0.0
 11
7.4010218109
 21
0.8855893233
 31
0.0
  0
LINE
  5
DF
330
1F
100
AcDbEntity
  8
TRMODEL1
  6
Continuous
 62
     4
100
AcDbLine
 10
7.4010218109
 20
0.8855893233
 30
0.0
 11
7.4076750417
 21
0.9031729483
 31
0.0
  0
LINE
  5
E0
330
1F
100
AcDbEntity
  8
TRMODEL1
  6
Continuous
 62
     4
100
AcDbLine
 10
7.4076750417
 20
0.9031729483
 30
0.0
 11
7.4181095608
 21
0.9165620621
 31
0.0
  0
LINE
  5
E1
330
1F
100
AcDbEntity
  8
TRMODEL1
  6
Continuous
 62
     4
100
AcDbLine
 10
7.4181095608
 20
0.9165620621
 30
0.0
 11
7.4311742261
 21
0.9242680998
 31
0.0
  0
LINE
  5
E2
330
1F
100
AcDbEntity
  8
TRMODEL1
  6
Continuous
 62
     4
100
AcDbLine
 10
7.4311742261
 20
0.9242680998
 30
0.0
 11
7.4406496834
 21
0.92578125
 31
0.0
  0
LINE
  5
E3
330
1F
100
AcDbEntity
  8
TRMODEL1
  6
Continuous
 62
     4
100
AcDbLine
 10
7.3999074511
 20
0.7897700617
 30
0.0
 11
7.3988992118
 21
0.86578125
 31
0.0
  0
LINE
  5
E4
330
1F
100
AcDbEntity
  8
TRMODEL1
  6
Continuous
 62
     4
100
AcDbLine
 10
7.3691434945
 20
0.7318145121
 30
0.0
 11
7.3820130382
 21
0.7402215002
 31
0.0
  0
LINE
  5
E5
330
1F
100
AcDbEntity
  8
TRMODEL1
  6
Continuous
 62
     4
100
AcDbLine
 10
7.3820130382
 20
0.7402215002
 30
0.0
 11
7.3921126597
 21
0.7542311673
 31
0.0
  0
LINE
  5
E6
330
1F
100
AcDbEntity
  8
TRMODEL1
  6
Continuous
 62
     4
100
AcDbLine
 10
7.3921126597
 20
0.7542311673
 30
0.0
 11
7.3982814536
 21
0.7722290969
 31
0.0
  0
LINE
  5
E7
330
1F
100
AcDbEntity
  8
TRMODEL1
  6
Continuous
 62
     4
100
AcDbLine
 10
7.3982814536
 20
0.7722290969
 30
0.0
 11
7.3999074511
 21
0.7897700617
 31
0.0
  0
LINE
  5
E8
330
1F
100
AcDbEntity
  8
TRMODEL1
  6
Continuous
 62
     4
100
AcDbLine
 10
7.4406496834
 20
0.92578125
 30
0.0
 11
7.4711900171
 21
0.92578125
 31
0.0
  0
LINE
  5
E9
330
1F
100
AcDbEntity
  8
TRMODEL1
  6
Continuous
 62
     4
100
AcDbLine
 10
10.1281802945
 20
0.5131178316
 30
0.0
 11
9.5474611535
 21
0.7318145121
 31
0.0
  0
LINE
  5
EA
330
1F
100
AcDbEntity
  8
TRMODEL1
  6
Continuous
 62
     4
100
AcDbLine
 10
9.9624301279
 20
0.5131178316
 30
0.0
 11
9.3871095559
 21
0.7318145121
 31
0.0
  0
LINE
  5
EB
330
1F
100
AcDbEntity
  8
TRMODEL1
  6
Continuous
 62
     4
100
AcDbLine
 10
9.2821388035
 20
0.5213304284
 30
0.0
 11
9.2850630334
 21
0.92578125
 31
0.0
  0
LINE
  5
EC
330
1F
100
AcDbEntity
  8
TRMODEL1
  6
Continuous
 62
     4
100
AcDbLine
 10
10.2293065658
 20
0.3019833441
 30
0.0
 11
10.8781265252
 21
0.3019833441
 31
0.0
  0
LINE
  5
ED
330
1F
100
AcDbEntity
  8
TRMODEL1
  6
Continuous
 62
     4
100
AcDbLine
 10
10.1947323807
 20
0.4523723447
 30
0.0
 11
10.2816194363
 21
0.4451637613
 31
0.0
  0
LINE
  5
EE
330
1F
100
AcDbEntity
  8
TRMODEL1
  6
Continuous
 62
     4
100
AcDbLine
 10
10.2816194363
 20
0.4451637613
 30
0.0
 11
10.3860865468
 21
0.4384278591
 31
0.0
  0
LINE
  5
EF
330
1F
100
AcDbEntity
  8
TRMODEL1
  6
Continuous
 62
     4
100
AcDbLine
 10
10.3860865468
 20
0.4384278591
 30
0.0
 11
10.486892854
 21
0.4334711914
 31
0.0
  0
LINE
  5
F0
330
1F
100
AcDbEntity
  8
TRMODEL1
  6
Continuous
 62
     4
100
AcDbLine
 10
10.486892854
 20
0.4334711914
 30
0.0
 11
10.580642959
 21
0.4300825388
 31
0.0
  0
LINE
  5
F1
330
1F
100
AcDbEntity
  8
TRMODEL1
  6
Continuous
 62
     4
100
AcDbLine
 10
10.580642959
 20
0.4300825388
 30
0.0
 11
10.6652296667
 21
0.4279202731
 31
0.0
  0
LINE
  5
F2
330
1F
100
AcDbEntity
  8
TRMODEL1
  6
Continuous
 62
     4
100
AcDbLine
 10
10.6652296667
 20
0.4279202731
 30
0.0
 11
10.7186730899
 21
0.4269602258
 31
0.0
  0
LINE
  5
F3
330
1F
100
AcDbEntity
  8
TRMODEL1
  6
Continuous
 62
     4
100
AcDbLine
 10
10.212176472
 20
0.4269602258
 30
0.0
 11
10.7186730899
 21
0.4269602258
 31
0.0
  0
LINE
  5
F4
330
1F
100
AcDbEntity
  8
TRMODEL1
  6
Continuous
 62
     4
100
AcDbLine
 10
10.2293065658
 20
0.3019833441
 30
0.0
 11
10.2289595738
 21
0.3315237763
 31
0.0
  0
LINE
  5
F5
330
1F
100
AcDbEntity
  8
TRMODEL1
  6
Continuous
 62
     4
100
AcDbLine
 10
9.9731696113
 20
0.4269602258
 30
0.0
 11
9.627162817
 21
0.4551956948
 31
0.0
  0
LINE
  5
F6
330
1F
100
AcDbEntity
  8
TRMODEL1
  6
Continuous
 62
     4
100
AcDbLine
 10
9.627162817
 20
0.4551956948
 30
0.0
 11
9.2821388035
 21
0.5213304284
 31
0.0
  0
LINE
  5
F7
330
1F
100
AcDbEntity
  8
TRMODEL1
  6
Continuous
 62
     4
100
AcDbLine
 10
8.7951293983
 20
0.4269602258
 30
0.0
 11
9.9731696113
 21
0.4269602258
 31
0.0
  0
LINE
  5
F8
330
1F
100
AcDbEntity
  8
TRMODEL1
  6
Continuous
 62
     4
100
AcDbLine
 10
9.3542420908
 20
0.4968923239
 30
0.0
 11
9.3470898317
 21
0.50253641
 31
0.0
  0
LINE
  5
F9
330
1F
100
AcDbEntity
  8
TRMODEL1
  6
Continuous
 62
     4
100
AcDbLine
 10
9.3470898317
 20
0.50253641
 30
0.0
 11
9.3265499537
 21
0.5091573221
 31
0.0
  0
LINE
  5
FA
330
1F
100
AcDbEntity
  8
TRMODEL1
  6
Continuous
 62
     4
100
AcDbLine
 10
9.3265499537
 20
0.5091573221
 30
0.0
 11
9.2947513718
 21
0.5161421827
 31
0.0
  0
LINE
  5
FB
330
1F
100
AcDbEntity
  8
TRMODEL1
  6
Continuous
 62
     4
100
AcDbLine
 10
9.2947513718
 20
0.5161421827
 30
0.0
 11
9.2551850392
 21
0.5226132666
 31
0.0
  0
LINE
  5
FC
330
1F
100
AcDbEntity
  8
TRMODEL1
  6
Continuous
 62
     4
100
AcDbLine
 10
9.2551850392
 20
0.5226132666
 30
0.0
 11
9.212663748
 21
0.5275513799
 31
0.0
  0
LINE
  5
FD
330
1F
100
AcDbEntity
  8
TRMODEL1
  6
Continuous
 62
     4
100
AcDbLine
 10
9.212663748
 20
0.5275513799
 30
0.0
 11
9.1724755809
 21
0.5301121629
 31
0.0
  0
LINE
  5
FE
330
1F
100
AcDbEntity
  8
TRMODEL1
  6
Continuous
 62
     4
100
AcDbLine
 10
9.1724755809
 20
0.5301121629
 30
0.0
 11
9.1391705154
 21
0.5299222787
 31
0.0
  0
LINE
  5
FF
330
1F
100
AcDbEntity
  8
TRMODEL1
  6
Continuous
 62
     4
100
AcDbLine
 10
9.1391705154
 20
0.5299222787
 30
0.0
 11
9.1159382047
 21
0.5271112991
 31
0.0
  0
LINE
  5
100
330
1F
100
AcDbEntity
  8
TRMODEL1
  6
Continuous
 62
     4
100
AcDbLine
 10
9.1159382047
 20
0.5271112991
 30
0.0
 11
9.1049292254
 21
0.5221520306
 31
0.0
  0
LINE
  5
101
330
1F
100
AcDbEntity
  8
TRMODEL1
  6
Continuous
 62
     4
100
AcDbLine
 10
9.1049292254
 20
0.5221520306
 30
0.0
 11
9.1042420908
 21
0.520255838
 31
0.0
  0
LINE
  5
102
330
1F
100
AcDbEntity
  8
TRMODEL1
  6
Continuous
 62
     4
100
AcDbLine
 10
9.1042420908
 20
0.520255838
 30
0.0
 11
9.1114622434
 21
0.5134784771
 31
0.0
  0
LINE
  5
103
330
1F
100
AcDbEntity
  8
TRMODEL1
  6
Continuous
 62
     4
100
AcDbLine
 10
9.1114622434
 20
0.5134784771
 30
0.0
 11
9.1322656273
 21
0.5065119647
 31
0.0
  0
LINE
  5
104
330
1F
100
AcDbEntity
  8
TRMODEL1
  6
Continuous
 62
     4
100
AcDbLine
 10
9.1322656273
 20
0.5065119647
 30
0.0
 11
9.1643944787
 21
0.5001424627
 31
0.0
  0
LINE
  5
105
330
1F
100
AcDbEntity
  8
TRMODEL1
  6
Continuous
 62
     4
100
AcDbLine
 10
9.1643944787
 20
0.5001424627
 30
0.0
 11
9.2039600208
 21
0.4950121601
 31
0.0
  0
LINE
  5
106
330
1F
100
AcDbEntity
  8
TRMODEL1
  6
Continuous
 62
     4
100
AcDbLine
 10
9.2039600208
 20
0.4950121601
 30
0.0
 11
9.2461779635
 21
0.4915058659
 31
0.0
  0
LINE
  5
107
330
1F
100
AcDbEntity
  8
TRMODEL1
  6
Continuous
 62
     4
100
AcDbLine
 10
9.2461779635
 20
0.4915058659
 30
0.0
 11
9.2861924119
 21
0.4897993409
 31
0.0
  0
LINE
  5
108
330
1F
100
AcDbEntity
  8
TRMODEL1
  6
Continuous
 62
     4
100
AcDbLine
 10
9.2861924119
 20
0.4897993409
 30
0.0
 11
9.3196289424
 21
0.489939974
 31
0.0
  0
LINE
  5
109
330
1F
100
AcDbEntity
  8
TRMODEL1
  6
Continuous
 62
     4
100
AcDbLine
 10
9.3196289424
 20
0.489939974
 30
0.0
 11
9.3429469012
 21
0.4918971843
 31
0.0
  0
LINE
  5
10A
330
1F
100
AcDbEntity
  8
TRMODEL1
  6
Continuous
 62
     4
100
AcDbLine
 10
9.3429469012
 20
0.4918971843
 30
0.0
 11
9.3536863015
 21
0.4955703559
 31
0.0
  0
LINE
  5
10B
330
1F
100
AcDbEntity
  8
TRMODEL1
  6
Continuous
 62
     4
100
AcDbLine
 10
9.3536863015
 20
0.4955703559
 30
0.0
 11
9.3542420908
 21
0.4968923239
 31
0.0
  0
LINE
  5
10C
330
1F
100
AcDbEntity
  8
TRMODEL1
  6
Continuous
 62
     4
100
AcDbLine
 10
8.7729669382
 20
0.42578125
 30
0.0
 11
8.7951293983
 21
0.4269602258
 31
0.0
  0
LINE
  5
10D
330
1F
100
AcDbEntity
  8
TRMODEL1
  6
Continuous
 62
     4
100
AcDbLine
 10
9.9624301279
 20
0.5131178316
 30
0.0
 11
10.1281802945
 21
0.5131178316
 31
0.0
  0
LINE
  5
10E
330
1F
100
AcDbEntity
  8
TRMODEL1
  6
Continuous
 62
     4
100
AcDbLine
 10
10.0587267235
 20
0.3315237763
 30
0.0
 11
10.0520468557
 21
0.3936781937
 31
0.0
  0
LINE
  5
10F
330
1F
100
AcDbEntity
  8
TRMODEL1
  6
Continuous
 62
     4
100
AcDbLine
 10
10.0520468557
 20
0.3936781937
 30
0.0
 11
10.0311500159
 21
0.4488432142
 31
0.0
  0
LINE
  5
110
330
1F
100
AcDbEntity
  8
TRMODEL1
  6
Continuous
 62
     4
100
AcDbLine
 10
10.0311500159
 20
0.4488432142
 30
0.0
 11
9.9983965257
 21
0.4908041496
 31
0.0
  0
LINE
  5
111
330
1F
100
AcDbEntity
  8
TRMODEL1
  6
Continuous
 62
     4
100
AcDbLine
 10
9.9983965257
 20
0.4908041496
 30
0.0
 11
9.9624301279
 21
0.5131178316
 31
0.0
  0
LINE
  5
112
330
1F
100
AcDbEntity
  8
TRMODEL1
  6
Continuous
 62
     4
100
AcDbLine
 10
10.0587267235
 20
0.3315237763
 30
0.0
 11
10.0583445044
 21
0.3019833441
 31
0.0
  0
LINE
  5
113
330
1F
100
AcDbEntity
  8
TRMODEL1
  6
Continuous
 62
     4
100
AcDbLine
 10
9.9731696113
 20
0.4269602258
 30
0.0
 11
10.0022675127
 21
0.4191152467
 31
0.0
  0
LINE
  5
114
330
1F
100
AcDbEntity
  8
TRMODEL1
  6
Continuous
 62
     4
100
AcDbLine
 10
10.0022675127
 20
0.4191152467
 30
0.0
 11
10.027719341
 21
0.3980432449
 31
0.0
  0
LINE
  5
115
330
1F
100
AcDbEntity
  8
TRMODEL1
  6
Continuous
 62
     4
100
AcDbLine
 10
10.027719341
 20
0.3980432449
 30
0.0
 11
10.046627362
 21
0.3661460266
 31
0.0
  0
LINE
  5
116
330
1F
100
AcDbEntity
  8
TRMODEL1
  6
Continuous
 62
     4
100
AcDbLine
 10
10.046627362
 20
0.3661460266
 30
0.0
 11
10.0568708896
 21
0.3270531978
 31
0.0
  0
LINE
  5
117
330
1F
100
AcDbEntity
  8
TRMODEL1
  6
Continuous
 62
     4
100
AcDbLine
 10
10.0568708896
 20
0.3270531978
 30
0.0
 11
10.0583445044
 21
0.3019833441
 31
0.0
  0
LINE
  5
118
330
1F
100
AcDbEntity
  8
TRMODEL1
  6
Continuous
 62
     4
100
AcDbLine
 10
10.1281802945
 20
0.5131178316
 30
0.0
 11
10.1690885854
 21
0.4867880975
 31
0.0
  0
LINE
  5
119
330
1F
100
AcDbEntity
  8
TRMODEL1
  6
Continuous
 62
     4
100
AcDbLine
 10
10.1690885854
 20
0.4867880975
 30
0.0
 11
10.2017596521
 21
0.4429412589
 31
0.0
  0
LINE
  5
11A
330
1F
100
AcDbEntity
  8
TRMODEL1
  6
Continuous
 62
     4
100
AcDbLine
 10
10.2017596521
 20
0.4429412589
 30
0.0
 11
10.2224798621
 21
0.3865707965
 31
0.0
  0
LINE
  5
11B
330
1F
100
AcDbEntity
  8
TRMODEL1
  6
Continuous
 62
     4
100
AcDbLine
 10
10.2224798621
 20
0.3865707965
 30
0.0
 11
10.2289595738
 21
0.3315237763
 31
0.0
  0
LINE
  5
11C
330
1F
100
AcDbEntity
  8
TRMODEL1
  6
Continuous
 62
     4
100
AcDbLine
 10
10.0587267235
 20
0.3315237763
 30
0.0
 11
10.2289595738
 21
0.3315237763
 31
0.0
  0
LINE
  5
11D
330
1F
100
AcDbEntity
  8
TRMODEL1
  6
Continuous
 62
     4
100
AcDbLine
 10
10.8781265252
 20
0.17578125
 30
0.0
 11
10.8781265252
 21
0.3019833441
 31
0.0
  0
LINE
  5
11E
330
1F
100
AcDbEntity
  8
TRMODEL1
  6
Continuous
 62
     4
100
AcDbLine
 10
10.7704204116
 20
0.42578125
 30
0.0
 11
10.7376118689
 21
0.42578125
 31
0.0
  0
LINE
  5
11F
330
1F
100
AcDbEntity
  8
TRMODEL1
  6
Continuous
 62
     4
100
AcDbLine
 10
10.7186730899
 20
0.4269602258
 30
0.0
 11
10.7376118689
 21
0.42578125
 31
0.0
  0
LINE
  5
120
330
1F
100
AcDbEntity
  8
TRMODEL1
  6
Continuous
 62
     4
100
AcDbLine
 10
9.3406265252
 20
0.92578125
 30
0.0
 11
9.4406265252
 21
0.92578125
 31
0.0
  0
LINE
  5
121
330
1F
100
AcDbEntity
  8
TRMODEL1
  6
Continuous
 62
     4
100
AcDbLine
 10
9.5152665531
 20
0.7897700617
 30
0.0
 11
9.5143984419
 21
0.86578125
 31
0.0
  0
LINE
  5
122
330
1F
100
AcDbEntity
  8
TRMODEL1
  6
Continuous
 62
     4
100
AcDbLine
 10
9.5143984419
 20
0.86578125
 30
0.0
 11
9.5117868767
 21
0.8855893233
 31
0.0
  0
LINE
  5
123
330
1F
100
AcDbEntity
  8
TRMODEL1
  6
Continuous
 62
     4
100
AcDbLine
 10
9.5117868767
 20
0.8855893233
 30
0.0
 11
9.5046995908
 21
0.9031729483
 31
0.0
  0
LINE
  5
124
330
1F
100
AcDbEntity
  8
TRMODEL1
  6
Continuous
 62
     4
100
AcDbLine
 10
9.5046995908
 20
0.9031729483
 30
0.0
 11
9.4939345589
 21
0.9165620621
 31
0.0
  0
LINE
  5
125
330
1F
100
AcDbEntity
  8
TRMODEL1
  6
Continuous
 62
     4
100
AcDbLine
 10
9.4939345589
 20
0.9165620621
 30
0.0
 11
9.4806796686
 21
0.9242680998
 31
0.0
  0
LINE
  5
126
330
1F
100
AcDbEntity
  8
TRMODEL1
  6
Continuous
 62
     4
100
AcDbLine
 10
9.4806796686
 20
0.9242680998
 30
0.0
 11
9.4711668589
 21
0.92578125
 31
0.0
  0
LINE
  5
127
330
1F
100
AcDbEntity
  8
TRMODEL1
  6
Continuous
 62
     4
100
AcDbLine
 10
9.5143984419
 20
0.86578125
 30
0.0
 11
9.3573538387
 21
0.86578125
 31
0.0
  0
LINE
  5
128
330
1F
100
AcDbEntity
  8
TRMODEL1
  6
Continuous
 62
     4
100
AcDbLine
 10
9.4711668589
 20
0.92578125
 30
0.0
 11
9.4384360649
 21
0.92578125
 31
0.0
  0
LINE
  5
129
330
1F
100
AcDbEntity
  8
TRMODEL1
  6
Continuous
 62
     4
100
AcDbLine
 10
9.3524692166
 20
0.92578125
 30
0.0
 11
9.3810437921
 21
0.9245266878
 31
0.0
  0
LINE
  5
12A
330
1F
100
AcDbEntity
  8
TRMODEL1
  6
Continuous
 62
     4
100
AcDbLine
 10
9.3810437921
 20
0.9245266878
 30
0.0
 11
9.4099220153
 21
0.9233169898
 31
0.0
  0
LINE
  5
12B
330
1F
100
AcDbEntity
  8
TRMODEL1
  6
Continuous
 62
     4
100
AcDbLine
 10
9.4099220153
 20
0.9233169898
 30
0.0
 11
9.4303993358
 21
0.9247952174
 31
0.0
  0
LINE
  5
12C
330
1F
100
AcDbEntity
  8
TRMODEL1
  6
Continuous
 62
     4
100
AcDbLine
 10
9.4303993358
 20
0.9247952174
 30
0.0
 11
9.4384360649
 21
0.92578125
 31
0.0
  0
LINE
  5
12D
330
1F
100
AcDbEntity
  8
TRMODEL1
  6
Continuous
 62
     4
100
AcDbLine
 10
9.3524692166
 20
0.92578125
 30
0.0
 11
9.315603367
 21
0.92578125
 31
0.0
  0
LINE
  5
12E
330
1F
100
AcDbEntity
  8
TRMODEL1
  6
Continuous
 62
     4
100
AcDbLine
 10
9.5474611535
 20
0.7318145121
 30
0.0
 11
9.5343840817
 21
0.7402215002
 31
0.0
  0
LINE
  5
12F
330
1F
100
AcDbEntity
  8
TRMODEL1
  6
Continuous
 62
     4
100
AcDbLine
 10
9.5343840817
 20
0.7402215002
 30
0.0
 11
9.523938629
 21
0.7542311673
 31
0.0
  0
LINE
  5
130
330
1F
100
AcDbEntity
  8
TRMODEL1
  6
Continuous
 62
     4
100
AcDbLine
 10
9.523938629
 20
0.7542311673
 30
0.0
 11
9.5173255527
 21
0.7722290969
 31
0.0
  0
LINE
  5
131
330
1F
100
AcDbEntity
  8
TRMODEL1
  6
Continuous
 62
     4
100
AcDbLine
 10
9.5173255527
 20
0.7722290969
 30
0.0
 11
9.5152665531
 21
0.7897700617
 31
0.0
  0
LINE
  5
132
330
1F
100
AcDbEntity
  8
TRMODEL1
  6
Continuous
 62
     4
100
AcDbLine
 10
9.5152665531
 20
0.7897700617
 30
0.0
 11
9.3563455993
 21
0.7897700617
 31
0.0
  0
LINE
  5
133
330
1F
100
AcDbEntity
  8
TRMODEL1
  6
Continuous
 62
     4
100
AcDbLine
 10
9.3871095559
 20
0.7318145121
 30
0.0
 11
9.5474611535
 21
0.7318145121
 31
0.0
  0
LINE
  5
134
330
1F
100
AcDbEntity
  8
TRMODEL1
  6
Continuous
 62
     4
100
AcDbLine
 10
9.3563455993
 20
0.7897700617
 30
0.0
 11
9.3584678804
 21
0.7699630691
 31
0.0
  0
LINE
  5
135
330
1F
100
AcDbEntity
  8
TRMODEL1
  6
Continuous
 62
     4
100
AcDbLine
 10
9.3584678804
 20
0.7699630691
 30
0.0
 11
9.3651205128
 21
0.7523803025
 31
0.0
  0
LINE
  5
136
330
1F
100
AcDbEntity
  8
TRMODEL1
  6
Continuous
 62
     4
100
AcDbLine
 10
9.3651205128
 20
0.7523803025
 30
0.0
 11
9.3755545089
 21
0.7389906065
 31
0.0
  0
LINE
  5
137
330
1F
100
AcDbEntity
  8
TRMODEL1
  6
Continuous
 62
     4
100
AcDbLine
 10
9.3755545089
 20
0.7389906065
 30
0.0
 11
9.3871095559
 21
0.7318145121
 31
0.0
  0
LINE
  5
138
330
1F
100
AcDbEntity
  8
TRMODEL1
  6
Continuous
 62
     4
100
AcDbLine
 10
9.3573538387
 20
0.86578125
 30
0.0
 11
9.3563455993
 21
0.7897700617
 31
0.0
  0
LINE
  5
139
330
1F
100
AcDbEntity
  8
TRMODEL1
  6
Continuous
 62
     4
100
AcDbLine
 10
9.315603367
 20
0.92578125
 30
0.0
 11
9.3296605066
 21
0.9223899724
 31
0.0
  0
LINE
  5
13A
330
1F
100
AcDbEntity
  8
TRMODEL1
  6
Continuous
 62
     4
100
AcDbLine
 10
9.3296605066
 20
0.9223899724
 30
0.0
 11
9.3420493094
 21
0.9125862494
 31
0.0
  0
LINE
  5
13B
330
1F
100
AcDbEntity
  8
TRMODEL1
  6
Continuous
 62
     4
100
AcDbLine
 10
9.3420493094
 20
0.9125862494
 30
0.0
 11
9.3513440038
 21
0.8974992281
 31
0.0
  0
LINE
  5
13C
330
1F
100
AcDbEntity
  8
TRMODEL1
  6
Continuous
 62
     4
100
AcDbLine
 10
9.3513440038
 20
0.8974992281
 30
0.0
 11
9.3565025468
 21
0.8788715742
 31
0.0
  0
LINE
  5
13D
330
1F
100
AcDbEntity
  8
TRMODEL1
  6
Continuous
 62
     4
100
AcDbLine
 10
9.3565025468
 20
0.8788715742
 30
0.0
 11
9.3573538387
 21
0.86578125
 31
0.0
  0
LINE
  5
13E
330
1F
100
AcDbEntity
  8
TRMODEL1
  6
Continuous
 62
     4
100
AcDbLine
 10
9.2850630334
 20
0.92578125
 30
0.0
 11
9.315603367
 21
0.92578125
 31
0.0
  0
LINE
  5
13F
330
1F
100
AcDbEntity
  8
TRMODEL1
  6
Continuous
 62
     4
100
AcDbLine
 10
8.5031265252
 20
11.67578125
 30
0.0
 11
17.2708410406
 21
11.67578125
 31
0.0
  0
LINE
  5
140
330
1F
100
AcDbEntity
  8
TRMODEL1
  6
Continuous
 62
     4
100
AcDbLine
 10
8.3781265252
 20
10.17578125
 30
0.0
 11
17.2708410406
 21
10.17578125
 31
0.0
  0
LINE
  5
141
330
1F
100
AcDbEntity
  8
TRMODEL1
  6
Continuous
 62
     4
100
AcDbLine
 10
7.9546536817
 20
7.67578125
 30
0.0
 11
7.9571590364
 21
9.3660513616
 31
0.0
  0
LINE
  5
142
330
1F
100
AcDbEntity
  8
TRMODEL1
  6
Continuous
 62
     4
100
AcDbLine
 10
7.5344109791
 20
7.7949363749
 30
0.0
 11
7.5103082422
 21
9.17578125
 31
0.0
  0
LINE
  5
143
330
1F
100
AcDbEntity
  8
TRMODEL1
  6
Continuous
 62
     4
100
AcDbLine
 10
7.5403036736
 20
9.1757812201
 30
0.0
 11
7.56440641
 21
7.7949363749
 31
0.0
  0
LINE
  5
144
330
1F
100
AcDbEntity
  8
TRMODEL1
  6
Continuous
 62
     4
100
AcDbLine
 10
7.9378697067
 20
9.3660463777
 30
0.0
 11
7.9351303348
 21
7.6757852912
 31
0.0
  0
LINE
  5
145
330
1F
100
AcDbEntity
  8
TRMODEL1
  6
Continuous
 62
     4
100
AcDbLine
 10
7.6492774332
 20
7.7341735277
 30
0.0
 11
7.6597004366
 21
9.17578125
 31
0.0
  0
LINE
  5
146
330
1F
100
AcDbEntity
  8
TRMODEL1
  6
Continuous
 62
     4
100
AcDbLine
 10
8.7990940128
 20
9.3660513817
 30
0.0
 11
8.8015993687
 21
7.67578125
 31
0.0
  0
LINE
  5
147
330
1F
100
AcDbEntity
  8
TRMODEL1
  6
Continuous
 62
     4
100
AcDbLine
 10
9.1910836735
 20
7.7512260242
 30
0.0
 11
9.2159493774
 21
9.17578125
 31
0.0
  0
LINE
  5
148
330
1F
100
AcDbEntity
  8
TRMODEL1
  6
Continuous
 62
     4
100
AcDbLine
 10
9.2459448078
 20
9.1757812201
 30
0.0
 11
9.2210791043
 21
7.7512260242
 31
0.0
  0
LINE
  5
149
330
1F
100
AcDbEntity
  8
TRMODEL1
  6
Continuous
 62
     4
100
AcDbLine
 10
8.8213098866
 20
7.67578125
 30
0.0
 11
8.8185661575
 21
9.3660425648
 31
0.0
  0
LINE
  5
14A
330
1F
100
AcDbEntity
  8
TRMODEL1
  6
Continuous
 62
     4
100
AcDbLine
 10
9.0965526138
 20
9.17578125
 30
0.0
 11
9.1072860921
 21
7.6912317005
 31
0.0
  0
LINE
  5
14B
330
1F
100
AcDbEntity
  8
TRMODEL1
  6
Continuous
 62
     4
100
AcDbLine
 10
8.8015993687
 20
7.67578125
 30
0.0
 11
7.9546536817
 21
7.67578125
 31
0.0
  0
LINE
  5
14C
330
1F
100
AcDbEntity
  8
TRMODEL1
  6
Continuous
 62
     2
100
AcDbLine
 10
7.9525265252
 20
7.42578125
 30
0.0
 11
8.8037265252
 21
7.42578125
 31
0.0
  0
LINE
  5
14D
330
1F
100
AcDbEntity
  8
TRMODEL1
  6
Continuous
 62
     2
100
AcDbLine
 10
7.9525265252
 20
7.30078125
 30
0.0
 11
8.8037265252
 21
7.30078125
 31
0.0
  0
LINE
  5
14E
330
1F
100
AcDbEntity
  8
TRMODEL1
  6
Continuous
 62
     2
100
AcDbLine
 10
7.9525265252
 20
6.67578125
 30
0.0
 11
8.8037265252
 21
6.67578125
 31
0.0
  0
LINE
  5
14F
330
1F
100
AcDbEntity
  8
TRMODEL1
  6
Continuous
 62
     2
100
AcDbLine
 10
7.9525265252
 20
7.17578125
 30
0.0
 11
8.8037265252
 21
7.17578125
 31
0.0
  0
LINE
  5
150
330
1F
100
AcDbEntity
  8
TRMODEL1
  6
Continuous
 62
     2
100
AcDbLine
 10
7.9525265252
 20
7.05078125
 30
0.0
 11
8.8037265252
 21
7.05078125
 31
0.0
  0
LINE
  5
151
330
1F
100
AcDbEntity
  8
TRMODEL1
  6
Continuous
 62
     2
100
AcDbLine
 10
7.9525265252
 20
6.80078125
 30
0.0
 11
8.8037265252
 21
6.80078125
 31
0.0
  0
LINE
  5
152
330
1F
100
AcDbEntity
  8
TRMODEL1
  6
Continuous
 62
     2
100
AcDbLine
 10
7.9525265252
 20
6.92578125
 30
0.0
 11
8.8037265252
 21
6.92578125
 31
0.0
  0
LINE
  5
153
330
1F
100
AcDbEntity
  8
TRMODEL1
  6
Continuous
 62
     4
100
AcDbLine
 10
9.0125316538
 20
7.5451588354
 30
0.0
 11
7.7437213966
 21
7.5451588354
 31
0.0
  0
LINE
  5
154
330
1F
100
AcDbEntity
  8
TRMODEL1
  6
Continuous
 62
     2
100
AcDbLine
 10
7.8781265252
 20
6.7278766908
 30
0.0
 11
8.8781265252
 21
6.7278766908
 31
0.0
  0
LINE
  5
155
330
1F
100
AcDbEntity
  8
TRMODEL1
  6
Continuous
 62
     2
100
AcDbLine
 10
7.8781265252
 20
7.4778766908
 30
0.0
 11
8.8781265252
 21
7.4778766908
 31
0.0
  0
LINE
  5
156
330
1F
100
AcDbEntity
  8
TRMODEL1
  6
Continuous
 62
     2
100
AcDbLine
 10
7.8781265252
 20
7.3528766908
 30
0.0
 11
8.8781265252
 21
7.3528766908
 31
0.0
  0
LINE
  5
157
330
1F
100
AcDbEntity
  8
TRMODEL1
  6
Continuous
 62
     2
100
AcDbLine
 10
7.8781265252
 20
7.3736858092
 30
0.0
 11
8.8781265252
 21
7.3736858092
 31
0.0
  0
LINE
  5
158
330
1F
100
AcDbEntity
  8
TRMODEL1
  6
Continuous
 62
     2
100
AcDbLine
 10
7.8781265252
 20
7.4986858092
 30
0.0
 11
8.8781265252
 21
7.4986858092
 31
0.0
  0
LINE
  5
159
330
1F
100
AcDbEntity
  8
TRMODEL1
  6
Continuous
 62
     2
100
AcDbLine
 10
7.8781265252
 20
6.7486858092
 30
0.0
 11
8.8781265252
 21
6.7486858092
 31
0.0
  0
LINE
  5
15A
330
1F
100
AcDbEntity
  8
TRMODEL1
  6
Continuous
 62
     2
100
AcDbLine
 10
7.8781265252
 20
7.2486858092
 30
0.0
 11
8.8781265252
 21
7.2486858092
 31
0.0
  0
LINE
  5
15B
330
1F
100
AcDbEntity
  8
TRMODEL1
  6
Continuous
 62
     2
100
AcDbLine
 10
7.8781265252
 20
6.6236858092
 30
0.0
 11
8.8781265252
 21
6.6236858092
 31
0.0
  0
LINE
  5
15C
330
1F
100
AcDbEntity
  8
TRMODEL1
  6
Continuous
 62
     2
100
AcDbLine
 10
7.8781265252
 20
7.2278766908
 30
0.0
 11
8.8781265252
 21
7.2278766908
 31
0.0
  0
LINE
  5
15D
330
1F
100
AcDbEntity
  8
TRMODEL1
  6
Continuous
 62
     2
100
AcDbLine
 10
7.8781265252
 20
6.9986858092
 30
0.0
 11
8.8781265252
 21
6.9986858092
 31
0.0
  0
LINE
  5
15E
330
1F
100
AcDbEntity
  8
TRMODEL1
  6
Continuous
 62
     2
100
AcDbLine
 10
7.8781265252
 20
6.6028766908
 30
0.0
 11
8.8781265252
 21
6.6028766908
 31
0.0
  0
LINE
  5
15F
330
1F
100
AcDbEntity
  8
TRMODEL1
  6
Continuous
 62
     2
100
AcDbLine
 10
7.8781265252
 20
7.1028766908
 30
0.0
 11
8.8781265252
 21
7.1028766908
 31
0.0
  0
LINE
  5
160
330
1F
100
AcDbEntity
  8
TRMODEL1
  6
Continuous
 62
     2
100
AcDbLine
 10
7.8781265252
 20
7.1236858092
 30
0.0
 11
8.8781265252
 21
7.1236858092
 31
0.0
  0
LINE
  5
161
330
1F
100
AcDbEntity
  8
TRMODEL1
  6
Continuous
 62
     2
100
AcDbLine
 10
7.8781265252
 20
6.9778766908
 30
0.0
 11
8.8781265252
 21
6.9778766908
 31
0.0
  0
LINE
  5
162
330
1F
100
AcDbEntity
  8
TRMODEL1
  6
Continuous
 62
     2
100
AcDbLine
 10
7.8781265252
 20
6.8528766908
 30
0.0
 11
8.8781265252
 21
6.8528766908
 31
0.0
  0
LINE
  5
163
330
1F
100
AcDbEntity
  8
TRMODEL1
  6
Continuous
 62
     2
100
AcDbLine
 10
7.8781265252
 20
6.8736858092
 30
0.0
 11
8.8781265252
 21
6.8736858092
 31
0.0
  0
LINE
  5
164
330
1F
100
AcDbEntity
  8
TRMODEL1
  6
Continuous
 62
     4
100
AcDbLine
 10
7.7746789122
 20
7.51578125
 30
0.0
 11
8.9815741382
 21
7.51578125
 31
0.0
  0
LINE
  5
165
330
1F
100
AcDbEntity
  8
TRMODEL1
  6
Continuous
 62
     2
100
AcDbLine
 10
7.9525265252
 20
6.05078125
 30
0.0
 11
8.8037265252
 21
6.05078125
 31
0.0
  0
LINE
  5
166
330
1F
100
AcDbEntity
  8
TRMODEL1
  6
Continuous
 62
     2
100
AcDbLine
 10
7.9525265252
 20
6.17578125
 30
0.0
 11
8.8037265252
 21
6.17578125
 31
0.0
  0
LINE
  5
167
330
1F
100
AcDbEntity
  8
TRMODEL1
  6
Continuous
 62
     2
100
AcDbLine
 10
7.9525265252
 20
6.30078125
 30
0.0
 11
8.8037265252
 21
6.30078125
 31
0.0
  0
LINE
  5
168
330
1F
100
AcDbEntity
  8
TRMODEL1
  6
Continuous
 62
     2
100
AcDbLine
 10
7.9525265252
 20
5.80078125
 30
0.0
 11
8.8037265252
 21
5.80078125
 31
0.0
  0
LINE
  5
169
330
1F
100
AcDbEntity
  8
TRMODEL1
  6
Continuous
 62
     2
100
AcDbLine
 10
7.9525265252
 20
5.42578125
 30
0.0
 11
8.8037265252
 21
5.42578125
 31
0.0
  0
LINE
  5
16A
330
1F
100
AcDbEntity
  8
TRMODEL1
  6
Continuous
 62
     2
100
AcDbLine
 10
7.9525265252
 20
5.92578125
 30
0.0
 11
8.8037265252
 21
5.92578125
 31
0.0
  0
LINE
  5
16B
330
1F
100
AcDbEntity
  8
TRMODEL1
  6
Continuous
 62
     2
100
AcDbLine
 10
7.9525265252
 20
5.67578125
 30
0.0
 11
8.8037265252
 21
5.67578125
 31
0.0
  0
LINE
  5
16C
330
1F
100
AcDbEntity
  8
TRMODEL1
  6
Continuous
 62
     2
100
AcDbLine
 10
7.9525265252
 20
6.42578125
 30
0.0
 11
8.8037265252
 21
6.42578125
 31
0.0
  0
LINE
  5
16D
330
1F
100
AcDbEntity
  8
TRMODEL1
  6
Continuous
 62
     2
100
AcDbLine
 10
7.9525265252
 20
6.55078125
 30
0.0
 11
8.8037265252
 21
6.55078125
 31
0.0
  0
LINE
  5
16E
330
1F
100
AcDbEntity
  8
TRMODEL1
  6
Continuous
 62
     2
100
AcDbLine
 10
7.9525265252
 20
5.55078125
 30
0.0
 11
8.8037265252
 21
5.55078125
 31
0.0
  0
LINE
  5
16F
330
1F
100
AcDbEntity
  8
TRMODEL1
  6
Continuous
 62
     4
100
AcDbLine
 10
7.7437213966
 20
5.3664036646
 30
0.0
 11
9.0125316538
 21
5.3664036646
 31
0.0
  0
LINE
  5
170
330
1F
100
AcDbEntity
  8
TRMODEL1
  6
Continuous
 62
     4
100
AcDbLine
 10
7.4156265252
 20
4.92578125
 30
0.0
 11
9.3406265252
 21
4.92578125
 31
0.0
  0
LINE
  5
171
330
1F
100
AcDbEntity
  8
TRMODEL1
  6
Continuous
 62
     4
100
AcDbLine
 10
7.4406265252
 20
5.17578125
 30
0.0
 11
9.3156265252
 21
5.17578125
 31
0.0
  0
LINE
  5
172
330
1F
100
AcDbEntity
  8
TRMODEL1
  6
Continuous
 62
     4
100
AcDbLine
 10
7.4406265252
 20
4.92578125
 30
0.0
 11
9.3156265252
 21
4.92578125
 31
0.0
  0
LINE
  5
173
330
1F
100
AcDbEntity
  8
TRMODEL1
  6
Continuous
 62
     2
100
AcDbLine
 10
7.8781265252
 20
6.2278766908
 30
0.0
 11
8.8781265252
 21
6.2278766908
 31
0.0
  0
LINE
  5
174
330
1F
100
AcDbEntity
  8
TRMODEL1
  6
Continuous
 62
     2
100
AcDbLine
 10
7.8781265252
 20
6.1028766908
 30
0.0
 11
8.8781265252
 21
6.1028766908
 31
0.0
  0
LINE
  5
175
330
1F
100
AcDbEntity
  8
TRMODEL1
  6
Continuous
 62
     2
100
AcDbLine
 10
7.8781265252
 20
6.1236858092
 30
0.0
 11
8.8781265252
 21
6.1236858092
 31
0.0
  0
LINE
  5
176
330
1F
100
AcDbEntity
  8
TRMODEL1
  6
Continuous
 62
     2
100
AcDbLine
 10
7.8781265252
 20
6.2486858092
 30
0.0
 11
8.8781265252
 21
6.2486858092
 31
0.0
  0
LINE
  5
177
330
1F
100
AcDbEntity
  8
TRMODEL1
  6
Continuous
 62
     2
100
AcDbLine
 10
7.8781265252
 20
5.9986858092
 30
0.0
 11
8.8781265252
 21
5.9986858092
 31
0.0
  0
LINE
  5
178
330
1F
100
AcDbEntity
  8
TRMODEL1
  6
Continuous
 62
     2
100
AcDbLine
 10
7.8781265252
 20
5.9778766908
 30
0.0
 11
8.8781265252
 21
5.9778766908
 31
0.0
  0
LINE
  5
179
330
1F
100
AcDbEntity
  8
TRMODEL1
  6
Continuous
 62
     2
100
AcDbLine
 10
7.8781265252
 20
5.8528766908
 30
0.0
 11
8.8781265252
 21
5.8528766908
 31
0.0
  0
LINE
  5
17A
330
1F
100
AcDbEntity
  8
TRMODEL1
  6
Continuous
 62
     2
100
AcDbLine
 10
7.8781265252
 20
5.8736858092
 30
0.0
 11
8.8781265252
 21
5.8736858092
 31
0.0
  0
LINE
  5
17B
330
1F
100
AcDbEntity
  8
TRMODEL1
  6
Continuous
 62
     2
100
AcDbLine
 10
7.8781265252
 20
5.7486858092
 30
0.0
 11
8.8781265252
 21
5.7486858092
 31
0.0
  0
LINE
  5
17C
330
1F
100
AcDbEntity
  8
TRMODEL1
  6
Continuous
 62
     2
100
AcDbLine
 10
7.8781265252
 20
6.4778766908
 30
0.0
 11
8.8781265252
 21
6.4778766908
 31
0.0
  0
LINE
  5
17D
330
1F
100
AcDbEntity
  8
TRMODEL1
  6
Continuous
 62
     2
100
AcDbLine
 10
7.8781265252
 20
6.4986858092
 30
0.0
 11
8.8781265252
 21
6.4986858092
 31
0.0
  0
LINE
  5
17E
330
1F
100
AcDbEntity
  8
TRMODEL1
  6
Continuous
 62
     2
100
AcDbLine
 10
7.8781265252
 20
5.7278766908
 30
0.0
 11
8.8781265252
 21
5.7278766908
 31
0.0
  0
LINE
  5
17F
330
1F
100
AcDbEntity
  8
TRMODEL1
  6
Continuous
 62
     2
100
AcDbLine
 10
7.8781265252
 20
5.6236858092
 30
0.0
 11
8.8781265252
 21
5.6236858092
 31
0.0
  0
LINE
  5
180
330
1F
100
AcDbEntity
  8
TRMODEL1
  6
Continuous
 62
     2
100
AcDbLine
 10
7.8781265252
 20
5.6028766908
 30
0.0
 11
8.8781265252
 21
5.6028766908
 31
0.0
  0
LINE
  5
181
330
1F
100
AcDbEntity
  8
TRMODEL1
  6
Continuous
 62
     2
100
AcDbLine
 10
7.8781265252
 20
6.3528766908
 30
0.0
 11
8.8781265252
 21
6.3528766908
 31
0.0
  0
LINE
  5
182
330
1F
100
AcDbEntity
  8
TRMODEL1
  6
Continuous
 62
     2
100
AcDbLine
 10
7.8781265252
 20
6.3736858092
 30
0.0
 11
8.8781265252
 21
6.3736858092
 31
0.0
  0
LINE
  5
183
330
1F
100
AcDbEntity
  8
TRMODEL1
  6
Continuous
 62
     2
100
AcDbLine
 10
7.8781265252
 20
5.4778766908
 30
0.0
 11
8.8781265252
 21
5.4778766908
 31
0.0
  0
LINE
  5
184
330
1F
100
AcDbEntity
  8
TRMODEL1
  6
Continuous
 62
     2
100
AcDbLine
 10
7.8781265252
 20
5.4986858092
 30
0.0
 11
8.8781265252
 21
5.4986858092
 31
0.0
  0
LINE
  5
185
330
1F
100
AcDbEntity
  8
TRMODEL1
  6
Continuous
 62
     4
100
AcDbLine
 10
8.9815741382
 20
5.39578125
 30
0.0
 11
7.7746789122
 21
5.39578125
 31
0.0
  0
LINE
  5
186
330
1F
100
AcDbEntity
  8
TRMODEL1
  6
Continuous
 62
     2
100
AcDbLine
 10
7.8781265252
 20
5.8528766908
 30
0.0
 11
7.9525265252
 21
5.80078125
 31
0.0
  0
LINE
  5
187
330
1F
100
AcDbEntity
  8
TRMODEL1
  6
Continuous
 62
     4
100
AcDbLine
 10
7.3156265252
 20
4.92578125
 30
0.0
 11
7.3156265252
 21
5.17578125
 31
0.0
  0
LINE
  5
188
330
1F
100
AcDbEntity
  8
TRMODEL1
  6
Continuous
 62
     4
100
AcDbLine
 10
7.4406265252
 20
5.17578125
 30
0.0
 11
7.4406265252
 21
4.92578125
 31
0.0
  0
LINE
  5
189
330
1F
100
AcDbEntity
  8
TRMODEL1
  6
Continuous
 62
     4
100
AcDbLine
 10
7.3156265252
 20
4.92578125
 30
0.0
 11
7.4156265252
 21
4.92578125
 31
0.0
  0
LINE
  5
18A
330
1F
100
AcDbEntity
  8
TRMODEL1
  6
Continuous
 62
     4
100
AcDbLine
 10
7.3156265252
 20
5.17578125
 30
0.0
 11
7.4406265252
 21
5.17578125
 31
0.0
  0
LINE
  5
18B
330
1F
100
AcDbEntity
  8
TRMODEL1
  6
Continuous
 62
     4
100
AcDbLine
 10
7.7437213966
 20
5.3664036646
 30
0.0
 11
7.7337312992
 21
5.17578125
 31
0.0
  0
LINE
  5
18C
330
1F
100
AcDbEntity
  8
TRMODEL1
  6
Continuous
 62
     2
100
AcDbLine
 10
7.8781265252
 20
5.7486858092
 30
0.0
 11
7.8781265252
 21
5.7278766908
 31
0.0
  0
LINE
  5
18D
330
1F
100
AcDbEntity
  8
TRMODEL1
  6
Continuous
 62
     2
100
AcDbLine
 10
7.8781265252
 20
5.6236858092
 30
0.0
 11
7.8781265252
 21
5.6028766908
 31
0.0
  0
LINE
  5
18E
330
1F
100
AcDbEntity
  8
TRMODEL1
  6
Continuous
 62
     2
100
AcDbLine
 10
7.8781265252
 20
5.4986858092
 30
0.0
 11
7.8781265252
 21
5.4778766908
 31
0.0
  0
LINE
  5
18F
330
1F
100
AcDbEntity
  8
TRMODEL1
  6
Continuous
 62
     2
100
AcDbLine
 10
7.9525265252
 20
5.80078125
 30
0.0
 11
7.8781265252
 21
5.7486858092
 31
0.0
  0
LINE
  5
190
330
1F
100
AcDbEntity
  8
TRMODEL1
  6
Continuous
 62
     2
100
AcDbLine
 10
7.8781265252
 20
5.4778766908
 30
0.0
 11
7.9525265252
 21
5.42578125
 31
0.0
  0
LINE
  5
191
330
1F
100
AcDbEntity
  8
TRMODEL1
  6
Continuous
 62
     2
100
AcDbLine
 10
7.8781265252
 20
5.7278766908
 30
0.0
 11
7.9525265252
 21
5.67578125
 31
0.0
  0
LINE
  5
192
330
1F
100
AcDbEntity
  8
TRMODEL1
  6
Continuous
 62
     2
100
AcDbLine
 10
7.9525265252
 20
5.67578125
 30
0.0
 11
7.8781265252
 21
5.6236858092
 31
0.0
  0
LINE
  5
193
330
1F
100
AcDbEntity
  8
TRMODEL1
  6
Continuous
 62
     2
100
AcDbLine
 10
7.8781265252
 20
5.6028766908
 30
0.0
 11
7.9525265252
 21
5.55078125
 31
0.0
  0
LINE
  5
194
330
1F
100
AcDbEntity
  8
TRMODEL1
  6
Continuous
 62
     2
100
AcDbLine
 10
7.9525265252
 20
5.55078125
 30
0.0
 11
7.8781265252
 21
5.4986858092
 31
0.0
  0
LINE
  5
195
330
1F
100
AcDbEntity
  8
TRMODEL1
  6
Continuous
 62
     2
100
AcDbLine
 10
7.9525265252
 20
5.42578125
 30
0.0
 11
7.909682085
 21
5.39578125
 31
0.0
  0
LINE
  5
196
330
1F
100
AcDbEntity
  8
TRMODEL1
  6
Continuous
 62
     2
100
AcDbLine
 10
7.9525265252
 20
7.17578125
 30
0.0
 11
7.8781265252
 21
7.1236858092
 31
0.0
  0
LINE
  5
197
330
1F
100
AcDbEntity
  8
TRMODEL1
  6
Continuous
 62
     2
100
AcDbLine
 10
7.8781265252
 20
6.7486858092
 30
0.0
 11
7.8781265252
 21
6.7278766908
 31
0.0
  0
LINE
  5
198
330
1F
100
AcDbEntity
  8
TRMODEL1
  6
Continuous
 62
     2
100
AcDbLine
 10
7.8781265252
 20
6.6236858092
 30
0.0
 11
7.8781265252
 21
6.6028766908
 31
0.0
  0
LINE
  5
199
330
1F
100
AcDbEntity
  8
TRMODEL1
  6
Continuous
 62
     2
100
AcDbLine
 10
7.8781265252
 20
6.9986858092
 30
0.0
 11
7.8781265252
 21
6.9778766908
 31
0.0
  0
LINE
  5
19A
330
1F
100
AcDbEntity
  8
TRMODEL1
  6
Continuous
 62
     2
100
AcDbLine
 10
7.8781265252
 20
7.1236858092
 30
0.0
 11
7.8781265252
 21
7.1028766908
 31
0.0
  0
LINE
  5
19B
330
1F
100
AcDbEntity
  8
TRMODEL1
  6
Continuous
 62
     2
100
AcDbLine
 10
7.8781265252
 20
6.8736858092
 30
0.0
 11
7.8781265252
 21
6.8528766908
 31
0.0
  0
LINE
  5
19C
330
1F
100
AcDbEntity
  8
TRMODEL1
  6
Continuous
 62
     2
100
AcDbLine
 10
7.9525265252
 20
6.80078125
 30
0.0
 11
7.8781265252
 21
6.7486858092
 31
0.0
  0
LINE
  5
19D
330
1F
100
AcDbEntity
  8
TRMODEL1
  6
Continuous
 62
     2
100
AcDbLine
 10
7.8781265252
 20
6.7278766908
 30
0.0
 11
7.9525265252
 21
6.67578125
 31
0.0
  0
LINE
  5
19E
330
1F
100
AcDbEntity
  8
TRMODEL1
  6
Continuous
 62
     2
100
AcDbLine
 10
7.9525265252
 20
6.67578125
 30
0.0
 11
7.8781265252
 21
6.6236858092
 31
0.0
  0
LINE
  5
19F
330
1F
100
AcDbEntity
  8
TRMODEL1
  6
Continuous
 62
     2
100
AcDbLine
 10
7.8781265252
 20
7.1028766908
 30
0.0
 11
7.9525265252
 21
7.05078125
 31
0.0
  0
LINE
  5
1A0
330
1F
100
AcDbEntity
  8
TRMODEL1
  6
Continuous
 62
     2
100
AcDbLine
 10
7.9525265252
 20
7.05078125
 30
0.0
 11
7.8781265252
 21
6.9986858092
 31
0.0
  0
LINE
  5
1A1
330
1F
100
AcDbEntity
  8
TRMODEL1
  6
Continuous
 62
     2
100
AcDbLine
 10
7.8781265252
 20
6.8528766908
 30
0.0
 11
7.9525265252
 21
6.80078125
 31
0.0
  0
LINE
  5
1A2
330
1F
100
AcDbEntity
  8
TRMODEL1
  6
Continuous
 62
     2
100
AcDbLine
 10
7.8781265252
 20
6.9778766908
 30
0.0
 11
7.9525265252
 21
6.92578125
 31
0.0
  0
LINE
  5
1A3
330
1F
100
AcDbEntity
  8
TRMODEL1
  6
Continuous
 62
     2
100
AcDbLine
 10
7.9525265252
 20
6.92578125
 30
0.0
 11
7.8781265252
 21
6.8736858092
 31
0.0
  0
LINE
  5
1A4
330
1F
100
AcDbEntity
  8
TRMODEL1
  6
Continuous
 62
     2
100
AcDbLine
 10
7.8781265252
 20
5.8736858092
 30
0.0
 11
7.8781265252
 21
5.8528766908
 31
0.0
  0
LINE
  5
1A5
330
1F
100
AcDbEntity
  8
TRMODEL1
  6
Continuous
 62
     2
100
AcDbLine
 10
7.8781265252
 20
6.2486858092
 30
0.0
 11
7.8781265252
 21
6.2278766908
 31
0.0
  0
LINE
  5
1A6
330
1F
100
AcDbEntity
  8
TRMODEL1
  6
Continuous
 62
     2
100
AcDbLine
 10
7.8781265252
 20
6.1236858092
 30
0.0
 11
7.8781265252
 21
6.1028766908
 31
0.0
  0
LINE
  5
1A7
330
1F
100
AcDbEntity
  8
TRMODEL1
  6
Continuous
 62
     2
100
AcDbLine
 10
7.8781265252
 20
5.9986858092
 30
0.0
 11
7.8781265252
 21
5.9778766908
 31
0.0
  0
LINE
  5
1A8
330
1F
100
AcDbEntity
  8
TRMODEL1
  6
Continuous
 62
     2
100
AcDbLine
 10
7.8781265252
 20
6.4986858092
 30
0.0
 11
7.8781265252
 21
6.4778766908
 31
0.0
  0
LINE
  5
1A9
330
1F
100
AcDbEntity
  8
TRMODEL1
  6
Continuous
 62
     2
100
AcDbLine
 10
7.8781265252
 20
6.3736858092
 30
0.0
 11
7.8781265252
 21
6.3528766908
 31
0.0
  0
LINE
  5
1AA
330
1F
100
AcDbEntity
  8
TRMODEL1
  6
Continuous
 62
     2
100
AcDbLine
 10
7.8781265252
 20
5.9778766908
 30
0.0
 11
7.9525265252
 21
5.92578125
 31
0.0
  0
LINE
  5
1AB
330
1F
100
AcDbEntity
  8
TRMODEL1
  6
Continuous
 62
     2
100
AcDbLine
 10
7.9525265252
 20
5.92578125
 30
0.0
 11
7.8781265252
 21
5.8736858092
 31
0.0
  0
LINE
  5
1AC
330
1F
100
AcDbEntity
  8
TRMODEL1
  6
Continuous
 62
     2
100
AcDbLine
 10
7.8781265252
 20
6.2278766908
 30
0.0
 11
7.9525265252
 21
6.17578125
 31
0.0
  0
LINE
  5
1AD
330
1F
100
AcDbEntity
  8
TRMODEL1
  6
Continuous
 62
     2
100
AcDbLine
 10
7.8781265252
 20
6.3528766908
 30
0.0
 11
7.9525265252
 21
6.30078125
 31
0.0
  0
LINE
  5
1AE
330
1F
100
AcDbEntity
  8
TRMODEL1
  6
Continuous
 62
     2
100
AcDbLine
 10
7.9525265252
 20
6.05078125
 30
0.0
 11
7.8781265252
 21
5.9986858092
 31
0.0
  0
LINE
  5
1AF
330
1F
100
AcDbEntity
  8
TRMODEL1
  6
Continuous
 62
     2
100
AcDbLine
 10
7.8781265252
 20
6.1028766908
 30
0.0
 11
7.9525265252
 21
6.05078125
 31
0.0
  0
LINE
  5
1B0
330
1F
100
AcDbEntity
  8
TRMODEL1
  6
Continuous
 62
     2
100
AcDbLine
 10
7.9525265252
 20
6.17578125
 30
0.0
 11
7.8781265252
 21
6.1236858092
 31
0.0
  0
LINE
  5
1B1
330
1F
100
AcDbEntity
  8
TRMODEL1
  6
Continuous
 62
     2
100
AcDbLine
 10
7.9525265252
 20
6.30078125
 30
0.0
 11
7.8781265252
 21
6.2486858092
 31
0.0
  0
LINE
  5
1B2
330
1F
100
AcDbEntity
  8
TRMODEL1
  6
Continuous
 62
     2
100
AcDbLine
 10
7.9525265252
 20
6.55078125
 30
0.0
 11
7.8781265252
 21
6.4986858092
 31
0.0
  0
LINE
  5
1B3
330
1F
100
AcDbEntity
  8
TRMODEL1
  6
Continuous
 62
     2
100
AcDbLine
 10
7.8781265252
 20
6.4778766908
 30
0.0
 11
7.9525265252
 21
6.42578125
 31
0.0
  0
LINE
  5
1B4
330
1F
100
AcDbEntity
  8
TRMODEL1
  6
Continuous
 62
     2
100
AcDbLine
 10
7.9525265252
 20
6.42578125
 30
0.0
 11
7.8781265252
 21
6.3736858092
 31
0.0
  0
LINE
  5
1B5
330
1F
100
AcDbEntity
  8
TRMODEL1
  6
Continuous
 62
     2
100
AcDbLine
 10
7.8781265252
 20
6.6028766908
 30
0.0
 11
7.9525265252
 21
6.55078125
 31
0.0
  0
LINE
  5
1B6
330
1F
100
AcDbEntity
  8
TRMODEL1
  6
Continuous
 62
     4
100
AcDbLine
 10
7.9546536817
 20
7.67578125
 30
0.0
 11
7.9350371435
 21
7.67578125
 31
0.0
  0
LINE
  5
1B7
330
1F
100
AcDbEntity
  8
TRMODEL1
  6
Continuous
 62
     4
100
AcDbLine
 10
7.736875766
 20
7.67578125
 30
0.0
 11
7.7437213966
 21
7.5451588354
 31
0.0
  0
LINE
  5
1B8
330
1F
100
AcDbEntity
  8
TRMODEL1
  6
Continuous
 62
     2
100
AcDbLine
 10
7.8781265252
 20
7.4986858092
 30
0.0
 11
7.8781265252
 21
7.4778766908
 31
0.0
  0
LINE
  5
1B9
330
1F
100
AcDbEntity
  8
TRMODEL1
  6
Continuous
 62
     2
100
AcDbLine
 10
7.8781265252
 20
7.3736858092
 30
0.0
 11
7.8781265252
 21
7.3528766908
 31
0.0
  0
LINE
  5
1BA
330
1F
100
AcDbEntity
  8
TRMODEL1
  6
Continuous
 62
     2
100
AcDbLine
 10
7.902541345
 20
7.51578125
 30
0.0
 11
7.8781265252
 21
7.4986858092
 31
0.0
  0
LINE
  5
1BB
330
1F
100
AcDbEntity
  8
TRMODEL1
  6
Continuous
 62
     2
100
AcDbLine
 10
7.8781265252
 20
7.2486858092
 30
0.0
 11
7.8781265252
 21
7.2278766908
 31
0.0
  0
LINE
  5
1BC
330
1F
100
AcDbEntity
  8
TRMODEL1
  6
Continuous
 62
     4
100
AcDbLine
 10
7.5774818863
 20
7.67578125
 30
0.0
 11
7.5773323988
 21
7.67578125
 31
0.0
  0
LINE
  5
1BD
330
1F
100
AcDbEntity
  8
TRMODEL1
  6
Continuous
 62
     4
100
AcDbLine
 10
7.5354753156
 20
7.7339605808
 30
0.0
 11
7.5354715986
 21
7.7341735277
 31
0.0
  0
LINE
  5
1BE
330
1F
100
AcDbEntity
  8
TRMODEL1
  6
Continuous
 62
     4
100
AcDbLine
 10
7.5773323988
 20
7.67578125
 30
0.0
 11
7.5354753156
 21
7.7339605808
 31
0.0
  0
LINE
  5
1BF
330
1F
100
AcDbEntity
  8
TRMODEL1
  6
Continuous
 62
     4
100
AcDbLine
 10
7.6898462965
 20
7.67578125
 30
0.0
 11
7.5774818863
 21
7.67578125
 31
0.0
  0
LINE
  5
1C0
330
1F
100
AcDbEntity
  8
TRMODEL1
  6
Continuous
 62
     4
100
AcDbLine
 10
7.5354715986
 20
7.7341735277
 30
0.0
 11
7.5344109791
 21
7.7949363749
 31
0.0
  0
LINE
  5
1C1
330
1F
100
AcDbEntity
  8
TRMODEL1
  6
Continuous
 62
     4
100
AcDbLine
 10
7.5354715986
 20
7.7341735277
 30
0.0
 11
7.5774818863
 21
7.67578125
 31
0.0
  0
LINE
  5
1C2
330
1F
100
AcDbEntity
  8
TRMODEL1
  6
Continuous
 62
     4
100
AcDbLine
 10
7.56440641
 20
7.7949363749
 30
0.0
 11
7.5584873373
 21
7.7987614929
 31
0.0
  0
LINE
  5
1C3
330
1F
100
AcDbEntity
  8
TRMODEL1
  6
Continuous
 62
     4
100
AcDbLine
 10
7.5584873373
 20
7.7987614929
 30
0.0
 11
7.5528105852
 21
7.8016037674
 31
0.0
  0
LINE
  5
1C4
330
1F
100
AcDbEntity
  8
TRMODEL1
  6
Continuous
 62
     4
100
AcDbLine
 10
7.5528105852
 20
7.8016037674
 30
0.0
 11
7.5475942237
 21
7.8033540135
 31
0.0
  0
LINE
  5
1C5
330
1F
100
AcDbEntity
  8
TRMODEL1
  6
Continuous
 62
     4
100
AcDbLine
 10
7.5475942237
 20
7.8033540135
 30
0.0
 11
7.5430386372
 21
7.8039449964
 31
0.0
  0
LINE
  5
1C6
330
1F
100
AcDbEntity
  8
TRMODEL1
  6
Continuous
 62
     4
100
AcDbLine
 10
7.5430386372
 20
7.8039449964
 30
0.0
 11
7.5393188266
 21
7.8033540135
 31
0.0
  0
LINE
  5
1C7
330
1F
100
AcDbEntity
  8
TRMODEL1
  6
Continuous
 62
     4
100
AcDbLine
 10
7.5393188266
 20
7.8033540135
 30
0.0
 11
7.536577687
 21
7.8016037674
 31
0.0
  0
LINE
  5
1C8
330
1F
100
AcDbEntity
  8
TRMODEL1
  6
Continuous
 62
     4
100
AcDbLine
 10
7.536577687
 20
7.8016037674
 30
0.0
 11
7.534920518
 21
7.7987614929
 31
0.0
  0
LINE
  5
1C9
330
1F
100
AcDbEntity
  8
TRMODEL1
  6
Continuous
 62
     4
100
AcDbLine
 10
7.534920518
 20
7.7987614929
 30
0.0
 11
7.5344109791
 21
7.7949363749
 31
0.0
  0
LINE
  5
1CA
330
1F
100
AcDbEntity
  8
TRMODEL1
  6
Continuous
 62
     4
100
AcDbLine
 10
7.56440641
 20
7.7949363749
 30
0.0
 11
7.6492774332
 21
7.7341735277
 31
0.0
  0
LINE
  5
1CB
330
1F
100
AcDbEntity
  8
TRMODEL1
  6
Continuous
 62
     4
100
AcDbLine
 10
7.6898462965
 20
7.67578125
 30
0.0
 11
7.6492774332
 21
7.7341735277
 31
0.0
  0
LINE
  5
1CC
330
1F
100
AcDbEntity
  8
TRMODEL1
  6
Continuous
 62
     2
100
AcDbLine
 10
7.9525265252
 20
7.42578125
 30
0.0
 11
7.8781265252
 21
7.3736858092
 31
0.0
  0
LINE
  5
1CD
330
1F
100
AcDbEntity
  8
TRMODEL1
  6
Continuous
 62
     2
100
AcDbLine
 10
7.8781265252
 20
7.4778766908
 30
0.0
 11
7.9525265252
 21
7.42578125
 31
0.0
  0
LINE
  5
1CE
330
1F
100
AcDbEntity
  8
TRMODEL1
  6
Continuous
 62
     2
100
AcDbLine
 10
7.8781265252
 20
7.3528766908
 30
0.0
 11
7.9525265252
 21
7.30078125
 31
0.0
  0
LINE
  5
1CF
330
1F
100
AcDbEntity
  8
TRMODEL1
  6
Continuous
 62
     2
100
AcDbLine
 10
7.9525265252
 20
7.30078125
 30
0.0
 11
7.8781265252
 21
7.2486858092
 31
0.0
  0
LINE
  5
1D0
330
1F
100
AcDbEntity
  8
TRMODEL1
  6
Continuous
 62
     2
100
AcDbLine
 10
7.8781265252
 20
7.2278766908
 30
0.0
 11
7.9525265252
 21
7.17578125
 31
0.0
  0
LINE
  5
1D1
330
1F
100
AcDbEntity
  8
TRMODEL1
  6
Continuous
 62
     4
100
AcDbLine
 10
7.9349431736
 20
7.67578125
 30
0.0
 11
7.6898462965
 21
7.67578125
 31
0.0
  0
LINE
  5
1D2
330
1F
100
AcDbEntity
  8
TRMODEL1
  6
Continuous
 62
     2
100
AcDbLine
 10
8.8037265252
 20
5.80078125
 30
0.0
 11
8.8781265252
 21
5.8528766908
 31
0.0
  0
LINE
  5
1D3
330
1F
100
AcDbEntity
  8
TRMODEL1
  6
Continuous
 62
     4
100
AcDbLine
 10
9.3156265252
 20
4.92578125
 30
0.0
 11
9.3156265252
 21
5.17578125
 31
0.0
  0
LINE
  5
1D4
330
1F
100
AcDbEntity
  8
TRMODEL1
  6
Continuous
 62
     4
100
AcDbLine
 10
9.4406265252
 20
5.17578125
 30
0.0
 11
9.4406265252
 21
4.92578125
 31
0.0
  0
LINE
  5
1D5
330
1F
100
AcDbEntity
  8
TRMODEL1
  6
Continuous
 62
     4
100
AcDbLine
 10
9.3406265252
 20
4.92578125
 30
0.0
 11
9.4406265252
 21
4.92578125
 31
0.0
  0
LINE
  5
1D6
330
1F
100
AcDbEntity
  8
TRMODEL1
  6
Continuous
 62
     4
100
AcDbLine
 10
9.0225217512
 20
5.17578125
 30
0.0
 11
9.0125316538
 21
5.3664036646
 31
0.0
  0
LINE
  5
1D7
330
1F
100
AcDbEntity
  8
TRMODEL1
  6
Continuous
 62
     2
100
AcDbLine
 10
8.8781265252
 20
5.7486858092
 30
0.0
 11
8.8037265252
 21
5.80078125
 31
0.0
  0
LINE
  5
1D8
330
1F
100
AcDbEntity
  8
TRMODEL1
  6
Continuous
 62
     2
100
AcDbLine
 10
8.8037265252
 20
5.42578125
 30
0.0
 11
8.8781265252
 21
5.4778766908
 31
0.0
  0
LINE
  5
1D9
330
1F
100
AcDbEntity
  8
TRMODEL1
  6
Continuous
 62
     2
100
AcDbLine
 10
8.8465709654
 20
5.39578125
 30
0.0
 11
8.8037265252
 21
5.42578125
 31
0.0
  0
LINE
  5
1DA
330
1F
100
AcDbEntity
  8
TRMODEL1
  6
Continuous
 62
     2
100
AcDbLine
 10
8.8781265252
 20
5.7278766908
 30
0.0
 11
8.8781265252
 21
5.7486858092
 31
0.0
  0
LINE
  5
1DB
330
1F
100
AcDbEntity
  8
TRMODEL1
  6
Continuous
 62
     2
100
AcDbLine
 10
8.8781265252
 20
5.6028766908
 30
0.0
 11
8.8781265252
 21
5.6236858092
 31
0.0
  0
LINE
  5
1DC
330
1F
100
AcDbEntity
  8
TRMODEL1
  6
Continuous
 62
     2
100
AcDbLine
 10
8.8037265252
 20
5.67578125
 30
0.0
 11
8.8781265252
 21
5.7278766908
 31
0.0
  0
LINE
  5
1DD
330
1F
100
AcDbEntity
  8
TRMODEL1
  6
Continuous
 62
     2
100
AcDbLine
 10
8.8781265252
 20
5.6236858092
 30
0.0
 11
8.8037265252
 21
5.67578125
 31
0.0
  0
LINE
  5
1DE
330
1F
100
AcDbEntity
  8
TRMODEL1
  6
Continuous
 62
     2
100
AcDbLine
 10
8.8037265252
 20
5.55078125
 30
0.0
 11
8.8781265252
 21
5.6028766908
 31
0.0
  0
LINE
  5
1DF
330
1F
100
AcDbEntity
  8
TRMODEL1
  6
Continuous
 62
     2
100
AcDbLine
 10
8.8781265252
 20
5.4986858092
 30
0.0
 11
8.8037265252
 21
5.55078125
 31
0.0
  0
LINE
  5
1E0
330
1F
100
AcDbEntity
  8
TRMODEL1
  6
Continuous
 62
     2
100
AcDbLine
 10
8.8781265252
 20
5.4778766908
 30
0.0
 11
8.8781265252
 21
5.4986858092
 31
0.0
  0
LINE
  5
1E1
330
1F
100
AcDbEntity
  8
TRMODEL1
  6
Continuous
 62
     4
100
AcDbLine
 10
9.3156265252
 20
5.17578125
 30
0.0
 11
9.4406265252
 21
5.17578125
 31
0.0
  0
LINE
  5
1E2
330
1F
100
AcDbEntity
  8
TRMODEL1
  6
Continuous
 62
     2
100
AcDbLine
 10
8.8781265252
 20
7.1236858092
 30
0.0
 11
8.8037265252
 21
7.17578125
 31
0.0
  0
LINE
  5
1E3
330
1F
100
AcDbEntity
  8
TRMODEL1
  6
Continuous
 62
     2
100
AcDbLine
 10
8.8781265252
 20
6.7486858092
 30
0.0
 11
8.8037265252
 21
6.80078125
 31
0.0
  0
LINE
  5
1E4
330
1F
100
AcDbEntity
  8
TRMODEL1
  6
Continuous
 62
     2
100
AcDbLine
 10
8.8781265252
 20
6.7278766908
 30
0.0
 11
8.8781265252
 21
6.7486858092
 31
0.0
  0
LINE
  5
1E5
330
1F
100
AcDbEntity
  8
TRMODEL1
  6
Continuous
 62
     2
100
AcDbLine
 10
8.8037265252
 20
6.67578125
 30
0.0
 11
8.8781265252
 21
6.7278766908
 31
0.0
  0
LINE
  5
1E6
330
1F
100
AcDbEntity
  8
TRMODEL1
  6
Continuous
 62
     2
100
AcDbLine
 10
8.8781265252
 20
6.6028766908
 30
0.0
 11
8.8781265252
 21
6.6236858092
 31
0.0
  0
LINE
  5
1E7
330
1F
100
AcDbEntity
  8
TRMODEL1
  6
Continuous
 62
     2
100
AcDbLine
 10
8.8781265252
 20
6.6236858092
 30
0.0
 11
8.8037265252
 21
6.67578125
 31
0.0
  0
LINE
  5
1E8
330
1F
100
AcDbEntity
  8
TRMODEL1
  6
Continuous
 62
     2
100
AcDbLine
 10
8.8037265252
 20
7.05078125
 30
0.0
 11
8.8781265252
 21
7.1028766908
 31
0.0
  0
LINE
  5
1E9
330
1F
100
AcDbEntity
  8
TRMODEL1
  6
Continuous
 62
     2
100
AcDbLine
 10
8.8781265252
 20
6.9986858092
 30
0.0
 11
8.8037265252
 21
7.05078125
 31
0.0
  0
LINE
  5
1EA
330
1F
100
AcDbEntity
  8
TRMODEL1
  6
Continuous
 62
     2
100
AcDbLine
 10
8.8037265252
 20
6.80078125
 30
0.0
 11
8.8781265252
 21
6.8528766908
 31
0.0
  0
LINE
  5
1EB
330
1F
100
AcDbEntity
  8
TRMODEL1
  6
Continuous
 62
     2
100
AcDbLine
 10
8.8781265252
 20
6.9778766908
 30
0.0
 11
8.8781265252
 21
6.9986858092
 31
0.0
  0
LINE
  5
1EC
330
1F
100
AcDbEntity
  8
TRMODEL1
  6
Continuous
 62
     2
100
AcDbLine
 10
8.8781265252
 20
7.1028766908
 30
0.0
 11
8.8781265252
 21
7.1236858092
 31
0.0
  0
LINE
  5
1ED
330
1F
100
AcDbEntity
  8
TRMODEL1
  6
Continuous
 62
     2
100
AcDbLine
 10
8.8037265252
 20
6.92578125
 30
0.0
 11
8.8781265252
 21
6.9778766908
 31
0.0
  0
LINE
  5
1EE
330
1F
100
AcDbEntity
  8
TRMODEL1
  6
Continuous
 62
     2
100
AcDbLine
 10
8.8781265252
 20
6.8528766908
 30
0.0
 11
8.8781265252
 21
6.8736858092
 31
0.0
  0
LINE
  5
1EF
330
1F
100
AcDbEntity
  8
TRMODEL1
  6
Continuous
 62
     2
100
AcDbLine
 10
8.8781265252
 20
6.8736858092
 30
0.0
 11
8.8037265252
 21
6.92578125
 31
0.0
  0
LINE
  5
1F0
330
1F
100
AcDbEntity
  8
TRMODEL1
  6
Continuous
 62
     2
100
AcDbLine
 10
8.8037265252
 20
5.92578125
 30
0.0
 11
8.8781265252
 21
5.9778766908
 31
0.0
  0
LINE
  5
1F1
330
1F
100
AcDbEntity
  8
TRMODEL1
  6
Continuous
 62
     2
100
AcDbLine
 10
8.8781265252
 20
5.8736858092
 30
0.0
 11
8.8037265252
 21
5.92578125
 31
0.0
  0
LINE
  5
1F2
330
1F
100
AcDbEntity
  8
TRMODEL1
  6
Continuous
 62
     2
100
AcDbLine
 10
8.8781265252
 20
5.8528766908
 30
0.0
 11
8.8781265252
 21
5.8736858092
 31
0.0
  0
LINE
  5
1F3
330
1F
100
AcDbEntity
  8
TRMODEL1
  6
Continuous
 62
     2
100
AcDbLine
 10
8.8037265252
 20
6.17578125
 30
0.0
 11
8.8781265252
 21
6.2278766908
 31
0.0
  0
LINE
  5
1F4
330
1F
100
AcDbEntity
  8
TRMODEL1
  6
Continuous
 62
     2
100
AcDbLine
 10
8.8037265252
 20
6.30078125
 30
0.0
 11
8.8781265252
 21
6.3528766908
 31
0.0
  0
LINE
  5
1F5
330
1F
100
AcDbEntity
  8
TRMODEL1
  6
Continuous
 62
     2
100
AcDbLine
 10
8.8781265252
 20
6.2278766908
 30
0.0
 11
8.8781265252
 21
6.2486858092
 31
0.0
  0
LINE
  5
1F6
330
1F
100
AcDbEntity
  8
TRMODEL1
  6
Continuous
 62
     2
100
AcDbLine
 10
8.8781265252
 20
5.9986858092
 30
0.0
 11
8.8037265252
 21
6.05078125
 31
0.0
  0
LINE
  5
1F7
330
1F
100
AcDbEntity
  8
TRMODEL1
  6
Continuous
 62
     2
100
AcDbLine
 10
8.8037265252
 20
6.05078125
 30
0.0
 11
8.8781265252
 21
6.1028766908
 31
0.0
  0
LINE
  5
1F8
330
1F
100
AcDbEntity
  8
TRMODEL1
  6
Continuous
 62
     2
100
AcDbLine
 10
8.8781265252
 20
6.1236858092
 30
0.0
 11
8.8037265252
 21
6.17578125
 31
0.0
  0
LINE
  5
1F9
330
1F
100
AcDbEntity
  8
TRMODEL1
  6
Continuous
 62
     2
100
AcDbLine
 10
8.8781265252
 20
6.1028766908
 30
0.0
 11
8.8781265252
 21
6.1236858092
 31
0.0
  0
LINE
  5
1FA
330
1F
100
AcDbEntity
  8
TRMODEL1
  6
Continuous
 62
     2
100
AcDbLine
 10
8.8781265252
 20
6.2486858092
 30
0.0
 11
8.8037265252
 21
6.30078125
 31
0.0
  0
LINE
  5
1FB
330
1F
100
AcDbEntity
  8
TRMODEL1
  6
Continuous
 62
     2
100
AcDbLine
 10
8.8781265252
 20
5.9778766908
 30
0.0
 11
8.8781265252
 21
5.9986858092
 31
0.0
  0
LINE
  5
1FC
330
1F
100
AcDbEntity
  8
TRMODEL1
  6
Continuous
 62
     2
100
AcDbLine
 10
8.8781265252
 20
6.4986858092
 30
0.0
 11
8.8037265252
 21
6.55078125
 31
0.0
  0
LINE
  5
1FD
330
1F
100
AcDbEntity
  8
TRMODEL1
  6
Continuous
 62
     2
100
AcDbLine
 10
8.8037265252
 20
6.42578125
 30
0.0
 11
8.8781265252
 21
6.4778766908
 31
0.0
  0
LINE
  5
1FE
330
1F
100
AcDbEntity
  8
TRMODEL1
  6
Continuous
 62
     2
100
AcDbLine
 10
8.8781265252
 20
6.4778766908
 30
0.0
 11
8.8781265252
 21
6.4986858092
 31
0.0
  0
LINE
  5
1FF
330
1F
100
AcDbEntity
  8
TRMODEL1
  6
Continuous
 62
     2
100
AcDbLine
 10
8.8781265252
 20
6.3736858092
 30
0.0
 11
8.8037265252
 21
6.42578125
 31
0.0
  0
LINE
  5
200
330
1F
100
AcDbEntity
  8
TRMODEL1
  6
Continuous
 62
     2
100
AcDbLine
 10
8.8781265252
 20
6.3528766908
 30
0.0
 11
8.8781265252
 21
6.3736858092
 31
0.0
  0
LINE
  5
201
330
1F
100
AcDbEntity
  8
TRMODEL1
  6
Continuous
 62
     2
100
AcDbLine
 10
8.8037265252
 20
6.55078125
 30
0.0
 11
8.8781265252
 21
6.6028766908
 31
0.0
  0
LINE
  5
202
330
1F
100
AcDbEntity
  8
TRMODEL1
  6
Continuous
 62
     4
100
AcDbLine
 10
9.0125316538
 20
7.5451588354
 30
0.0
 11
9.0193772845
 21
7.67578125
 31
0.0
  0
LINE
  5
203
330
1F
100
AcDbEntity
  8
TRMODEL1
  6
Continuous
 62
     2
100
AcDbLine
 10
8.8781265252
 20
7.3736858092
 30
0.0
 11
8.8037265252
 21
7.42578125
 31
0.0
  0
LINE
  5
204
330
1F
100
AcDbEntity
  8
TRMODEL1
  6
Continuous
 62
     2
100
AcDbLine
 10
8.8037265252
 20
7.42578125
 30
0.0
 11
8.8781265252
 21
7.4778766908
 31
0.0
  0
LINE
  5
205
330
1F
100
AcDbEntity
  8
TRMODEL1
  6
Continuous
 62
     2
100
AcDbLine
 10
8.8037265252
 20
7.30078125
 30
0.0
 11
8.8781265252
 21
7.3528766908
 31
0.0
  0
LINE
  5
206
330
1F
100
AcDbEntity
  8
TRMODEL1
  6
Continuous
 62
     2
100
AcDbLine
 10
8.8781265252
 20
7.4778766908
 30
0.0
 11
8.8781265252
 21
7.4986858092
 31
0.0
  0
LINE
  5
207
330
1F
100
AcDbEntity
  8
TRMODEL1
  6
Continuous
 62
     2
100
AcDbLine
 10
8.8781265252
 20
7.3528766908
 30
0.0
 11
8.8781265252
 21
7.3736858092
 31
0.0
  0
LINE
  5
208
330
1F
100
AcDbEntity
  8
TRMODEL1
  6
Continuous
 62
     2
100
AcDbLine
 10
8.8781265252
 20
7.4986858092
 30
0.0
 11
8.8537117055
 21
7.51578125
 31
0.0
  0
LINE
  5
209
330
1F
100
AcDbEntity
  8
TRMODEL1
  6
Continuous
 62
     2
100
AcDbLine
 10
8.8781265252
 20
7.2278766908
 30
0.0
 11
8.8781265252
 21
7.2486858092
 31
0.0
  0
LINE
  5
20A
330
1F
100
AcDbEntity
  8
TRMODEL1
  6
Continuous
 62
     2
100
AcDbLine
 10
8.8781265252
 20
7.2486858092
 30
0.0
 11
8.8037265252
 21
7.30078125
 31
0.0
  0
LINE
  5
20B
330
1F
100
AcDbEntity
  8
TRMODEL1
  6
Continuous
 62
     2
100
AcDbLine
 10
8.8037265252
 20
7.17578125
 30
0.0
 11
8.8781265252
 21
7.2278766908
 31
0.0
  0
LINE
  5
20C
330
1F
100
AcDbEntity
  8
TRMODEL1
  6
Continuous
 62
     4
100
AcDbLine
 10
8.8213098866
 20
7.67578125
 30
0.0
 11
8.8015993687
 21
7.67578125
 31
0.0
  0
LINE
  5
20D
330
1F
100
AcDbEntity
  8
TRMODEL1
  6
Continuous
 62
     4
100
AcDbLine
 10
9.2200318995
 20
7.6912317005
 30
0.0
 11
9.2089160825
 21
7.67578125
 31
0.0
  0
LINE
  5
20E
330
1F
100
AcDbEntity
  8
TRMODEL1
  6
Continuous
 62
     4
100
AcDbLine
 10
9.2210791043
 20
7.7512260242
 30
0.0
 11
9.2200318995
 21
7.6912317005
 31
0.0
  0
LINE
  5
20F
330
1F
100
AcDbEntity
  8
TRMODEL1
  6
Continuous
 62
     4
100
AcDbLine
 10
9.2089160825
 20
7.67578125
 30
0.0
 11
9.0965516724
 21
7.67578125
 31
0.0
  0
LINE
  5
210
330
1F
100
AcDbEntity
  8
TRMODEL1
  6
Continuous
 62
     4
100
AcDbLine
 10
9.1072860921
 20
7.6912317005
 30
0.0
 11
9.1910836735
 21
7.7512260242
 31
0.0
  0
LINE
  5
211
330
1F
100
AcDbEntity
  8
TRMODEL1
  6
Continuous
 62
     4
100
AcDbLine
 10
9.2210791043
 20
7.7512260242
 30
0.0
 11
9.2205695655
 21
7.7550511422
 31
0.0
  0
LINE
  5
212
330
1F
100
AcDbEntity
  8
TRMODEL1
  6
Continuous
 62
     4
100
AcDbLine
 10
9.2205695655
 20
7.7550511422
 30
0.0
 11
9.2189123965
 21
7.7578934167
 31
0.0
  0
LINE
  5
213
330
1F
100
AcDbEntity
  8
TRMODEL1
  6
Continuous
 62
     4
100
AcDbLine
 10
9.2189123965
 20
7.7578934167
 30
0.0
 11
9.2161712568
 21
7.7596436629
 31
0.0
  0
LINE
  5
214
330
1F
100
AcDbEntity
  8
TRMODEL1
  6
Continuous
 62
     4
100
AcDbLine
 10
9.2161712568
 20
7.7596436629
 30
0.0
 11
9.2124514462
 21
7.7602346457
 31
0.0
  0
LINE
  5
215
330
1F
100
AcDbEntity
  8
TRMODEL1
  6
Continuous
 62
     4
100
AcDbLine
 10
9.2124514462
 20
7.7602346457
 30
0.0
 11
9.2078958597
 21
7.7596436629
 31
0.0
  0
LINE
  5
216
330
1F
100
AcDbEntity
  8
TRMODEL1
  6
Continuous
 62
     4
100
AcDbLine
 10
9.2078958597
 20
7.7596436629
 30
0.0
 11
9.2026794982
 21
7.7578934167
 31
0.0
  0
LINE
  5
217
330
1F
100
AcDbEntity
  8
TRMODEL1
  6
Continuous
 62
     4
100
AcDbLine
 10
9.2026794982
 20
7.7578934167
 30
0.0
 11
9.1970027461
 21
7.7550511422
 31
0.0
  0
LINE
  5
218
330
1F
100
AcDbEntity
  8
TRMODEL1
  6
Continuous
 62
     4
100
AcDbLine
 10
9.1970027461
 20
7.7550511422
 30
0.0
 11
9.1910836735
 21
7.7512260242
 31
0.0
  0
LINE
  5
219
330
1F
100
AcDbEntity
  8
TRMODEL1
  6
Continuous
 62
     4
100
AcDbLine
 10
9.0965516724
 20
7.67578125
 30
0.0
 11
8.8213098866
 21
7.67578125
 31
0.0
  0
LINE
  5
21A
330
1F
100
AcDbEntity
  8
TRMODEL1
  6
Continuous
 62
     4
100
AcDbLine
 10
9.0965516724
 20
7.67578125
 30
0.0
 11
9.1072860921
 21
7.6912317005
 31
0.0
  0
LINE
  5
21B
330
1F
100
AcDbEntity
  8
TRMODEL1
  6
Continuous
 62
     4
100
AcDbLine
 10
10.0583445044
 20
10.0495791559
 30
0.0
 11
6.6979085461
 21
10.0495791559
 31
0.0
  0
LINE
  5
21C
330
1F
100
AcDbEntity
  8
TRMODEL1
  6
Continuous
 62
     4
100
AcDbLine
 10
5.8781265252
 20
10.17578125
 30
0.0
 11
10.8781265252
 21
10.17578125
 31
0.0
  0
LINE
  5
21D
330
1F
100
AcDbEntity
  8
TRMODEL1
  6
Continuous
 62
     4
100
AcDbLine
 10
8.6281265252
 20
8.67578125
 30
0.0
 11
8.1281265252
 21
8.67578125
 31
0.0
  0
LINE
  5
21E
330
1F
100
AcDbEntity
  8
TRMODEL1
  6
Continuous
 62
     4
100
AcDbLine
 10
8.1248248351
 20
8.73878125
 30
0.0
 11
8.6314282153
 21
8.73878125
 31
0.0
  0
LINE
  5
21F
330
1F
100
AcDbEntity
  8
TRMODEL1
  6
Continuous
 62
     4
100
AcDbLine
 10
7.9832861122
 20
9.92578125
 30
0.0
 11
8.7729669382
 21
9.92578125
 31
0.0
  0
LINE
  5
220
330
1F
100
AcDbEntity
  8
TRMODEL1
  6
Continuous
 62
     4
100
AcDbLine
 10
7.4711900171
 20
9.42578125
 30
0.0
 11
9.2850630334
 21
9.42578125
 31
0.0
  0
LINE
  5
221
330
1F
100
AcDbEntity
  8
TRMODEL1
  6
Continuous
 62
     4
100
AcDbLine
 10
7.4741142469
 20
9.8302320716
 30
0.0
 11
7.7909931443
 21
9.7958666887
 31
0.0
  0
LINE
  5
222
330
1F
100
AcDbEntity
  8
TRMODEL1
  6
Continuous
 62
     4
100
AcDbLine
 10
7.7909931443
 20
9.7958666887
 30
0.0
 11
8.1089008731
 21
9.7705786404
 31
0.0
  0
LINE
  5
223
330
1F
100
AcDbEntity
  8
TRMODEL1
  6
Continuous
 62
     4
100
AcDbLine
 10
8.1089008731
 20
9.7705786404
 30
0.0
 11
8.4294634239
 21
9.7632317339
 31
0.0
  0
LINE
  5
224
330
1F
100
AcDbEntity
  8
TRMODEL1
  6
Continuous
 62
     4
100
AcDbLine
 10
8.4294634239
 20
9.7632317339
 30
0.0
 11
8.751203713
 21
9.7772404287
 31
0.0
  0
LINE
  5
225
330
1F
100
AcDbEntity
  8
TRMODEL1
  6
Continuous
 62
     4
100
AcDbLine
 10
8.751203713
 20
9.7772404287
 30
0.0
 11
9.2821388035
 21
9.8302320716
 31
0.0
  0
LINE
  5
226
330
1F
100
AcDbEntity
  8
TRMODEL1
  6
Continuous
 62
     4
100
AcDbLine
 10
7.9611236522
 20
9.9246022742
 30
0.0
 11
7.8890361695
 21
9.9231316798
 31
0.0
  0
LINE
  5
227
330
1F
100
AcDbEntity
  8
TRMODEL1
  6
Continuous
 62
     4
100
AcDbLine
 10
7.8890361695
 20
9.9231316798
 30
0.0
 11
7.8307011748
 21
9.9206535016
 31
0.0
  0
LINE
  5
228
330
1F
100
AcDbEntity
  8
TRMODEL1
  6
Continuous
 62
     4
100
AcDbLine
 10
7.8307011748
 20
9.9206535016
 30
0.0
 11
7.7879727635
 21
9.9168448796
 31
0.0
  0
LINE
  5
229
330
1F
100
AcDbEntity
  8
TRMODEL1
  6
Continuous
 62
     4
100
AcDbLine
 10
7.7879727635
 20
9.9168448796
 30
0.0
 11
7.7618204004
 21
9.911439567
 31
0.0
  0
LINE
  5
22A
330
1F
100
AcDbEntity
  8
TRMODEL1
  6
Continuous
 62
     4
100
AcDbLine
 10
7.7618204004
 20
9.911439567
 30
0.0
 11
7.753189813
 21
9.904186855
 31
0.0
  0
LINE
  5
22B
330
1F
100
AcDbEntity
  8
TRMODEL1
  6
Continuous
 62
     4
100
AcDbLine
 10
7.753189813
 20
9.904186855
 30
0.0
 11
7.7619893245
 21
9.8949980574
 31
0.0
  0
LINE
  5
22C
330
1F
100
AcDbEntity
  8
TRMODEL1
  6
Continuous
 62
     4
100
AcDbLine
 10
7.7619893245
 20
9.8949980574
 30
0.0
 11
7.7881977772
 21
9.8838270207
 31
0.0
  0
LINE
  5
22D
330
1F
100
AcDbEntity
  8
TRMODEL1
  6
Continuous
 62
     4
100
AcDbLine
 10
7.7881977772
 20
9.8838270207
 30
0.0
 11
7.8307546228
 21
9.8709660368
 31
0.0
  0
LINE
  5
22E
330
1F
100
AcDbEntity
  8
TRMODEL1
  6
Continuous
 62
     4
100
AcDbLine
 10
7.8307546228
 20
9.8709660368
 30
0.0
 11
7.8891432725
 21
9.8567067202
 31
0.0
  0
LINE
  5
22F
330
1F
100
AcDbEntity
  8
TRMODEL1
  6
Continuous
 62
     4
100
AcDbLine
 10
7.8891432725
 20
9.8567067202
 30
0.0
 11
7.9612444902
 21
9.8419712158
 31
0.0
  0
LINE
  5
230
330
1F
100
AcDbEntity
  8
TRMODEL1
  6
Continuous
 62
     4
100
AcDbLine
 10
7.9612444902
 20
9.8419712158
 30
0.0
 11
8.0462077731
 21
9.827650374
 31
0.0
  0
LINE
  5
231
330
1F
100
AcDbEntity
  8
TRMODEL1
  6
Continuous
 62
     4
100
AcDbLine
 10
8.0462077731
 20
9.827650374
 30
0.0
 11
8.1409216593
 21
9.8152914496
 31
0.0
  0
LINE
  5
232
330
1F
100
AcDbEntity
  8
TRMODEL1
  6
Continuous
 62
     4
100
AcDbLine
 10
8.1409216593
 20
9.8152914496
 30
0.0
 11
8.2421123705
 21
9.8064757007
 31
0.0
  0
LINE
  5
233
330
1F
100
AcDbEntity
  8
TRMODEL1
  6
Continuous
 62
     4
100
AcDbLine
 10
8.2421123705
 20
9.8064757007
 30
0.0
 11
8.3474510923
 21
9.8022504417
 31
0.0
  0
LINE
  5
234
330
1F
100
AcDbEntity
  8
TRMODEL1
  6
Continuous
 62
     4
100
AcDbLine
 10
8.3474510923
 20
9.8022504417
 30
0.0
 11
8.4498863132
 21
9.803299624
 31
0.0
  0
LINE
  5
235
330
1F
100
AcDbEntity
  8
TRMODEL1
  6
Continuous
 62
     4
100
AcDbLine
 10
8.4498863132
 20
9.803299624
 30
0.0
 11
8.5502650163
 21
9.8090670763
 31
0.0
  0
LINE
  5
236
330
1F
100
AcDbEntity
  8
TRMODEL1
  6
Continuous
 62
     4
100
AcDbLine
 10
8.5502650163
 20
9.8090670763
 30
0.0
 11
8.6447133526
 21
9.8187249841
 31
0.0
  0
LINE
  5
237
330
1F
100
AcDbEntity
  8
TRMODEL1
  6
Continuous
 62
     4
100
AcDbLine
 10
8.6447133526
 20
9.8187249841
 30
0.0
 11
8.732024438
 21
9.8310563332
 31
0.0
  0
LINE
  5
238
330
1F
100
AcDbEntity
  8
TRMODEL1
  6
Continuous
 62
     4
100
AcDbLine
 10
8.732024438
 20
9.8310563332
 30
0.0
 11
8.8125230283
 21
9.8453137456
 31
0.0
  0
LINE
  5
239
330
1F
100
AcDbEntity
  8
TRMODEL1
  6
Continuous
 62
     4
100
AcDbLine
 10
8.8125230283
 20
9.8453137456
 30
0.0
 11
8.8810403611
 21
9.8598840709
 31
0.0
  0
LINE
  5
23A
330
1F
100
AcDbEntity
  8
TRMODEL1
  6
Continuous
 62
     4
100
AcDbLine
 10
8.8810403611
 20
9.8598840709
 30
0.0
 11
8.9366080325
 21
9.8740338988
 31
0.0
  0
LINE
  5
23B
330
1F
100
AcDbEntity
  8
TRMODEL1
  6
Continuous
 62
     4
100
AcDbLine
 10
8.9366080325
 20
9.8740338988
 30
0.0
 11
8.9761736256
 21
9.8867812892
 31
0.0
  0
LINE
  5
23C
330
1F
100
AcDbEntity
  8
TRMODEL1
  6
Continuous
 62
     4
100
AcDbLine
 10
8.9761736256
 20
9.8867812892
 30
0.0
 11
8.9982064205
 21
9.8975853346
 31
0.0
  0
LINE
  5
23D
330
1F
100
AcDbEntity
  8
TRMODEL1
  6
Continuous
 62
     4
100
AcDbLine
 10
8.9982064205
 20
9.8975853346
 30
0.0
 11
9.0024767106
 21
9.9063987387
 31
0.0
  0
LINE
  5
23E
330
1F
100
AcDbEntity
  8
TRMODEL1
  6
Continuous
 62
     4
100
AcDbLine
 10
9.0024767106
 20
9.9063987387
 30
0.0
 11
8.9887538756
 21
9.9131346409
 31
0.0
  0
LINE
  5
23F
330
1F
100
AcDbEntity
  8
TRMODEL1
  6
Continuous
 62
     4
100
AcDbLine
 10
8.9887538756
 20
9.9131346409
 30
0.0
 11
8.9577628798
 21
9.9180913086
 31
0.0
  0
LINE
  5
240
330
1F
100
AcDbEntity
  8
TRMODEL1
  6
Continuous
 62
     4
100
AcDbLine
 10
8.9577628798
 20
9.9180913086
 30
0.0
 11
8.9103661139
 21
9.9214799612
 31
0.0
  0
LINE
  5
241
330
1F
100
AcDbEntity
  8
TRMODEL1
  6
Continuous
 62
     4
100
AcDbLine
 10
8.9103661139
 20
9.9214799612
 30
0.0
 11
8.8480158748
 21
9.9236422269
 31
0.0
  0
LINE
  5
242
330
1F
100
AcDbEntity
  8
TRMODEL1
  6
Continuous
 62
     4
100
AcDbLine
 10
8.8480158748
 20
9.9236422269
 30
0.0
 11
8.7951293983
 21
9.9246022742
 31
0.0
  0
LINE
  5
243
330
1F
100
AcDbEntity
  8
TRMODEL1
  6
Continuous
 62
     4
100
AcDbLine
 10
8.0802138439
 20
11.05078125
 30
0.0
 11
8.1031265252
 21
10.17578125
 31
0.0
  0
LINE
  5
244
330
1F
100
AcDbEntity
  8
TRMODEL1
  6
Continuous
 62
     4
100
AcDbLine
 10
6.9801265252
 20
10.17578125
 30
0.0
 11
7.0030392066
 21
11.05078125
 31
0.0
  0
LINE
  5
245
330
1F
100
AcDbEntity
  8
TRMODEL1
  6
Continuous
 62
     4
100
AcDbLine
 10
7.1681265252
 20
11.05078125
 30
0.0
 11
7.1681265252
 21
10.17578125
 31
0.0
  0
LINE
  5
246
330
1F
100
AcDbEntity
  8
TRMODEL1
  6
Continuous
 62
     4
100
AcDbLine
 10
7.9151265252
 20
10.17578125
 30
0.0
 11
7.9151265252
 21
11.05078125
 31
0.0
  0
LINE
  5
247
330
1F
100
AcDbEntity
  8
TRMODEL1
  6
Continuous
 62
     2
100
AcDbLine
 10
5.6157360828
 20
10.17578125
 30
0.0
 11
3.9421755994
 21
10.17578125
 31
0.0
  0
LINE
  5
248
330
1F
100
AcDbEntity
  8
TRMODEL1
  6
Continuous
 62
     2
100
AcDbLine
 10
4.3288943494
 20
10.0
 30
0.0
 11
3.9773318494
 21
10.3515625
 31
0.0
  0
LINE
  5
249
330
1F
100
AcDbEntity
  8
TRMODEL1
  6
Continuous
 62
     4
100
AcDbLine
 10
7.3691434945
 20
9.6197479879
 30
0.0
 11
6.7938229225
 21
9.8384446684
 31
0.0
  0
LINE
  5
24A
330
1F
100
AcDbEntity
  8
TRMODEL1
  6
Continuous
 62
     4
100
AcDbLine
 10
6.628072756
 20
9.8384446684
 30
0.0
 11
7.208791897
 21
9.6197479879
 31
0.0
  0
LINE
  5
24B
330
1F
100
AcDbEntity
  8
TRMODEL1
  6
Continuous
 62
     4
100
AcDbLine
 10
7.4741142469
 20
9.8302320716
 30
0.0
 11
7.4711900171
 21
9.42578125
 31
0.0
  0
LINE
  5
24C
330
1F
100
AcDbEntity
  8
TRMODEL1
  6
Continuous
 62
     4
100
AcDbLine
 10
7.9571590364
 20
9.3660513616
 30
0.0
 11
7.957554404
 21
9.369891015
 31
0.0
  0
LINE
  5
24D
330
1F
100
AcDbEntity
  8
TRMODEL1
  6
Continuous
 62
     4
100
AcDbLine
 10
7.957554404
 20
9.369891015
 30
0.0
 11
7.9586231867
 21
9.3736318226
 31
0.0
  0
LINE
  5
24E
330
1F
100
AcDbEntity
  8
TRMODEL1
  6
Continuous
 62
     4
100
AcDbLine
 10
7.9586231867
 20
9.3736318226
 30
0.0
 11
7.9622818619
 21
9.379991106
 31
0.0
  0
LINE
  5
24F
330
1F
100
AcDbEntity
  8
TRMODEL1
  6
Continuous
 62
     4
100
AcDbLine
 10
7.9622818619
 20
9.379991106
 30
0.0
 11
7.9674538691
 21
9.3845656299
 31
0.0
  0
LINE
  5
250
330
1F
100
AcDbEntity
  8
TRMODEL1
  6
Continuous
 62
     4
100
AcDbLine
 10
7.9674538691
 20
9.3845656299
 30
0.0
 11
7.9705325756
 21
9.3859366211
 31
0.0
  0
LINE
  5
251
330
1F
100
AcDbEntity
  8
TRMODEL1
  6
Continuous
 62
     4
100
AcDbLine
 10
7.9705325756
 20
9.3859366211
 30
0.0
 11
7.9737090284
 21
9.3864793463
 31
0.0
  0
LINE
  5
252
330
1F
100
AcDbEntity
  8
TRMODEL1
  6
Continuous
 62
     4
100
AcDbLine
 10
8.1248248351
 20
8.73878125
 30
0.0
 11
8.0888206908
 21
9.42578125
 31
0.0
  0
LINE
  5
253
330
1F
100
AcDbEntity
  8
TRMODEL1
  6
Continuous
 62
     4
100
AcDbLine
 10
7.9231921678
 20
9.3864793163
 30
0.0
 11
7.9285597
 21
9.3844862876
 31
0.0
  0
LINE
  5
254
330
1F
100
AcDbEntity
  8
TRMODEL1
  6
Continuous
 62
     4
100
AcDbLine
 10
7.9285597
 20
9.3844862876
 30
0.0
 11
7.933268448
 21
9.3799019229
 31
0.0
  0
LINE
  5
255
330
1F
100
AcDbEntity
  8
TRMODEL1
  6
Continuous
 62
     4
100
AcDbLine
 10
7.933268448
 20
9.3799019229
 30
0.0
 11
7.9366084327
 21
9.37349802
 31
0.0
  0
LINE
  5
256
330
1F
100
AcDbEntity
  8
TRMODEL1
  6
Continuous
 62
     4
100
AcDbLine
 10
7.9366084327
 20
9.37349802
 30
0.0
 11
7.9375561681
 21
9.3697853069
 31
0.0
  0
LINE
  5
257
330
1F
100
AcDbEntity
  8
TRMODEL1
  6
Continuous
 62
     4
100
AcDbLine
 10
7.9375561681
 20
9.3697853069
 30
0.0
 11
7.9378697067
 21
9.3660463777
 31
0.0
  0
LINE
  5
258
330
1F
100
AcDbEntity
  8
TRMODEL1
  6
Continuous
 62
     4
100
AcDbLine
 10
7.9378697067
 20
9.3660463777
 30
0.0
 11
7.9421594025
 21
9.3661078395
 31
0.0
  0
LINE
  5
259
330
1F
100
AcDbEntity
  8
TRMODEL1
  6
Continuous
 62
     4
100
AcDbLine
 10
7.9421594025
 20
9.3661078395
 30
0.0
 11
7.9472177387
 21
9.3661301369
 31
0.0
  0
LINE
  5
25A
330
1F
100
AcDbEntity
  8
TRMODEL1
  6
Continuous
 62
     4
100
AcDbLine
 10
7.9472177387
 20
9.3661301369
 30
0.0
 11
7.9524290946
 21
9.3661107206
 31
0.0
  0
LINE
  5
25B
330
1F
100
AcDbEntity
  8
TRMODEL1
  6
Continuous
 62
     4
100
AcDbLine
 10
7.9524290946
 20
9.3661107206
 30
0.0
 11
7.957159184
 21
9.3660521395
 31
0.0
  0
LINE
  5
25C
330
1F
100
AcDbEntity
  8
TRMODEL1
  6
Continuous
 62
     4
100
AcDbLine
 10
8.1281265252
 20
8.67578125
 30
0.0
 11
8.1248248351
 21
8.73878125
 31
0.0
  0
LINE
  5
25D
330
1F
100
AcDbEntity
  8
TRMODEL1
  6
Continuous
 62
     4
100
AcDbLine
 10
7.9231921678
 20
9.3864793163
 30
0.0
 11
7.9253350526
 21
9.3959857437
 31
0.0
  0
LINE
  5
25E
330
1F
100
AcDbEntity
  8
TRMODEL1
  6
Continuous
 62
     4
100
AcDbLine
 10
7.9253350526
 20
9.3959857437
 30
0.0
 11
7.9308104755
 21
9.4040562079
 31
0.0
  0
LINE
  5
25F
330
1F
100
AcDbEntity
  8
TRMODEL1
  6
Continuous
 62
     4
100
AcDbLine
 10
7.9308104755
 20
9.4040562079
 30
0.0
 11
7.9389360665
 21
9.4093903961
 31
0.0
  0
LINE
  5
260
330
1F
100
AcDbEntity
  8
TRMODEL1
  6
Continuous
 62
     4
100
AcDbLine
 10
7.9389360665
 20
9.4093903961
 30
0.0
 11
7.9484720125
 21
9.411243662
 31
0.0
  0
LINE
  5
261
330
1F
100
AcDbEntity
  8
TRMODEL1
  6
Continuous
 62
     4
100
AcDbLine
 10
7.9484720125
 20
9.411243662
 30
0.0
 11
7.9580434462
 21
9.4094413779
 31
0.0
  0
LINE
  5
262
330
1F
100
AcDbEntity
  8
TRMODEL1
  6
Continuous
 62
     4
100
AcDbLine
 10
7.9580434462
 20
9.4094413779
 30
0.0
 11
7.9623393979
 21
9.4071842797
 31
0.0
  0
LINE
  5
263
330
1F
100
AcDbEntity
  8
TRMODEL1
  6
Continuous
 62
     4
100
AcDbLine
 10
7.9623393979
 20
9.4071842797
 30
0.0
 11
7.9660914563
 21
9.4040900073
 31
0.0
  0
LINE
  5
264
330
1F
100
AcDbEntity
  8
TRMODEL1
  6
Continuous
 62
     4
100
AcDbLine
 10
7.9660914563
 20
9.4040900073
 30
0.0
 11
7.9715740185
 21
9.3959628349
 31
0.0
  0
LINE
  5
265
330
1F
100
AcDbEntity
  8
TRMODEL1
  6
Continuous
 62
     4
100
AcDbLine
 10
7.9715740185
 20
9.3959628349
 30
0.0
 11
7.9737090284
 21
9.3864793463
 31
0.0
  0
LINE
  5
266
330
1F
100
AcDbEntity
  8
TRMODEL1
  6
Continuous
 62
     4
100
AcDbLine
 10
7.951490973
 20
9.4257812356
 30
0.0
 11
7.9557795722
 21
9.4250238611
 31
0.0
  0
LINE
  5
267
330
1F
100
AcDbEntity
  8
TRMODEL1
  6
Continuous
 62
     4
100
AcDbLine
 10
7.9557795722
 20
9.4250238611
 30
0.0
 11
7.9599064615
 21
9.4227932399
 31
0.0
  0
LINE
  5
268
330
1F
100
AcDbEntity
  8
TRMODEL1
  6
Continuous
 62
     4
100
AcDbLine
 10
7.9599064615
 20
9.4227932399
 30
0.0
 11
7.9637167091
 21
9.419173114
 31
0.0
  0
LINE
  5
269
330
1F
100
AcDbEntity
  8
TRMODEL1
  6
Continuous
 62
     4
100
AcDbLine
 10
7.9637167091
 20
9.419173114
 30
0.0
 11
7.9670672706
 21
9.4142993903
 31
0.0
  0
LINE
  5
26A
330
1F
100
AcDbEntity
  8
TRMODEL1
  6
Continuous
 62
     4
100
AcDbLine
 10
7.9670672706
 20
9.4142993903
 30
0.0
 11
7.9698323593
 21
9.4083550382
 31
0.0
  0
LINE
  5
26B
330
1F
100
AcDbEntity
  8
TRMODEL1
  6
Continuous
 62
     4
100
AcDbLine
 10
7.9698323593
 20
9.4083550382
 30
0.0
 11
7.971908168
 21
9.4015632206
 31
0.0
  0
LINE
  5
26C
330
1F
100
AcDbEntity
  8
TRMODEL1
  6
Continuous
 62
     4
100
AcDbLine
 10
7.971908168
 20
9.4015632206
 30
0.0
 11
7.9732167669
 21
9.3941789161
 31
0.0
  0
LINE
  5
26D
330
1F
100
AcDbEntity
  8
TRMODEL1
  6
Continuous
 62
     4
100
AcDbLine
 10
7.9732167669
 20
9.3941789161
 30
0.0
 11
7.9737090284
 21
9.3864793463
 31
0.0
  0
LINE
  5
26E
330
1F
100
AcDbEntity
  8
TRMODEL1
  6
Continuous
 62
     4
100
AcDbLine
 10
7.9737090284
 20
9.3864793463
 30
0.0
 11
8.0908804163
 21
9.3864793463
 31
0.0
  0
LINE
  5
26F
330
1F
100
AcDbEntity
  8
TRMODEL1
  6
Continuous
 62
     4
100
AcDbLine
 10
7.9231921678
 20
9.3864793163
 30
0.0
 11
7.9238188361
 21
9.3941830573
 31
0.0
  0
LINE
  5
270
330
1F
100
AcDbEntity
  8
TRMODEL1
  6
Continuous
 62
     4
100
AcDbLine
 10
7.9238188361
 20
9.3941830573
 30
0.0
 11
7.925484793
 21
9.4015710043
 31
0.0
  0
LINE
  5
271
330
1F
100
AcDbEntity
  8
TRMODEL1
  6
Continuous
 62
     4
100
AcDbLine
 10
7.925484793
 20
9.4015710043
 30
0.0
 11
7.9281274286
 21
9.408365527
 31
0.0
  0
LINE
  5
272
330
1F
100
AcDbEntity
  8
TRMODEL1
  6
Continuous
 62
     4
100
AcDbLine
 10
7.9281274286
 20
9.408365527
 30
0.0
 11
7.931647425
 21
9.414311268
 31
0.0
  0
LINE
  5
273
330
1F
100
AcDbEntity
  8
TRMODEL1
  6
Continuous
 62
     4
100
AcDbLine
 10
7.931647425
 20
9.414311268
 30
0.0
 11
7.9359124908
 21
9.4191847691
 31
0.0
  0
LINE
  5
274
330
1F
100
AcDbEntity
  8
TRMODEL1
  6
Continuous
 62
     4
100
AcDbLine
 10
7.9359124908
 20
9.4191847691
 30
0.0
 11
7.9407623326
 21
9.4228028702
 31
0.0
  0
LINE
  5
275
330
1F
100
AcDbEntity
  8
TRMODEL1
  6
Continuous
 62
     4
100
AcDbLine
 10
7.9407623326
 20
9.4228028702
 30
0.0
 11
7.9460146793
 21
9.4250295927
 31
0.0
  0
LINE
  5
276
330
1F
100
AcDbEntity
  8
TRMODEL1
  6
Continuous
 62
     4
100
AcDbLine
 10
7.9460146793
 20
9.4250295927
 30
0.0
 11
7.9514721328
 21
9.42578125
 31
0.0
  0
LINE
  5
277
330
1F
100
AcDbEntity
  8
TRMODEL1
  6
Continuous
 62
     4
100
AcDbLine
 10
7.5103082422
 20
9.17578125
 30
0.0
 11
7.5081265252
 21
9.42578125
 31
0.0
  0
LINE
  5
278
330
1F
100
AcDbEntity
  8
TRMODEL1
  6
Continuous
 62
     4
100
AcDbLine
 10
7.6597004366
 20
9.17578125
 30
0.0
 11
7.6630628247
 21
9.3864793463
 31
0.0
  0
LINE
  5
279
330
1F
100
AcDbEntity
  8
TRMODEL1
  6
Continuous
 62
     4
100
AcDbLine
 10
7.5381253829
 20
9.42578125
 30
0.0
 11
7.5403070999
 21
9.17578125
 31
0.0
  0
LINE
  5
27A
330
1F
100
AcDbEntity
  8
TRMODEL1
  6
Continuous
 62
     4
100
AcDbLine
 10
7.5103082422
 20
9.17578125
 30
0.0
 11
7.5108855033
 21
9.175712207
 31
0.0
  0
LINE
  5
27B
330
1F
100
AcDbEntity
  8
TRMODEL1
  6
Continuous
 62
     4
100
AcDbLine
 10
7.5108855033
 20
9.175712207
 30
0.0
 11
7.5125931027
 21
9.175660904
 31
0.0
  0
LINE
  5
27C
330
1F
100
AcDbEntity
  8
TRMODEL1
  6
Continuous
 62
     4
100
AcDbLine
 10
7.5125931027
 20
9.175660904
 30
0.0
 11
7.5153654343
 21
9.175629312
 31
0.0
  0
LINE
  5
27D
330
1F
100
AcDbEntity
  8
TRMODEL1
  6
Continuous
 62
     4
100
AcDbLine
 10
7.5153654343
 20
9.175629312
 30
0.0
 11
7.5190959847
 21
9.1756186447
 31
0.0
  0
LINE
  5
27E
330
1F
100
AcDbEntity
  8
TRMODEL1
  6
Continuous
 62
     4
100
AcDbLine
 10
7.5190959847
 20
9.1756186447
 30
0.0
 11
7.5236414255
 21
9.175629312
 31
0.0
  0
LINE
  5
27F
330
1F
100
AcDbEntity
  8
TRMODEL1
  6
Continuous
 62
     4
100
AcDbLine
 10
7.5236414255
 20
9.175629312
 30
0.0
 11
7.5288271202
 21
9.175660904
 31
0.0
  0
LINE
  5
280
330
1F
100
AcDbEntity
  8
TRMODEL1
  6
Continuous
 62
     4
100
AcDbLine
 10
7.5288271202
 20
9.175660904
 30
0.0
 11
7.5344538336
 21
9.175712207
 31
0.0
  0
LINE
  5
281
330
1F
100
AcDbEntity
  8
TRMODEL1
  6
Continuous
 62
     4
100
AcDbLine
 10
7.5344538336
 20
9.175712207
 30
0.0
 11
7.5403053865
 21
9.17578125
 31
0.0
  0
LINE
  5
282
330
1F
100
AcDbEntity
  8
TRMODEL1
  6
Continuous
 62
     4
100
AcDbLine
 10
7.5403070999
 20
9.17578125
 30
0.0
 11
7.6597004366
 21
9.17578125
 31
0.0
  0
LINE
  5
283
330
1F
100
AcDbEntity
  8
TRMODEL1
  6
Continuous
 62
     4
100
AcDbLine
 10
7.2418546086
 20
9.48578125
 30
0.0
 11
7.2444661737
 21
9.4659731767
 31
0.0
  0
LINE
  5
284
330
1F
100
AcDbEntity
  8
TRMODEL1
  6
Continuous
 62
     4
100
AcDbLine
 10
7.2444661737
 20
9.4659731767
 30
0.0
 11
7.2515534597
 21
9.4483895517
 31
0.0
  0
LINE
  5
285
330
1F
100
AcDbEntity
  8
TRMODEL1
  6
Continuous
 62
     4
100
AcDbLine
 10
7.2515534597
 20
9.4483895517
 30
0.0
 11
7.2623184915
 21
9.4350004379
 31
0.0
  0
LINE
  5
286
330
1F
100
AcDbEntity
  8
TRMODEL1
  6
Continuous
 62
     4
100
AcDbLine
 10
7.2623184915
 20
9.4350004379
 30
0.0
 11
7.2755733819
 21
9.4272944002
 31
0.0
  0
LINE
  5
287
330
1F
100
AcDbEntity
  8
TRMODEL1
  6
Continuous
 62
     4
100
AcDbLine
 10
7.2755733819
 20
9.4272944002
 30
0.0
 11
7.2850861915
 21
9.42578125
 31
0.0
  0
LINE
  5
288
330
1F
100
AcDbEntity
  8
TRMODEL1
  6
Continuous
 62
     4
100
AcDbLine
 10
7.3988992118
 20
9.48578125
 30
0.0
 11
7.2418546086
 21
9.48578125
 31
0.0
  0
LINE
  5
289
330
1F
100
AcDbEntity
  8
TRMODEL1
  6
Continuous
 62
     4
100
AcDbLine
 10
7.2409864973
 20
9.5617924383
 30
0.0
 11
7.3999074511
 21
9.5617924383
 31
0.0
  0
LINE
  5
28A
330
1F
100
AcDbEntity
  8
TRMODEL1
  6
Continuous
 62
     4
100
AcDbLine
 10
7.3691434945
 20
9.6197479879
 30
0.0
 11
7.208791897
 21
9.6197479879
 31
0.0
  0
LINE
  5
28B
330
1F
100
AcDbEntity
  8
TRMODEL1
  6
Continuous
 62
     4
100
AcDbLine
 10
7.2409864973
 20
9.5617924383
 30
0.0
 11
7.2418546086
 21
9.48578125
 31
0.0
  0
LINE
  5
28C
330
1F
100
AcDbEntity
  8
TRMODEL1
  6
Continuous
 62
     4
100
AcDbLine
 10
7.208791897
 20
9.6197479879
 30
0.0
 11
7.2218689687
 21
9.6113409998
 31
0.0
  0
LINE
  5
28D
330
1F
100
AcDbEntity
  8
TRMODEL1
  6
Continuous
 62
     4
100
AcDbLine
 10
7.2218689687
 20
9.6113409998
 30
0.0
 11
7.2323144215
 21
9.5973313327
 31
0.0
  0
LINE
  5
28E
330
1F
100
AcDbEntity
  8
TRMODEL1
  6
Continuous
 62
     4
100
AcDbLine
 10
7.2323144215
 20
9.5973313327
 30
0.0
 11
7.2389274978
 21
9.5793334031
 31
0.0
  0
LINE
  5
28F
330
1F
100
AcDbEntity
  8
TRMODEL1
  6
Continuous
 62
     4
100
AcDbLine
 10
7.2389274978
 20
9.5793334031
 30
0.0
 11
7.2409864973
 21
9.5617924383
 31
0.0
  0
LINE
  5
290
330
1F
100
AcDbEntity
  8
TRMODEL1
  6
Continuous
 62
     4
100
AcDbLine
 10
7.6630628247
 20
9.3864793463
 30
0.0
 11
7.6642489289
 21
9.3941830573
 31
0.0
  0
LINE
  5
291
330
1F
100
AcDbEntity
  8
TRMODEL1
  6
Continuous
 62
     4
100
AcDbLine
 10
7.6642489289
 20
9.3941830573
 30
0.0
 11
7.667516369
 21
9.4015710043
 31
0.0
  0
LINE
  5
292
330
1F
100
AcDbEntity
  8
TRMODEL1
  6
Continuous
 62
     4
100
AcDbLine
 10
7.667516369
 20
9.4015710043
 30
0.0
 11
7.6727423452
 21
9.408365527
 31
0.0
  0
LINE
  5
293
330
1F
100
AcDbEntity
  8
TRMODEL1
  6
Continuous
 62
     4
100
AcDbLine
 10
7.6727423452
 20
9.408365527
 30
0.0
 11
7.6797304505
 21
9.414311268
 31
0.0
  0
LINE
  5
294
330
1F
100
AcDbEntity
  8
TRMODEL1
  6
Continuous
 62
     4
100
AcDbLine
 10
7.6797304505
 20
9.414311268
 30
0.0
 11
7.6882180517
 21
9.4191847691
 31
0.0
  0
LINE
  5
295
330
1F
100
AcDbEntity
  8
TRMODEL1
  6
Continuous
 62
     4
100
AcDbLine
 10
7.6882180517
 20
9.4191847691
 30
0.0
 11
7.6978861605
 21
9.4228028702
 31
0.0
  0
LINE
  5
296
330
1F
100
AcDbEntity
  8
TRMODEL1
  6
Continuous
 62
     4
100
AcDbLine
 10
7.6978861605
 20
9.4228028702
 30
0.0
 11
7.7083714216
 21
9.4250295927
 31
0.0
  0
LINE
  5
297
330
1F
100
AcDbEntity
  8
TRMODEL1
  6
Continuous
 62
     4
100
AcDbLine
 10
7.7083714216
 20
9.4250295927
 30
0.0
 11
7.719279769
 21
9.42578125
 31
0.0
  0
LINE
  5
298
330
1F
100
AcDbEntity
  8
TRMODEL1
  6
Continuous
 62
     4
100
AcDbLine
 10
7.3178169856
 20
9.42578125
 30
0.0
 11
7.4037838339
 21
9.42578125
 31
0.0
  0
LINE
  5
299
330
1F
100
AcDbEntity
  8
TRMODEL1
  6
Continuous
 62
     4
100
AcDbLine
 10
7.3178169856
 20
9.42578125
 30
0.0
 11
7.2850861915
 21
9.42578125
 31
0.0
  0
LINE
  5
29A
330
1F
100
AcDbEntity
  8
TRMODEL1
  6
Continuous
 62
     4
100
AcDbLine
 10
7.4037838339
 20
9.42578125
 30
0.0
 11
7.3752092583
 21
9.4270358122
 31
0.0
  0
LINE
  5
29B
330
1F
100
AcDbEntity
  8
TRMODEL1
  6
Continuous
 62
     4
100
AcDbLine
 10
7.3752092583
 20
9.4270358122
 30
0.0
 11
7.3463310352
 21
9.4282455102
 31
0.0
  0
LINE
  5
29C
330
1F
100
AcDbEntity
  8
TRMODEL1
  6
Continuous
 62
     4
100
AcDbLine
 10
7.3463310352
 20
9.4282455102
 30
0.0
 11
7.3258537147
 21
9.4267672826
 31
0.0
  0
LINE
  5
29D
330
1F
100
AcDbEntity
  8
TRMODEL1
  6
Continuous
 62
     4
100
AcDbLine
 10
7.3258537147
 20
9.4267672826
 30
0.0
 11
7.3178169856
 21
9.42578125
 31
0.0
  0
LINE
  5
29E
330
1F
100
AcDbEntity
  8
TRMODEL1
  6
Continuous
 62
     4
100
AcDbLine
 10
7.4406496834
 20
9.42578125
 30
0.0
 11
7.4037838339
 21
9.42578125
 31
0.0
  0
LINE
  5
29F
330
1F
100
AcDbEntity
  8
TRMODEL1
  6
Continuous
 62
     4
100
AcDbLine
 10
7.3999074511
 20
9.5617924383
 30
0.0
 11
7.39778517
 21
9.5815994309
 31
0.0
  0
LINE
  5
2A0
330
1F
100
AcDbEntity
  8
TRMODEL1
  6
Continuous
 62
     4
100
AcDbLine
 10
7.39778517
 20
9.5815994309
 30
0.0
 11
7.3911325376
 21
9.5991821975
 31
0.0
  0
LINE
  5
2A1
330
1F
100
AcDbEntity
  8
TRMODEL1
  6
Continuous
 62
     4
100
AcDbLine
 10
7.3911325376
 20
9.5991821975
 30
0.0
 11
7.3806985416
 21
9.6125718935
 31
0.0
  0
LINE
  5
2A2
330
1F
100
AcDbEntity
  8
TRMODEL1
  6
Continuous
 62
     4
100
AcDbLine
 10
7.3806985416
 20
9.6125718935
 30
0.0
 11
7.3691434945
 21
9.6197479879
 31
0.0
  0
LINE
  5
2A3
330
1F
100
AcDbEntity
  8
TRMODEL1
  6
Continuous
 62
     4
100
AcDbLine
 10
7.3988992118
 20
9.48578125
 30
0.0
 11
7.3999074511
 21
9.5617924383
 31
0.0
  0
LINE
  5
2A4
330
1F
100
AcDbEntity
  8
TRMODEL1
  6
Continuous
 62
     4
100
AcDbLine
 10
7.4406496834
 20
9.42578125
 30
0.0
 11
7.4265925439
 21
9.4291725276
 31
0.0
  0
LINE
  5
2A5
330
1F
100
AcDbEntity
  8
TRMODEL1
  6
Continuous
 62
     4
100
AcDbLine
 10
7.4265925439
 20
9.4291725276
 30
0.0
 11
7.414203741
 21
9.4389762506
 31
0.0
  0
LINE
  5
2A6
330
1F
100
AcDbEntity
  8
TRMODEL1
  6
Continuous
 62
     4
100
AcDbLine
 10
7.414203741
 20
9.4389762506
 30
0.0
 11
7.4049090466
 21
9.4540632719
 31
0.0
  0
LINE
  5
2A7
330
1F
100
AcDbEntity
  8
TRMODEL1
  6
Continuous
 62
     4
100
AcDbLine
 10
7.4049090466
 20
9.4540632719
 30
0.0
 11
7.3997505036
 21
9.4726909258
 31
0.0
  0
LINE
  5
2A8
330
1F
100
AcDbEntity
  8
TRMODEL1
  6
Continuous
 62
     4
100
AcDbLine
 10
7.3997505036
 20
9.4726909258
 30
0.0
 11
7.3988992118
 21
9.48578125
 31
0.0
  0
LINE
  5
2A9
330
1F
100
AcDbEntity
  8
TRMODEL1
  6
Continuous
 62
     4
100
AcDbLine
 10
7.4406496834
 20
9.42578125
 30
0.0
 11
7.4711900171
 21
9.42578125
 31
0.0
  0
LINE
  5
2AA
330
1F
100
AcDbEntity
  8
TRMODEL1
  6
Continuous
 62
     4
100
AcDbLine
 10
7.6630628247
 20
9.3864793463
 30
0.0
 11
7.9231921678
 21
9.3864793163
 31
0.0
  0
LINE
  5
2AB
330
1F
100
AcDbEntity
  8
TRMODEL1
  6
Continuous
 62
     4
100
AcDbLine
 10
6.5269464847
 20
10.0495791559
 30
0.0
 11
5.8781265252
 21
10.0495791559
 31
0.0
  0
LINE
  5
2AC
330
1F
100
AcDbEntity
  8
TRMODEL1
  6
Continuous
 62
     4
100
AcDbLine
 10
6.5605427588
 20
9.8992712877
 30
0.0
 11
6.4746336142
 21
9.9063987387
 31
0.0
  0
LINE
  5
2AD
330
1F
100
AcDbEntity
  8
TRMODEL1
  6
Continuous
 62
     4
100
AcDbLine
 10
6.4746336142
 20
9.9063987387
 30
0.0
 11
6.3701665036
 21
9.9131346409
 31
0.0
  0
LINE
  5
2AE
330
1F
100
AcDbEntity
  8
TRMODEL1
  6
Continuous
 62
     4
100
AcDbLine
 10
6.3701665036
 20
9.9131346409
 30
0.0
 11
6.2693601964
 21
9.9180913086
 31
0.0
  0
LINE
  5
2AF
330
1F
100
AcDbEntity
  8
TRMODEL1
  6
Continuous
 62
     4
100
AcDbLine
 10
6.2693601964
 20
9.9180913086
 30
0.0
 11
6.1756100915
 21
9.9214799612
 31
0.0
  0
LINE
  5
2B0
330
1F
100
AcDbEntity
  8
TRMODEL1
  6
Continuous
 62
     4
100
AcDbLine
 10
6.1756100915
 20
9.9214799612
 30
0.0
 11
6.0910233838
 21
9.9236422269
 31
0.0
  0
LINE
  5
2B1
330
1F
100
AcDbEntity
  8
TRMODEL1
  6
Continuous
 62
     4
100
AcDbLine
 10
6.0910233838
 20
9.9236422269
 30
0.0
 11
6.0375799606
 21
9.9246022742
 31
0.0
  0
LINE
  5
2B2
330
1F
100
AcDbEntity
  8
TRMODEL1
  6
Continuous
 62
     4
100
AcDbLine
 10
6.5440765784
 20
9.9246022742
 30
0.0
 11
6.0375799606
 21
9.9246022742
 31
0.0
  0
LINE
  5
2B3
330
1F
100
AcDbEntity
  8
TRMODEL1
  6
Continuous
 62
     4
100
AcDbLine
 10
5.8781265252
 20
10.17578125
 30
0.0
 11
5.8781265252
 21
10.0495791559
 31
0.0
  0
LINE
  5
2B4
330
1F
100
AcDbEntity
  8
TRMODEL1
  6
Continuous
 62
     4
100
AcDbLine
 10
5.9858326388
 20
9.92578125
 30
0.0
 11
6.0186411815
 21
9.92578125
 31
0.0
  0
LINE
  5
2B5
330
1F
100
AcDbEntity
  8
TRMODEL1
  6
Continuous
 62
     4
100
AcDbLine
 10
6.0375799606
 20
9.9246022742
 30
0.0
 11
6.0186411815
 21
9.92578125
 31
0.0
  0
LINE
  5
2B6
330
1F
100
AcDbEntity
  8
TRMODEL1
  6
Continuous
 62
     4
100
AcDbLine
 10
6.6975263269
 20
10.0200387237
 30
0.0
 11
6.5272934767
 21
10.0200387237
 31
0.0
  0
LINE
  5
2B7
330
1F
100
AcDbEntity
  8
TRMODEL1
  6
Continuous
 62
     4
100
AcDbLine
 10
6.5269464847
 20
10.0495791559
 30
0.0
 11
6.5272934767
 21
10.0200387237
 31
0.0
  0
LINE
  5
2B8
330
1F
100
AcDbEntity
  8
TRMODEL1
  6
Continuous
 62
     4
100
AcDbLine
 10
6.6975263269
 20
10.0200387237
 30
0.0
 11
6.6979085461
 21
10.0495791559
 31
0.0
  0
LINE
  5
2B9
330
1F
100
AcDbEntity
  8
TRMODEL1
  6
Continuous
 62
     4
100
AcDbLine
 10
7.9832861122
 20
9.92578125
 30
0.0
 11
7.9611236522
 21
9.9246022742
 31
0.0
  0
LINE
  5
2BA
330
1F
100
AcDbEntity
  8
TRMODEL1
  6
Continuous
 62
     4
100
AcDbLine
 10
6.7830834392
 20
9.9246022742
 30
0.0
 11
6.9562089283
 21
9.9151928061
 31
0.0
  0
LINE
  5
2BB
330
1F
100
AcDbEntity
  8
TRMODEL1
  6
Continuous
 62
     4
100
AcDbLine
 10
6.9562089283
 20
9.9151928061
 30
0.0
 11
7.1290902335
 21
9.8963668052
 31
0.0
  0
LINE
  5
2BC
330
1F
100
AcDbEntity
  8
TRMODEL1
  6
Continuous
 62
     4
100
AcDbLine
 10
7.1290902335
 20
9.8963668052
 30
0.0
 11
7.3019822149
 21
9.8680254155
 31
0.0
  0
LINE
  5
2BD
330
1F
100
AcDbEntity
  8
TRMODEL1
  6
Continuous
 62
     4
100
AcDbLine
 10
7.3019822149
 20
9.8680254155
 30
0.0
 11
7.4741142469
 21
9.8302320716
 31
0.0
  0
LINE
  5
2BE
330
1F
100
AcDbEntity
  8
TRMODEL1
  6
Continuous
 62
     4
100
AcDbLine
 10
6.7938229225
 20
9.8384446684
 30
0.0
 11
6.628072756
 21
9.8384446684
 31
0.0
  0
LINE
  5
2BF
330
1F
100
AcDbEntity
  8
TRMODEL1
  6
Continuous
 62
     4
100
AcDbLine
 10
7.5270109596
 20
9.8588602005
 30
0.0
 11
7.5684392382
 21
9.8547112712
 31
0.0
  0
LINE
  5
2C0
330
1F
100
AcDbEntity
  8
TRMODEL1
  6
Continuous
 62
     4
100
AcDbLine
 10
7.5684392382
 20
9.8547112712
 30
0.0
 11
7.6050442696
 21
9.849142536
 31
0.0
  0
LINE
  5
2C1
330
1F
100
AcDbEntity
  8
TRMODEL1
  6
Continuous
 62
     4
100
AcDbLine
 10
7.6050442696
 20
9.849142536
 30
0.0
 11
7.6329953828
 21
9.8425529988
 31
0.0
  0
LINE
  5
2C2
330
1F
100
AcDbEntity
  8
TRMODEL1
  6
Continuous
 62
     4
100
AcDbLine
 10
7.6329953828
 20
9.8425529988
 30
0.0
 11
7.6490443805
 21
9.8355676357
 31
0.0
  0
LINE
  5
2C3
330
1F
100
AcDbEntity
  8
TRMODEL1
  6
Continuous
 62
     4
100
AcDbLine
 10
7.6490443805
 20
9.8355676357
 30
0.0
 11
7.6510474162
 21
9.8290749571
 31
0.0
  0
LINE
  5
2C4
330
1F
100
AcDbEntity
  8
TRMODEL1
  6
Continuous
 62
     4
100
AcDbLine
 10
7.6510474162
 20
9.8290749571
 30
0.0
 11
7.6386617174
 21
9.8240940311
 31
0.0
  0
LINE
  5
2C5
330
1F
100
AcDbEntity
  8
TRMODEL1
  6
Continuous
 62
     4
100
AcDbLine
 10
7.6386617174
 20
9.8240940311
 30
0.0
 11
7.6136629061
 21
9.8214766279
 31
0.0
  0
LINE
  5
2C6
330
1F
100
AcDbEntity
  8
TRMODEL1
  6
Continuous
 62
     4
100
AcDbLine
 10
7.6136629061
 20
9.8214766279
 30
0.0
 11
7.5794162214
 21
9.8216075992
 31
0.0
  0
LINE
  5
2C7
330
1F
100
AcDbEntity
  8
TRMODEL1
  6
Continuous
 62
     4
100
AcDbLine
 10
7.5794162214
 20
9.8216075992
 30
0.0
 11
7.5397956958
 21
9.824366609
 31
0.0
  0
LINE
  5
2C8
330
1F
100
AcDbEntity
  8
TRMODEL1
  6
Continuous
 62
     4
100
AcDbLine
 10
7.5397956958
 20
9.824366609
 30
0.0
 11
7.5270109596
 21
9.8256909246
 31
0.0
  0
LINE
  5
2C9
330
1F
100
AcDbEntity
  8
TRMODEL1
  6
Continuous
 62
     4
100
AcDbLine
 10
7.5270109596
 20
9.8256909246
 30
0.0
 11
7.4853921884
 21
9.8312843603
 31
0.0
  0
LINE
  5
2CA
330
1F
100
AcDbEntity
  8
TRMODEL1
  6
Continuous
 62
     4
100
AcDbLine
 10
7.4853921884
 20
9.8312843603
 30
0.0
 11
7.4486646211
 21
9.8379859264
 31
0.0
  0
LINE
  5
2CB
330
1F
100
AcDbEntity
  8
TRMODEL1
  6
Continuous
 62
     4
100
AcDbLine
 10
7.4486646211
 20
9.8379859264
 30
0.0
 11
7.4206101007
 21
9.8449483579
 31
0.0
  0
LINE
  5
2CC
330
1F
100
AcDbEntity
  8
TRMODEL1
  6
Continuous
 62
     4
100
AcDbLine
 10
7.4206101007
 20
9.8449483579
 30
0.0
 11
7.404755648
 21
9.8513321956
 31
0.0
  0
LINE
  5
2CD
330
1F
100
AcDbEntity
  8
TRMODEL1
  6
Continuous
 62
     4
100
AcDbLine
 10
7.404755648
 20
9.8513321956
 30
0.0
 11
7.4030958145
 21
9.8564845972
 31
0.0
  0
LINE
  5
2CE
330
1F
100
AcDbEntity
  8
TRMODEL1
  6
Continuous
 62
     4
100
AcDbLine
 10
7.4030958145
 20
9.8564845972
 30
0.0
 11
7.415646993
 21
9.8600170153
 31
0.0
  0
LINE
  5
2CF
330
1F
100
AcDbEntity
  8
TRMODEL1
  6
Continuous
 62
     4
100
AcDbLine
 10
7.415646993
 20
9.8600170153
 30
0.0
 11
7.4406993065
 21
9.8617511764
 31
0.0
  0
LINE
  5
2D0
330
1F
100
AcDbEntity
  8
TRMODEL1
  6
Continuous
 62
     4
100
AcDbLine
 10
7.4406993065
 20
9.8617511764
 30
0.0
 11
7.4752518209
 21
9.8616382424
 31
0.0
  0
LINE
  5
2D1
330
1F
100
AcDbEntity
  8
TRMODEL1
  6
Continuous
 62
     4
100
AcDbLine
 10
7.4752518209
 20
9.8616382424
 30
0.0
 11
7.5154307934
 21
9.8597077826
 31
0.0
  0
LINE
  5
2D2
330
1F
100
AcDbEntity
  8
TRMODEL1
  6
Continuous
 62
     4
100
AcDbLine
 10
7.5154307934
 20
9.8597077826
 30
0.0
 11
7.5270109596
 21
9.8588602005
 31
0.0
  0
LINE
  5
2D3
330
1F
100
AcDbEntity
  8
TRMODEL1
  6
Continuous
 62
     4
100
AcDbLine
 10
7.9611236522
 20
9.9246022742
 30
0.0
 11
6.7830834392
 21
9.9246022742
 31
0.0
  0
LINE
  5
2D4
330
1F
100
AcDbEntity
  8
TRMODEL1
  6
Continuous
 62
     4
100
AcDbLine
 10
6.628072756
 20
9.8384446684
 30
0.0
 11
6.587164465
 21
9.8647744025
 31
0.0
  0
LINE
  5
2D5
330
1F
100
AcDbEntity
  8
TRMODEL1
  6
Continuous
 62
     4
100
AcDbLine
 10
6.587164465
 20
9.8647744025
 30
0.0
 11
6.5544933983
 21
9.9086212411
 31
0.0
  0
LINE
  5
2D6
330
1F
100
AcDbEntity
  8
TRMODEL1
  6
Continuous
 62
     4
100
AcDbLine
 10
6.5544933983
 20
9.9086212411
 30
0.0
 11
6.5337731883
 21
9.9649917035
 31
0.0
  0
LINE
  5
2D7
330
1F
100
AcDbEntity
  8
TRMODEL1
  6
Continuous
 62
     4
100
AcDbLine
 10
6.5337731883
 20
9.9649917035
 30
0.0
 11
6.5272934767
 21
10.0200387237
 31
0.0
  0
LINE
  5
2D8
330
1F
100
AcDbEntity
  8
TRMODEL1
  6
Continuous
 62
     4
100
AcDbLine
 10
6.6975263269
 20
10.0200387237
 30
0.0
 11
6.7042061947
 21
9.9578843063
 31
0.0
  0
LINE
  5
2D9
330
1F
100
AcDbEntity
  8
TRMODEL1
  6
Continuous
 62
     4
100
AcDbLine
 10
6.7042061947
 20
9.9578843063
 30
0.0
 11
6.7251030346
 21
9.9027192858
 31
0.0
  0
LINE
  5
2DA
330
1F
100
AcDbEntity
  8
TRMODEL1
  6
Continuous
 62
     4
100
AcDbLine
 10
6.7251030346
 20
9.9027192858
 30
0.0
 11
6.7578565248
 21
9.8607583504
 31
0.0
  0
LINE
  5
2DB
330
1F
100
AcDbEntity
  8
TRMODEL1
  6
Continuous
 62
     4
100
AcDbLine
 10
6.7578565248
 20
9.8607583504
 30
0.0
 11
6.7938229225
 21
9.8384446684
 31
0.0
  0
LINE
  5
2DC
330
1F
100
AcDbEntity
  8
TRMODEL1
  6
Continuous
 62
     4
100
AcDbLine
 10
6.7830834392
 20
9.9246022742
 30
0.0
 11
6.7539855378
 21
9.9324472533
 31
0.0
  0
LINE
  5
2DD
330
1F
100
AcDbEntity
  8
TRMODEL1
  6
Continuous
 62
     4
100
AcDbLine
 10
6.7539855378
 20
9.9324472533
 30
0.0
 11
6.7285337095
 21
9.9535192551
 31
0.0
  0
LINE
  5
2DE
330
1F
100
AcDbEntity
  8
TRMODEL1
  6
Continuous
 62
     4
100
AcDbLine
 10
6.7285337095
 20
9.9535192551
 30
0.0
 11
6.7096256885
 21
9.9854164734
 31
0.0
  0
LINE
  5
2DF
330
1F
100
AcDbEntity
  8
TRMODEL1
  6
Continuous
 62
     4
100
AcDbLine
 10
6.7096256885
 20
9.9854164734
 30
0.0
 11
6.6993821609
 21
10.0245093022
 31
0.0
  0
LINE
  5
2E0
330
1F
100
AcDbEntity
  8
TRMODEL1
  6
Continuous
 62
     4
100
AcDbLine
 10
6.6993821609
 20
10.0245093022
 30
0.0
 11
6.6979085461
 21
10.0495791559
 31
0.0
  0
LINE
  5
2E1
330
1F
100
AcDbEntity
  8
TRMODEL1
  6
Continuous
 62
     2
100
AcDbLine
 10
8.0340278473
 20
11.67578125
 30
0.0
 11
0.8596635745
 21
11.67578125
 31
0.0
  0
LINE
  5
2E2
330
1F
100
AcDbEntity
  8
TRMODEL1
  6
Continuous
 62
     2
100
AcDbLine
 10
1.2463823245
 20
11.5
 30
0.0
 11
0.8948198245
 21
11.8515625
 31
0.0
  0
LINE
  5
2E3
330
1F
100
AcDbEntity
  8
TRMODEL1
  6
Continuous
 62
     4
100
AcDbLine
 10
7.9151265252
 20
11.05078125
 30
0.0
 11
7.1681265252
 21
11.05078125
 31
0.0
  0
LINE
  5
2E4
330
1F
100
AcDbEntity
  8
TRMODEL1
  6
Continuous
 62
     4
100
AcDbLine
 10
7.0030392066
 20
11.05078125
 30
0.0
 11
7.1681265252
 21
11.05078125
 31
0.0
  0
LINE
  5
2E5
330
1F
100
AcDbEntity
  8
TRMODEL1
  6
Continuous
 62
     4
100
AcDbLine
 10
7.9151265252
 20
11.05078125
 30
0.0
 11
8.0802138439
 21
11.05078125
 31
0.0
  0
LINE
  5
2E6
330
1F
100
AcDbEntity
  8
TRDETAIL2
  6
HIDDEN
 62
     3
100
AcDbLine
 10
16.0031265252
 20
11.67578125
 30
0.0
 11
15.9579252132
 21
10.17578125
 31
0.0
  0
LINE
  5
2E7
330
1F
100
AcDbEntity
  8
TRDETAIL2
  6
HIDDEN
 62
     3
100
AcDbLine
 10
15.7531265252
 20
11.67578125
 30
0.0
 11
15.7983278373
 21
10.17578125
 31
0.0
  0
LINE
  5
2E8
330
1F
100
AcDbEntity
  8
TRDETAIL2
  6
HIDDEN
 62
     3
100
AcDbLine
 10
14.5031265252
 20
11.67578125
 30
0.0
 11
14.4579252132
 21
10.17578125
 31
0.0
  0
LINE
  5
2E9
330
1F
100
AcDbEntity
  8
TRDETAIL2
  6
HIDDEN
 62
     3
100
AcDbLine
 10
14.2531265252
 20
11.67578125
 30
0.0
 11
14.2983278373
 21
10.17578125
 31
0.0
  0
LINE
  5
2EA
330
1F
100
AcDbEntity
  8
TRDETAIL2
  6
HIDDEN
 62
     3
100
AcDbLine
 10
13.0031265252
 20
11.67578125
 30
0.0
 11
12.9579252132
 21
10.17578125
 31
0.0
  0
LINE
  5
2EB
330
1F
100
AcDbEntity
  8
TRDETAIL2
  6
HIDDEN
 62
     3
100
AcDbLine
 10
12.7531265252
 20
11.67578125
 30
0.0
 11
12.7983278373
 21
10.17578125
 31
0.0
  0
LINE
  5
2EC
330
1F
100
AcDbEntity
  8
TRDETAIL2
  6
HIDDEN
 62
     3
100
AcDbLine
 10
11.5031265252
 20
11.67578125
 30
0.0
 11
11.4579252132
 21
10.17578125
 31
0.0
  0
LINE
  5
2ED
330
1F
100
AcDbEntity
  8
TRDETAIL2
  6
HIDDEN
 62
     3
100
AcDbLine
 10
11.2531265252
 20
11.67578125
 30
0.0
 11
11.2983278373
 21
10.17578125
 31
0.0
  0
LINE
  5
2EE
330
1F
100
AcDbEntity
  8
TRMODEL1
  6
Continuous
 62
     4
100
AcDbLine
 10
9.7532138439
 20
11.05078125
 30
0.0
 11
9.7761265252
 21
10.17578125
 31
0.0
  0
LINE
  5
2EF
330
1F
100
AcDbEntity
  8
TRMODEL1
  6
Continuous
 62
     4
100
AcDbLine
 10
9.5881265252
 20
11.05078125
 30
0.0
 11
9.5881265252
 21
10.17578125
 31
0.0
  0
LINE
  5
2F0
330
1F
100
AcDbEntity
  8
TRMODEL1
  6
Continuous
 62
     4
100
AcDbLine
 10
8.6531265252
 20
10.17578125
 30
0.0
 11
8.6760392066
 21
11.05078125
 31
0.0
  0
LINE
  5
2F1
330
1F
100
AcDbEntity
  8
TRMODEL1
  6
Continuous
 62
     4
100
AcDbLine
 10
8.8411265252
 20
10.17578125
 30
0.0
 11
8.8411265252
 21
11.05078125
 31
0.0
  0
LINE
  5
2F2
330
1F
100
AcDbEntity
  8
TRMODEL1
  6
Continuous
 62
     4
100
AcDbLine
 10
8.3781265252
 20
11.6283654692
 30
0.0
 11
8.3781265252
 21
10.17578125
 31
0.0
  0
LINE
  5
2F3
330
1F
100
AcDbEntity
  8
TRDETAIL2
  6
HIDDEN
 62
     3
100
AcDbLine
 10
8.5031265252
 20
11.67578125
 30
0.0
 11
8.4579252132
 21
10.17578125
 31
0.0
  0
LINE
  5
2F4
330
1F
100
AcDbEntity
  8
TRDETAIL2
  6
HIDDEN
 62
     3
100
AcDbLine
 10
10.0031265252
 20
11.67578125
 30
0.0
 11
9.9579252132
 21
10.17578125
 31
0.0
  0
LINE
  5
2F5
330
1F
100
AcDbEntity
  8
TRDETAIL2
  6
HIDDEN
 62
     3
100
AcDbLine
 10
9.7531265252
 20
11.67578125
 30
0.0
 11
9.7983278373
 21
10.17578125
 31
0.0
  0
LINE
  5
2F6
330
1F
100
AcDbEntity
  8
TRMODEL1
  6
Continuous
 62
     4
100
AcDbLine
 10
9.5474611535
 20
9.6197479879
 30
0.0
 11
10.1281802945
 21
9.8384446684
 31
0.0
  0
LINE
  5
2F7
330
1F
100
AcDbEntity
  8
TRMODEL1
  6
Continuous
 62
     4
100
AcDbLine
 10
9.9624301279
 20
9.8384446684
 30
0.0
 11
9.3871095559
 21
9.6197479879
 31
0.0
  0
LINE
  5
2F8
330
1F
100
AcDbEntity
  8
TRMODEL1
  6
Continuous
 62
     4
100
AcDbLine
 10
9.2850630334
 20
9.42578125
 30
0.0
 11
9.2821388035
 21
9.8302320716
 31
0.0
  0
LINE
  5
2F9
330
1F
100
AcDbEntity
  8
TRMODEL1
  6
Continuous
 62
     4
100
AcDbLine
 10
8.782544022
 20
9.3864793463
 30
0.0
 11
8.7857212404
 21
9.3859365916
 31
0.0
  0
LINE
  5
2FA
330
1F
100
AcDbEntity
  8
TRMODEL1
  6
Continuous
 62
     4
100
AcDbLine
 10
8.7857212404
 20
9.3859365916
 30
0.0
 11
8.7887991739
 21
9.3845656347
 31
0.0
  0
LINE
  5
2FB
330
1F
100
AcDbEntity
  8
TRMODEL1
  6
Continuous
 62
     4
100
AcDbLine
 10
8.7887991739
 20
9.3845656347
 30
0.0
 11
8.7939711773
 21
9.3799911216
 31
0.0
  0
LINE
  5
2FC
330
1F
100
AcDbEntity
  8
TRMODEL1
  6
Continuous
 62
     4
100
AcDbLine
 10
8.7939711773
 20
9.3799911216
 30
0.0
 11
8.7976298548
 21
9.373631852
 31
0.0
  0
LINE
  5
2FD
330
1F
100
AcDbEntity
  8
TRMODEL1
  6
Continuous
 62
     4
100
AcDbLine
 10
8.7976298548
 20
9.373631852
 30
0.0
 11
8.7986986549
 21
9.3698901216
 31
0.0
  0
LINE
  5
2FE
330
1F
100
AcDbEntity
  8
TRMODEL1
  6
Continuous
 62
     4
100
AcDbLine
 10
8.7986986549
 20
9.3698901216
 30
0.0
 11
8.7990940128
 21
9.3660513817
 31
0.0
  0
LINE
  5
2FF
330
1F
100
AcDbEntity
  8
TRMODEL1
  6
Continuous
 62
     4
100
AcDbLine
 10
8.6314282153
 20
8.73878125
 30
0.0
 11
8.6674323597
 21
9.42578125
 31
0.0
  0
LINE
  5
300
330
1F
100
AcDbEntity
  8
TRMODEL1
  6
Continuous
 62
     4
100
AcDbLine
 10
8.8183833637
 20
9.3660463748
 30
0.0
 11
8.8186968641
 21
9.3697951145
 31
0.0
  0
LINE
  5
301
330
1F
100
AcDbEntity
  8
TRMODEL1
  6
Continuous
 62
     4
100
AcDbLine
 10
8.8186968641
 20
9.3697951145
 30
0.0
 11
8.8196446116
 21
9.373498031
 31
0.0
  0
LINE
  5
302
330
1F
100
AcDbEntity
  8
TRMODEL1
  6
Continuous
 62
     4
100
AcDbLine
 10
8.8196446116
 20
9.373498031
 30
0.0
 11
8.8229845994
 21
9.3799019389
 31
0.0
  0
LINE
  5
303
330
1F
100
AcDbEntity
  8
TRMODEL1
  6
Continuous
 62
     4
100
AcDbLine
 10
8.8229845994
 20
9.3799019389
 30
0.0
 11
8.8276933491
 21
9.3844863003
 31
0.0
  0
LINE
  5
304
330
1F
100
AcDbEntity
  8
TRMODEL1
  6
Continuous
 62
     4
100
AcDbLine
 10
8.8276933491
 20
9.3844863003
 30
0.0
 11
8.8330608826
 21
9.3864793169
 31
0.0
  0
LINE
  5
305
330
1F
100
AcDbEntity
  8
TRMODEL1
  6
Continuous
 62
     4
100
AcDbLine
 10
9.2481265252
 20
9.42578125
 30
0.0
 11
9.2459448078
 21
9.1757812201
 31
0.0
  0
LINE
  5
306
330
1F
100
AcDbEntity
  8
TRMODEL1
  6
Continuous
 62
     4
100
AcDbLine
 10
9.0931902258
 20
9.3864793463
 30
0.0
 11
9.0965526138
 21
9.17578125
 31
0.0
  0
LINE
  5
307
330
1F
100
AcDbEntity
  8
TRMODEL1
  6
Continuous
 62
     4
100
AcDbLine
 10
9.2159459506
 20
9.17578125
 30
0.0
 11
9.2181276675
 21
9.42578125
 31
0.0
  0
LINE
  5
308
330
1F
100
AcDbEntity
  8
TRMODEL1
  6
Continuous
 62
     4
100
AcDbLine
 10
9.215947664
 20
9.17578125
 30
0.0
 11
9.2217992169
 21
9.175712207
 31
0.0
  0
LINE
  5
309
330
1F
100
AcDbEntity
  8
TRMODEL1
  6
Continuous
 62
     4
100
AcDbLine
 10
9.2217992169
 20
9.175712207
 30
0.0
 11
9.2274259303
 21
9.175660904
 31
0.0
  0
LINE
  5
30A
330
1F
100
AcDbEntity
  8
TRMODEL1
  6
Continuous
 62
     4
100
AcDbLine
 10
9.2274259303
 20
9.175660904
 30
0.0
 11
9.232611625
 21
9.175629312
 31
0.0
  0
LINE
  5
30B
330
1F
100
AcDbEntity
  8
TRMODEL1
  6
Continuous
 62
     4
100
AcDbLine
 10
9.232611625
 20
9.175629312
 30
0.0
 11
9.2371570658
 21
9.1756186447
 31
0.0
  0
LINE
  5
30C
330
1F
100
AcDbEntity
  8
TRMODEL1
  6
Continuous
 62
     4
100
AcDbLine
 10
9.2371570658
 20
9.1756186447
 30
0.0
 11
9.2408876162
 21
9.175629312
 31
0.0
  0
LINE
  5
30D
330
1F
100
AcDbEntity
  8
TRMODEL1
  6
Continuous
 62
     4
100
AcDbLine
 10
9.2408876162
 20
9.175629312
 30
0.0
 11
9.2436599478
 21
9.175660904
 31
0.0
  0
LINE
  5
30E
330
1F
100
AcDbEntity
  8
TRMODEL1
  6
Continuous
 62
     4
100
AcDbLine
 10
9.2436599478
 20
9.175660904
 30
0.0
 11
9.2453675472
 21
9.175712207
 31
0.0
  0
LINE
  5
30F
330
1F
100
AcDbEntity
  8
TRMODEL1
  6
Continuous
 62
     4
100
AcDbLine
 10
9.2453675472
 20
9.175712207
 30
0.0
 11
9.2459448078
 21
9.1757812201
 31
0.0
  0
LINE
  5
310
330
1F
100
AcDbEntity
  8
TRMODEL1
  6
Continuous
 62
     4
100
AcDbLine
 10
8.7990940029
 20
9.3660521395
 30
0.0
 11
8.803824066
 21
9.3661107192
 31
0.0
  0
LINE
  5
311
330
1F
100
AcDbEntity
  8
TRMODEL1
  6
Continuous
 62
     4
100
AcDbLine
 10
8.803824066
 20
9.3661107192
 30
0.0
 11
8.8090353727
 21
9.3661301347
 31
0.0
  0
LINE
  5
312
330
1F
100
AcDbEntity
  8
TRMODEL1
  6
Continuous
 62
     4
100
AcDbLine
 10
8.8090353727
 20
9.3661301347
 30
0.0
 11
8.8140936554
 21
9.3661078373
 31
0.0
  0
LINE
  5
313
330
1F
100
AcDbEntity
  8
TRMODEL1
  6
Continuous
 62
     4
100
AcDbLine
 10
8.8140936554
 20
9.3661078373
 30
0.0
 11
8.8183833637
 21
9.3660463748
 31
0.0
  0
LINE
  5
314
330
1F
100
AcDbEntity
  8
TRMODEL1
  6
Continuous
 62
     4
100
AcDbLine
 10
8.6314282153
 20
8.73878125
 30
0.0
 11
8.6281265252
 21
8.67578125
 31
0.0
  0
LINE
  5
315
330
1F
100
AcDbEntity
  8
TRMODEL1
  6
Continuous
 62
     4
100
AcDbLine
 10
9.0965526138
 20
9.17578125
 30
0.0
 11
9.2159459506
 21
9.17578125
 31
0.0
  0
LINE
  5
316
330
1F
100
AcDbEntity
  8
TRMODEL1
  6
Continuous
 62
     4
100
AcDbLine
 10
8.8330608826
 20
9.3864793169
 30
0.0
 11
8.8309179979
 21
9.3959857437
 31
0.0
  0
LINE
  5
317
330
1F
100
AcDbEntity
  8
TRMODEL1
  6
Continuous
 62
     4
100
AcDbLine
 10
8.8309179979
 20
9.3959857437
 30
0.0
 11
8.8254425749
 21
9.4040562079
 31
0.0
  0
LINE
  5
318
330
1F
100
AcDbEntity
  8
TRMODEL1
  6
Continuous
 62
     4
100
AcDbLine
 10
8.8254425749
 20
9.4040562079
 30
0.0
 11
8.8173169839
 21
9.4093903961
 31
0.0
  0
LINE
  5
319
330
1F
100
AcDbEntity
  8
TRMODEL1
  6
Continuous
 62
     4
100
AcDbLine
 10
8.8173169839
 20
9.4093903961
 30
0.0
 11
8.8077810379
 21
9.411243662
 31
0.0
  0
LINE
  5
31A
330
1F
100
AcDbEntity
  8
TRMODEL1
  6
Continuous
 62
     4
100
AcDbLine
 10
8.8077810379
 20
9.411243662
 30
0.0
 11
8.7982096042
 21
9.4094413779
 31
0.0
  0
LINE
  5
31B
330
1F
100
AcDbEntity
  8
TRMODEL1
  6
Continuous
 62
     4
100
AcDbLine
 10
8.7982096042
 20
9.4094413779
 30
0.0
 11
8.7939136526
 21
9.4071842797
 31
0.0
  0
LINE
  5
31C
330
1F
100
AcDbEntity
  8
TRMODEL1
  6
Continuous
 62
     4
100
AcDbLine
 10
8.7939136526
 20
9.4071842797
 30
0.0
 11
8.7901615941
 21
9.4040900073
 31
0.0
  0
LINE
  5
31D
330
1F
100
AcDbEntity
  8
TRMODEL1
  6
Continuous
 62
     4
100
AcDbLine
 10
8.7901615941
 20
9.4040900073
 30
0.0
 11
8.784679032
 21
9.3959628349
 31
0.0
  0
LINE
  5
31E
330
1F
100
AcDbEntity
  8
TRMODEL1
  6
Continuous
 62
     4
100
AcDbLine
 10
8.784679032
 20
9.3959628349
 30
0.0
 11
8.782544022
 21
9.3864793463
 31
0.0
  0
LINE
  5
31F
330
1F
100
AcDbEntity
  8
TRMODEL1
  6
Continuous
 62
     4
100
AcDbLine
 10
8.782544022
 20
9.3864793463
 30
0.0
 11
8.7830367781
 21
9.3941830573
 31
0.0
  0
LINE
  5
320
330
1F
100
AcDbEntity
  8
TRMODEL1
  6
Continuous
 62
     4
100
AcDbLine
 10
8.7830367781
 20
9.3941830573
 30
0.0
 11
8.7843467412
 21
9.4015710043
 31
0.0
  0
LINE
  5
321
330
1F
100
AcDbEntity
  8
TRMODEL1
  6
Continuous
 62
     4
100
AcDbLine
 10
8.7843467412
 20
9.4015710043
 30
0.0
 11
8.7864246793
 21
9.408365527
 31
0.0
  0
LINE
  5
322
330
1F
100
AcDbEntity
  8
TRMODEL1
  6
Continuous
 62
     4
100
AcDbLine
 10
8.7864246793
 20
9.408365527
 30
0.0
 11
8.7891924973
 21
9.414311268
 31
0.0
  0
LINE
  5
323
330
1F
100
AcDbEntity
  8
TRMODEL1
  6
Continuous
 62
     4
100
AcDbLine
 10
8.7891924973
 20
9.414311268
 30
0.0
 11
8.7925461729
 21
9.4191847691
 31
0.0
  0
LINE
  5
324
330
1F
100
AcDbEntity
  8
TRMODEL1
  6
Continuous
 62
     4
100
AcDbLine
 10
8.7925461729
 20
9.4191847691
 30
0.0
 11
8.7963596653
 21
9.4228028702
 31
0.0
  0
LINE
  5
325
330
1F
100
AcDbEntity
  8
TRMODEL1
  6
Continuous
 62
     4
100
AcDbLine
 10
8.7963596653
 20
9.4228028702
 30
0.0
 11
8.8004896525
 21
9.4250295927
 31
0.0
  0
LINE
  5
326
330
1F
100
AcDbEntity
  8
TRMODEL1
  6
Continuous
 62
     4
100
AcDbLine
 10
8.8004896525
 20
9.4250295927
 30
0.0
 11
8.8047809177
 21
9.42578125
 31
0.0
  0
LINE
  5
327
330
1F
100
AcDbEntity
  8
TRMODEL1
  6
Continuous
 62
     4
100
AcDbLine
 10
8.6653726342
 20
9.3864793463
 30
0.0
 11
8.782544022
 21
9.3864793463
 31
0.0
  0
LINE
  5
328
330
1F
100
AcDbEntity
  8
TRMODEL1
  6
Continuous
 62
     4
100
AcDbLine
 10
8.8047809177
 20
9.42578125
 30
0.0
 11
8.8102383711
 21
9.4250295927
 31
0.0
  0
LINE
  5
329
330
1F
100
AcDbEntity
  8
TRMODEL1
  6
Continuous
 62
     4
100
AcDbLine
 10
8.8102383711
 20
9.4250295927
 30
0.0
 11
8.8154907179
 21
9.4228028702
 31
0.0
  0
LINE
  5
32A
330
1F
100
AcDbEntity
  8
TRMODEL1
  6
Continuous
 62
     4
100
AcDbLine
 10
8.8154907179
 20
9.4228028702
 30
0.0
 11
8.8203405596
 21
9.4191847691
 31
0.0
  0
LINE
  5
32B
330
1F
100
AcDbEntity
  8
TRMODEL1
  6
Continuous
 62
     4
100
AcDbLine
 10
8.8203405596
 20
9.4191847691
 30
0.0
 11
8.8246056254
 21
9.414311268
 31
0.0
  0
LINE
  5
32C
330
1F
100
AcDbEntity
  8
TRMODEL1
  6
Continuous
 62
     4
100
AcDbLine
 10
8.8246056254
 20
9.414311268
 30
0.0
 11
8.8281256219
 21
9.408365527
 31
0.0
  0
LINE
  5
32D
330
1F
100
AcDbEntity
  8
TRMODEL1
  6
Continuous
 62
     4
100
AcDbLine
 10
8.8281256219
 20
9.408365527
 30
0.0
 11
8.8307682575
 21
9.4015710043
 31
0.0
  0
LINE
  5
32E
330
1F
100
AcDbEntity
  8
TRMODEL1
  6
Continuous
 62
     4
100
AcDbLine
 10
8.8307682575
 20
9.4015710043
 30
0.0
 11
8.8324342143
 21
9.3941830573
 31
0.0
  0
LINE
  5
32F
330
1F
100
AcDbEntity
  8
TRMODEL1
  6
Continuous
 62
     4
100
AcDbLine
 10
8.8324342143
 20
9.3941830573
 30
0.0
 11
8.8330608826
 21
9.3864793169
 31
0.0
  0
LINE
  5
330
330
1F
100
AcDbEntity
  8
TRMODEL1
  6
Continuous
 62
     4
100
AcDbLine
 10
8.8330608826
 20
9.3864793169
 30
0.0
 11
9.0931902258
 21
9.3864793463
 31
0.0
  0
LINE
  5
331
330
1F
100
AcDbEntity
  8
TRMODEL1
  6
Continuous
 62
     4
100
AcDbLine
 10
9.0931902258
 20
9.3864793463
 30
0.0
 11
9.0920041216
 21
9.3941830573
 31
0.0
  0
LINE
  5
332
330
1F
100
AcDbEntity
  8
TRMODEL1
  6
Continuous
 62
     4
100
AcDbLine
 10
9.0920041216
 20
9.3941830573
 30
0.0
 11
9.0887366815
 21
9.4015710043
 31
0.0
  0
LINE
  5
333
330
1F
100
AcDbEntity
  8
TRMODEL1
  6
Continuous
 62
     4
100
AcDbLine
 10
9.0887366815
 20
9.4015710043
 30
0.0
 11
9.0835107052
 21
9.408365527
 31
0.0
  0
LINE
  5
334
330
1F
100
AcDbEntity
  8
TRMODEL1
  6
Continuous
 62
     4
100
AcDbLine
 10
9.0835107052
 20
9.408365527
 30
0.0
 11
9.0765226
 21
9.414311268
 31
0.0
  0
LINE
  5
335
330
1F
100
AcDbEntity
  8
TRMODEL1
  6
Continuous
 62
     4
100
AcDbLine
 10
9.0765226
 20
9.414311268
 30
0.0
 11
9.0680349988
 21
9.4191847691
 31
0.0
  0
LINE
  5
336
330
1F
100
AcDbEntity
  8
TRMODEL1
  6
Continuous
 62
     4
100
AcDbLine
 10
9.0680349988
 20
9.4191847691
 30
0.0
 11
9.05836689
 21
9.4228028702
 31
0.0
  0
LINE
  5
337
330
1F
100
AcDbEntity
  8
TRMODEL1
  6
Continuous
 62
     4
100
AcDbLine
 10
9.05836689
 20
9.4228028702
 30
0.0
 11
9.0478816288
 21
9.4250295927
 31
0.0
  0
LINE
  5
338
330
1F
100
AcDbEntity
  8
TRMODEL1
  6
Continuous
 62
     4
100
AcDbLine
 10
9.0478816288
 20
9.4250295927
 30
0.0
 11
9.0369732815
 21
9.42578125
 31
0.0
  0
LINE
  5
339
330
1F
100
AcDbEntity
  8
TRMODEL1
  6
Continuous
 62
     4
100
AcDbLine
 10
9.3524692166
 20
9.42578125
 30
0.0
 11
9.4384360649
 21
9.42578125
 31
0.0
  0
LINE
  5
33A
330
1F
100
AcDbEntity
  8
TRMODEL1
  6
Continuous
 62
     4
100
AcDbLine
 10
9.5143984419
 20
9.48578125
 30
0.0
 11
9.5152665531
 21
9.5617924383
 31
0.0
  0
LINE
  5
33B
330
1F
100
AcDbEntity
  8
TRMODEL1
  6
Continuous
 62
     4
100
AcDbLine
 10
9.4711668589
 20
9.42578125
 30
0.0
 11
9.4853077128
 21
9.4291725276
 31
0.0
  0
LINE
  5
33C
330
1F
100
AcDbEntity
  8
TRMODEL1
  6
Continuous
 62
     4
100
AcDbLine
 10
9.4853077128
 20
9.4291725276
 30
0.0
 11
9.4979385224
 21
9.4389762506
 31
0.0
  0
LINE
  5
33D
330
1F
100
AcDbEntity
  8
TRMODEL1
  6
Continuous
 62
     4
100
AcDbLine
 10
9.4979385224
 20
9.4389762506
 30
0.0
 11
9.5076056428
 21
9.4540632719
 31
0.0
  0
LINE
  5
33E
330
1F
100
AcDbEntity
  8
TRMODEL1
  6
Continuous
 62
     4
100
AcDbLine
 10
9.5076056428
 20
9.4540632719
 30
0.0
 11
9.5132240129
 21
9.4726909258
 31
0.0
  0
LINE
  5
33F
330
1F
100
AcDbEntity
  8
TRMODEL1
  6
Continuous
 62
     4
100
AcDbLine
 10
9.5132240129
 20
9.4726909258
 30
0.0
 11
9.5143984419
 21
9.48578125
 31
0.0
  0
LINE
  5
340
330
1F
100
AcDbEntity
  8
TRMODEL1
  6
Continuous
 62
     4
100
AcDbLine
 10
9.3573538387
 20
9.48578125
 30
0.0
 11
9.5143984419
 21
9.48578125
 31
0.0
  0
LINE
  5
341
330
1F
100
AcDbEntity
  8
TRMODEL1
  6
Continuous
 62
     4
100
AcDbLine
 10
9.3524692166
 20
9.42578125
 30
0.0
 11
9.315603367
 21
9.42578125
 31
0.0
  0
LINE
  5
342
330
1F
100
AcDbEntity
  8
TRMODEL1
  6
Continuous
 62
     4
100
AcDbLine
 10
9.4384360649
 20
9.42578125
 30
0.0
 11
9.428392057
 21
9.4270358122
 31
0.0
  0
LINE
  5
343
330
1F
100
AcDbEntity
  8
TRMODEL1
  6
Continuous
 62
     4
100
AcDbLine
 10
9.428392057
 20
9.4270358122
 30
0.0
 11
9.4068644768
 21
9.4282455102
 31
0.0
  0
LINE
  5
344
330
1F
100
AcDbEntity
  8
TRMODEL1
  6
Continuous
 62
     4
100
AcDbLine
 10
9.4068644768
 20
9.4282455102
 30
0.0
 11
9.3769448398
 21
9.4267672826
 31
0.0
  0
LINE
  5
345
330
1F
100
AcDbEntity
  8
TRMODEL1
  6
Continuous
 62
     4
100
AcDbLine
 10
9.3769448398
 20
9.4267672826
 30
0.0
 11
9.3524692166
 21
9.42578125
 31
0.0
  0
LINE
  5
346
330
1F
100
AcDbEntity
  8
TRMODEL1
  6
Continuous
 62
     4
100
AcDbLine
 10
9.4711668589
 20
9.42578125
 30
0.0
 11
9.4384360649
 21
9.42578125
 31
0.0
  0
LINE
  5
347
330
1F
100
AcDbEntity
  8
TRMODEL1
  6
Continuous
 62
     4
100
AcDbLine
 10
9.5152665531
 20
9.5617924383
 30
0.0
 11
9.5178777736
 21
9.5815994309
 31
0.0
  0
LINE
  5
348
330
1F
100
AcDbEntity
  8
TRMODEL1
  6
Continuous
 62
     4
100
AcDbLine
 10
9.5178777736
 20
9.5815994309
 30
0.0
 11
9.52496444
 21
9.5991821975
 31
0.0
  0
LINE
  5
349
330
1F
100
AcDbEntity
  8
TRMODEL1
  6
Continuous
 62
     4
100
AcDbLine
 10
9.52496444
 20
9.5991821975
 30
0.0
 11
9.5357289632
 21
9.6125718935
 31
0.0
  0
LINE
  5
34A
330
1F
100
AcDbEntity
  8
TRMODEL1
  6
Continuous
 62
     4
100
AcDbLine
 10
9.5357289632
 20
9.6125718935
 30
0.0
 11
9.5474611535
 21
9.6197479879
 31
0.0
  0
LINE
  5
34B
330
1F
100
AcDbEntity
  8
TRMODEL1
  6
Continuous
 62
     4
100
AcDbLine
 10
9.3563455993
 20
9.5617924383
 30
0.0
 11
9.5152665531
 21
9.5617924383
 31
0.0
  0
LINE
  5
34C
330
1F
100
AcDbEntity
  8
TRMODEL1
  6
Continuous
 62
     4
100
AcDbLine
 10
9.5474611535
 20
9.6197479879
 30
0.0
 11
9.3871095559
 21
9.6197479879
 31
0.0
  0
LINE
  5
34D
330
1F
100
AcDbEntity
  8
TRMODEL1
  6
Continuous
 62
     4
100
AcDbLine
 10
9.3573538387
 20
9.48578125
 30
0.0
 11
9.3552312395
 21
9.4659731767
 31
0.0
  0
LINE
  5
34E
330
1F
100
AcDbEntity
  8
TRMODEL1
  6
Continuous
 62
     4
100
AcDbLine
 10
9.3552312395
 20
9.4659731767
 30
0.0
 11
9.3485780087
 21
9.4483895517
 31
0.0
  0
LINE
  5
34F
330
1F
100
AcDbEntity
  8
TRMODEL1
  6
Continuous
 62
     4
100
AcDbLine
 10
9.3485780087
 20
9.4483895517
 30
0.0
 11
9.3381434897
 21
9.4350004379
 31
0.0
  0
LINE
  5
350
330
1F
100
AcDbEntity
  8
TRMODEL1
  6
Continuous
 62
     4
100
AcDbLine
 10
9.3381434897
 20
9.4350004379
 30
0.0
 11
9.3250788243
 21
9.4272944002
 31
0.0
  0
LINE
  5
351
330
1F
100
AcDbEntity
  8
TRMODEL1
  6
Continuous
 62
     4
100
AcDbLine
 10
9.3250788243
 20
9.4272944002
 30
0.0
 11
9.315603367
 21
9.42578125
 31
0.0
  0
LINE
  5
352
330
1F
100
AcDbEntity
  8
TRMODEL1
  6
Continuous
 62
     4
100
AcDbLine
 10
9.3563455993
 20
9.5617924383
 30
0.0
 11
9.3573538387
 21
9.48578125
 31
0.0
  0
LINE
  5
353
330
1F
100
AcDbEntity
  8
TRMODEL1
  6
Continuous
 62
     4
100
AcDbLine
 10
9.3871095559
 20
9.6197479879
 30
0.0
 11
9.3742400123
 21
9.6113409998
 31
0.0
  0
LINE
  5
354
330
1F
100
AcDbEntity
  8
TRMODEL1
  6
Continuous
 62
     4
100
AcDbLine
 10
9.3742400123
 20
9.6113409998
 30
0.0
 11
9.3641403908
 21
9.5973313327
 31
0.0
  0
LINE
  5
355
330
1F
100
AcDbEntity
  8
TRMODEL1
  6
Continuous
 62
     4
100
AcDbLine
 10
9.3641403908
 20
9.5973313327
 30
0.0
 11
9.3579715968
 21
9.5793334031
 31
0.0
  0
LINE
  5
356
330
1F
100
AcDbEntity
  8
TRMODEL1
  6
Continuous
 62
     4
100
AcDbLine
 10
9.3579715968
 20
9.5793334031
 30
0.0
 11
9.3563455993
 21
9.5617924383
 31
0.0
  0
LINE
  5
357
330
1F
100
AcDbEntity
  8
TRMODEL1
  6
Continuous
 62
     4
100
AcDbLine
 10
9.2850630334
 20
9.42578125
 30
0.0
 11
9.315603367
 21
9.42578125
 31
0.0
  0
LINE
  5
358
330
1F
100
AcDbEntity
  8
TRMODEL1
  6
Continuous
 62
     4
100
AcDbLine
 10
10.8781265252
 20
10.0495791559
 30
0.0
 11
10.2293065658
 21
10.0495791559
 31
0.0
  0
LINE
  5
359
330
1F
100
AcDbEntity
  8
TRMODEL1
  6
Continuous
 62
     4
100
AcDbLine
 10
10.7186730899
 20
9.9246022742
 30
0.0
 11
10.642146779
 21
9.9231316798
 31
0.0
  0
LINE
  5
35A
330
1F
100
AcDbEntity
  8
TRMODEL1
  6
Continuous
 62
     4
100
AcDbLine
 10
10.642146779
 20
9.9231316798
 30
0.0
 11
10.5547065075
 21
9.9206535016
 31
0.0
  0
LINE
  5
35B
330
1F
100
AcDbEntity
  8
TRMODEL1
  6
Continuous
 62
     4
100
AcDbLine
 10
10.5547065075
 20
9.9206535016
 30
0.0
 11
10.4587086922
 21
9.9168448796
 31
0.0
  0
LINE
  5
35C
330
1F
100
AcDbEntity
  8
TRMODEL1
  6
Continuous
 62
     4
100
AcDbLine
 10
10.4587086922
 20
9.9168448796
 30
0.0
 11
10.3570099239
 21
9.911439567
 31
0.0
  0
LINE
  5
35D
330
1F
100
AcDbEntity
  8
TRMODEL1
  6
Continuous
 62
     4
100
AcDbLine
 10
10.3570099239
 20
9.911439567
 30
0.0
 11
10.252545851
 21
9.904186855
 31
0.0
  0
LINE
  5
35E
330
1F
100
AcDbEntity
  8
TRMODEL1
  6
Continuous
 62
     4
100
AcDbLine
 10
10.252545851
 20
9.904186855
 30
0.0
 11
10.1946553052
 21
9.8990867145
 31
0.0
  0
LINE
  5
35F
330
1F
100
AcDbEntity
  8
TRMODEL1
  6
Continuous
 62
     4
100
AcDbLine
 10
10.7186730899
 20
9.9246022742
 30
0.0
 11
10.2096727544
 21
9.9246022742
 31
0.0
  0
LINE
  5
360
330
1F
100
AcDbEntity
  8
TRMODEL1
  6
Continuous
 62
     4
100
AcDbLine
 10
10.2289595738
 20
10.0200387237
 30
0.0
 11
10.2293065658
 21
10.0495791559
 31
0.0
  0
LINE
  5
361
330
1F
100
AcDbEntity
  8
TRMODEL1
  6
Continuous
 62
     4
100
AcDbLine
 10
10.0583445044
 20
10.0495791559
 30
0.0
 11
10.0587267235
 21
10.0200387237
 31
0.0
  0
LINE
  5
362
330
1F
100
AcDbEntity
  8
TRMODEL1
  6
Continuous
 62
     4
100
AcDbLine
 10
10.2289595738
 20
10.0200387237
 30
0.0
 11
10.0587267235
 21
10.0200387237
 31
0.0
  0
LINE
  5
363
330
1F
100
AcDbEntity
  8
TRMODEL1
  6
Continuous
 62
     4
100
AcDbLine
 10
9.2821388035
 20
9.8302320716
 30
0.0
 11
9.4530010701
 21
9.8677817826
 31
0.0
  0
LINE
  5
364
330
1F
100
AcDbEntity
  8
TRMODEL1
  6
Continuous
 62
     4
100
AcDbLine
 10
9.4530010701
 20
9.8677817826
 30
0.0
 11
9.6251187037
 21
9.8960875178
 31
0.0
  0
LINE
  5
365
330
1F
100
AcDbEntity
  8
TRMODEL1
  6
Continuous
 62
     4
100
AcDbLine
 10
9.6251187037
 20
9.8960875178
 30
0.0
 11
9.7987612759
 21
9.9150879007
 31
0.0
  0
LINE
  5
366
330
1F
100
AcDbEntity
  8
TRMODEL1
  6
Continuous
 62
     4
100
AcDbLine
 10
9.7987612759
 20
9.9150879007
 30
0.0
 11
9.9731696113
 21
9.9246022742
 31
0.0
  0
LINE
  5
367
330
1F
100
AcDbEntity
  8
TRMODEL1
  6
Continuous
 62
     4
100
AcDbLine
 10
9.9731696113
 20
9.9246022742
 30
0.0
 11
8.7951293983
 21
9.9246022742
 31
0.0
  0
LINE
  5
368
330
1F
100
AcDbEntity
  8
TRMODEL1
  6
Continuous
 62
     4
100
AcDbLine
 10
9.2292420908
 20
9.8588602005
 30
0.0
 11
9.2703281434
 21
9.861285499
 31
0.0
  0
LINE
  5
369
330
1F
100
AcDbEntity
  8
TRMODEL1
  6
Continuous
 62
     4
100
AcDbLine
 10
9.2703281434
 20
9.861285499
 30
0.0
 11
9.3069054907
 21
9.8619036695
 31
0.0
  0
LINE
  5
36A
330
1F
100
AcDbEntity
  8
TRMODEL1
  6
Continuous
 62
     4
100
AcDbLine
 10
9.3069054907
 20
9.8619036695
 30
0.0
 11
9.3347544666
 21
9.8606866253
 31
0.0
  0
LINE
  5
36B
330
1F
100
AcDbEntity
  8
TRMODEL1
  6
Continuous
 62
     4
100
AcDbLine
 10
9.3347544666
 20
9.8606866253
 30
0.0
 11
9.3508944631
 21
9.8577026116
 31
0.0
  0
LINE
  5
36C
330
1F
100
AcDbEntity
  8
TRMODEL1
  6
Continuous
 62
     4
100
AcDbLine
 10
9.3508944631
 20
9.8577026116
 30
0.0
 11
9.3535855266
 21
9.8531045971
 31
0.0
  0
LINE
  5
36D
330
1F
100
AcDbEntity
  8
TRMODEL1
  6
Continuous
 62
     4
100
AcDbLine
 10
9.3535855266
 20
9.8531045971
 30
0.0
 11
9.3424076717
 21
9.8471729868
 31
0.0
  0
LINE
  5
36E
330
1F
100
AcDbEntity
  8
TRMODEL1
  6
Continuous
 62
     4
100
AcDbLine
 10
9.3424076717
 20
9.8471729868
 30
0.0
 11
9.3183449441
 21
9.8403791826
 31
0.0
  0
LINE
  5
36F
330
1F
100
AcDbEntity
  8
TRMODEL1
  6
Continuous
 62
     4
100
AcDbLine
 10
9.3183449441
 20
9.8403791826
 30
0.0
 11
9.2838601057
 21
9.8334419212
 31
0.0
  0
LINE
  5
370
330
1F
100
AcDbEntity
  8
TRMODEL1
  6
Continuous
 62
     4
100
AcDbLine
 10
9.2838601057
 20
9.8334419212
 30
0.0
 11
9.2428963281
 21
9.8273121673
 31
0.0
  0
LINE
  5
371
330
1F
100
AcDbEntity
  8
TRMODEL1
  6
Continuous
 62
     4
100
AcDbLine
 10
9.2428963281
 20
9.8273121673
 30
0.0
 11
9.2292420908
 21
9.8256909246
 31
0.0
  0
LINE
  5
372
330
1F
100
AcDbEntity
  8
TRMODEL1
  6
Continuous
 62
     4
100
AcDbLine
 10
9.2292420908
 20
9.8256909246
 30
0.0
 11
9.1884164959
 21
9.8221801564
 31
0.0
  0
LINE
  5
373
330
1F
100
AcDbEntity
  8
TRMODEL1
  6
Continuous
 62
     4
100
AcDbLine
 10
9.1884164959
 20
9.8221801564
 30
0.0
 11
9.1519454528
 21
9.8212258164
 31
0.0
  0
LINE
  5
374
330
1F
100
AcDbEntity
  8
TRMODEL1
  6
Continuous
 62
     4
100
AcDbLine
 10
9.1519454528
 20
9.8212258164
 30
0.0
 11
9.1242182708
 21
9.822988611
 31
0.0
  0
LINE
  5
375
330
1F
100
AcDbEntity
  8
TRMODEL1
  6
Continuous
 62
     4
100
AcDbLine
 10
9.1242182708
 20
9.822988611
 30
0.0
 11
9.1079128548
 21
9.8271284281
 31
0.0
  0
LINE
  5
376
330
1F
100
AcDbEntity
  8
TRMODEL1
  6
Continuous
 62
     4
100
AcDbLine
 10
9.1079128548
 20
9.8271284281
 30
0.0
 11
9.1047525301
 21
9.8330289516
 31
0.0
  0
LINE
  5
377
330
1F
100
AcDbEntity
  8
TRMODEL1
  6
Continuous
 62
     4
100
AcDbLine
 10
9.1047525301
 20
9.8330289516
 30
0.0
 11
9.1155417951
 21
9.8398757901
 31
0.0
  0
LINE
  5
378
330
1F
100
AcDbEntity
  8
TRMODEL1
  6
Continuous
 62
     4
100
AcDbLine
 10
9.1155417951
 20
9.8398757901
 30
0.0
 11
9.1395102562
 21
9.8467607061
 31
0.0
  0
LINE
  5
379
330
1F
100
AcDbEntity
  8
TRMODEL1
  6
Continuous
 62
     4
100
AcDbLine
 10
9.1395102562
 20
9.8467607061
 30
0.0
 11
9.1739563431
 21
9.8528652549
 31
0.0
  0
LINE
  5
37A
330
1F
100
AcDbEntity
  8
TRMODEL1
  6
Continuous
 62
     4
100
AcDbLine
 10
9.1739563431
 20
9.8528652549
 30
0.0
 11
9.214667468
 21
9.8576083427
 31
0.0
  0
LINE
  5
37B
330
1F
100
AcDbEntity
  8
TRMODEL1
  6
Continuous
 62
     4
100
AcDbLine
 10
9.214667468
 20
9.8576083427
 30
0.0
 11
9.2292420908
 21
9.8588602005
 31
0.0
  0
LINE
  5
37C
330
1F
100
AcDbEntity
  8
TRMODEL1
  6
Continuous
 62
     4
100
AcDbLine
 10
8.7951293983
 20
9.9246022742
 30
0.0
 11
8.7729669382
 21
9.92578125
 31
0.0
  0
LINE
  5
37D
330
1F
100
AcDbEntity
  8
TRMODEL1
  6
Continuous
 62
     4
100
AcDbLine
 10
10.1281802945
 20
9.8384446684
 30
0.0
 11
9.9624301279
 21
9.8384446684
 31
0.0
  0
LINE
  5
37E
330
1F
100
AcDbEntity
  8
TRMODEL1
  6
Continuous
 62
     4
100
AcDbLine
 10
10.2289595738
 20
10.0200387237
 30
0.0
 11
10.2207454124
 21
9.9578843063
 31
0.0
  0
LINE
  5
37F
330
1F
100
AcDbEntity
  8
TRMODEL1
  6
Continuous
 62
     4
100
AcDbLine
 10
10.2207454124
 20
9.9578843063
 30
0.0
 11
10.1984868136
 21
9.9027192858
 31
0.0
  0
LINE
  5
380
330
1F
100
AcDbEntity
  8
TRMODEL1
  6
Continuous
 62
     4
100
AcDbLine
 10
10.1984868136
 20
9.9027192858
 30
0.0
 11
10.1646975097
 21
9.8607583504
 31
0.0
  0
LINE
  5
381
330
1F
100
AcDbEntity
  8
TRMODEL1
  6
Continuous
 62
     4
100
AcDbLine
 10
10.1646975097
 20
9.8607583504
 30
0.0
 11
10.1281802945
 21
9.8384446684
 31
0.0
  0
LINE
  5
382
330
1F
100
AcDbEntity
  8
TRMODEL1
  6
Continuous
 62
     4
100
AcDbLine
 10
9.9624301279
 20
9.8384446684
 30
0.0
 11
10.0026884644
 21
9.8647744025
 31
0.0
  0
LINE
  5
383
330
1F
100
AcDbEntity
  8
TRMODEL1
  6
Continuous
 62
     4
100
AcDbLine
 10
10.0026884644
 20
9.8647744025
 30
0.0
 11
10.0342771636
 21
9.9086212411
 31
0.0
  0
LINE
  5
384
330
1F
100
AcDbEntity
  8
TRMODEL1
  6
Continuous
 62
     4
100
AcDbLine
 10
10.0342771636
 20
9.9086212411
 30
0.0
 11
10.053605858
 21
9.9649917035
 31
0.0
  0
LINE
  5
385
330
1F
100
AcDbEntity
  8
TRMODEL1
  6
Continuous
 62
     4
100
AcDbLine
 10
10.053605858
 20
9.9649917035
 30
0.0
 11
10.0587267235
 21
10.0200387237
 31
0.0
  0
LINE
  5
386
330
1F
100
AcDbEntity
  8
TRMODEL1
  6
Continuous
 62
     4
100
AcDbLine
 10
10.0583445044
 20
10.0495791559
 30
0.0
 11
10.0539032684
 21
10.008253501
 31
0.0
  0
LINE
  5
387
330
1F
100
AcDbEntity
  8
TRMODEL1
  6
Continuous
 62
     4
100
AcDbLine
 10
10.0539032684
 20
10.008253501
 30
0.0
 11
10.0400093426
 21
9.97157495
 31
0.0
  0
LINE
  5
388
330
1F
100
AcDbEntity
  8
TRMODEL1
  6
Continuous
 62
     4
100
AcDbLine
 10
10.0400093426
 20
9.97157495
 30
0.0
 11
10.0182320876
 21
9.9436753884
 31
0.0
  0
LINE
  5
389
330
1F
100
AcDbEntity
  8
TRMODEL1
  6
Continuous
 62
     4
100
AcDbLine
 10
10.0182320876
 20
9.9436753884
 30
0.0
 11
9.9910073127
 21
9.9276768232
 31
0.0
  0
LINE
  5
38A
330
1F
100
AcDbEntity
  8
TRMODEL1
  6
Continuous
 62
     4
100
AcDbLine
 10
9.9910073127
 20
9.9276768232
 30
0.0
 11
9.9731696113
 21
9.9246022742
 31
0.0
  0
LINE
  5
38B
330
1F
100
AcDbEntity
  8
TRMODEL1
  6
Continuous
 62
     4
100
AcDbLine
 10
10.8781265252
 20
10.0495791559
 30
0.0
 11
10.8781265252
 21
10.17578125
 31
0.0
  0
LINE
  5
38C
330
1F
100
AcDbEntity
  8
TRMODEL1
  6
Continuous
 62
     4
100
AcDbLine
 10
10.7376118689
 20
9.92578125
 30
0.0
 11
10.7186730899
 21
9.9246022742
 31
0.0
  0
LINE
  5
38D
330
1F
100
AcDbEntity
  8
TRMODEL1
  6
Continuous
 62
     4
100
AcDbLine
 10
10.7376118689
 20
9.92578125
 30
0.0
 11
10.7704204116
 21
9.92578125
 31
0.0
  0
LINE
  5
38E
330
1F
100
AcDbEntity
  8
TRMODEL1
  6
Continuous
 62
     4
100
AcDbLine
 10
8.8411265252
 20
11.05078125
 30
0.0
 11
9.5881265252
 21
11.05078125
 31
0.0
  0
LINE
  5
38F
330
1F
100
AcDbEntity
  8
TRMODEL1
  6
Continuous
 62
     4
100
AcDbLine
 10
8.8411265252
 20
11.05078125
 30
0.0
 11
8.6760392066
 21
11.05078125
 31
0.0
  0
LINE
  5
390
330
1F
100
AcDbEntity
  8
TRMODEL1
  6
Continuous
 62
     4
100
AcDbLine
 10
9.5881265252
 20
11.05078125
 30
0.0
 11
9.7532138439
 21
11.05078125
 31
0.0
  0
ARC
  5
391
330
1F
100
AcDbEntity
  8
TRMODEL1
  6
Continuous
 62
     4
100
AcDbCircle
 10
6.0031265252
 20
0.3019833441
 30
0.0
 40
0.1249999999999034
100
AcDbArc
 50
97.9524422243
 51
180.0
  0
ARC
  5
392
330
1F
100
AcDbEntity
  8
TRMODEL1
  6
Continuous
 62
     4
100
AcDbCircle
 10
10.7531265252
 20
0.3019833441
 30
0.0
 40
0.1249999999997584
100
AcDbArc
 50
0.0
 51
82.0475577756
  0
ARC
  5
393
330
1F
100
AcDbEntity
  8
TRMODEL1
  6
Continuous
 62
     4
100
AcDbCircle
 10
7.7746789122
 20
5.36478125
 30
0.0
 40
0.0310000000000344
100
AcDbArc
 50
90.0
 51
177.0
  0
ARC
  5
394
330
1F
100
AcDbEntity
  8
TRMODEL1
  6
Continuous
 62
     4
100
AcDbCircle
 10
7.7746789122
 20
7.54678125
 30
0.0
 40
0.0310000000000068
100
AcDbArc
 50
183.0000000002
 51
270.0
  0
ARC
  5
395
330
1F
100
AcDbEntity
  8
TRMODEL1
  6
Continuous
 62
     4
100
AcDbCircle
 10
8.9815741382
 20
5.36478125
 30
0.0
 40
0.0310000000000344
100
AcDbArc
 50
3.0
 51
90.0
  0
ARC
  5
396
330
1F
100
AcDbEntity
  8
TRMODEL1
  6
Continuous
 62
     4
100
AcDbCircle
 10
8.9815741382
 20
7.54678125
 30
0.0
 40
0.0310000000000068
100
AcDbArc
 50
270.0
 51
356.9999999998
  0
ARC
  5
397
330
1F
100
AcDbEntity
  8
TRMODEL1
  6
Continuous
 62
     4
100
AcDbCircle
 10
6.0031265252
 20
10.0495791559
 30
0.0
 40
0.1250000000002416
100
AcDbArc
 50
180.0
 51
262.0475577755
  0
ARC
  5
398
330
1F
100
AcDbEntity
  8
TRMODEL1
  6
Continuous
 62
     4
100
AcDbCircle
 10
10.7531265252
 20
10.0495791559
 30
0.0
 40
0.1249999999997478
100
AcDbArc
 50
277.9524422244
 51
360.0
  0
ARC
  5
399
330
1F
100
AcDbEntity
  8
TRMODEL1
  6
Continuous
 62
     4
100
AcDbCircle
 10
8.3781265252
 20
11.8168391796
 30
0.0
 40
0.1884737103983783
100
AcDbArc
 50
269.9999999999
 51
311.5461023228
  0
ARC
  5
39A
330
1F
100
AcDbEntity
  8
TRDETAIL2
  6
HIDDEN
 62
     3
100
AcDbCircle
 10
9.8781265252
 20
11.8168391796
 30
0.0
 40
0.1884737103984458
100
AcDbArc
 50
228.4538976772
 51
311.5461023229
  0
ARC
  5
39B
330
1F
100
AcDbEntity
  8
TRDETAIL2
  6
HIDDEN
 62
     3
100
AcDbCircle
 10
11.3781265252
 20
11.8168391796
 30
0.0
 40
0.1884737103984446
100
AcDbArc
 50
228.4538976772
 51
311.5461023229
  0
ARC
  5
39C
330
1F
100
AcDbEntity
  8
TRDETAIL2
  6
HIDDEN
 62
     3
100
AcDbCircle
 10
12.8781265252
 20
11.8168391796
 30
0.0
 40
0.1884737103984446
100
AcDbArc
 50
228.4538976772
 51
311.5461023229
  0
ARC
  5
39D
330
1F
100
AcDbEntity
  8
TRDETAIL2
  6
HIDDEN
 62
     3
100
AcDbCircle
 10
15.8781265252
 20
11.8168391796
 30
0.0
 40
0.1884737103985279
100
AcDbArc
 50
228.4538976772
 51
311.5461023229
  0
ARC
  5
39E
330
1F
100
AcDbEntity
  8
TRDETAIL2
  6
HIDDEN
 62
     3
100
AcDbCircle
 10
14.3781265252
 20
11.8168391796
 30
0.0
 40
0.1884737103985267
100
AcDbArc
 50
228.4538976772
 51
311.5461023229
  0
ARC
  5
39F
330
1F
100
AcDbEntity
  8
TRMODEL1
  6
Continuous
 62
     2
100
AcDbCircle
 10
15.9236793584
 20
11.4577948083
 30
0.0
 40
1.364684097866507
100
AcDbArc
 50
340.3751390982
 51
9.1914566343
  0
ARC
  5
3A0
330
1F
100
AcDbEntity
  8
TRMODEL1
  6
Continuous
 62
     2
100
AcDbCircle
 10
18.1687894188
 20
10.6572492232
 30
0.0
 40
1.018883064456168
100
AcDbArc
 50
160.3751390982
 51
208.1996172666
  0
MTEXT
  5
3A2
330
1F
100
AcDbEntity
  8
TRMODEL1
 62
     4
100
AcDbMText
 10
29.1672567099
 20
9.6795219054
 30
0.0
 40
0.5625
 41
0.0
 71
     1
 72
     1
  1
HEIGHT RANGE
  7
SLDTEXTSTYLE0
 73
     1
 44
1.0
  0
MTEXT
  5
3A3
330
1F
100
AcDbEntity
  8
TRMODEL1
 62
     4
100
AcDbMText
 10
20.1228142407
 20
11.3821508066
 30
0.0
 40
0.75
 41
0.0
 71
     1
 72
     1
  1
GRATING LEG HEIGHT CHART
  7
SLDTEXTSTYLE0
 73
     1
 44
1.0
  0
MTEXT
  5
3A4
330
1F
100
AcDbEntity
  8
TRMODEL1
 62
     4
100
AcDbMText
 10
21.7091253838
 20
6.9359373705
 30
0.0
 40
0.5625
 41
0.0
 71
     1
 72
     1
  1
14"
  7
SLDTEXTSTYLE0
 73
     1
 44
1.0
  0
MTEXT
  5
3A5
330
1F
100
AcDbEntity
  8
TRMODEL1
 62
     4
100
AcDbMText
 10
18.3624907035
 20
6.9816475787
 30
0.0
 40
0.5625
 41
0.0
 71
     1
 72
     1
  1
9 1/2"
  7
SLDTEXTSTYLE0
 73
     1
 44
1.0
  0
MTEXT
  5
3A6
330
1F
100
AcDbEntity
  8
TRMODEL1
 62
     4
100
AcDbMText
 10
25.1507615959
 20
6.9368817963
 30
0.0
 40
0.5625
 41
0.0
 71
     1
 72
     1
  1
-
  7
SLDTEXTSTYLE0
 73
     1
 44
1.0
  0
MTEXT
  5
3A7
330
1F
100
AcDbEntity
  8
TRMODEL1
 62
     4
100
AcDbMText
 10
29.1819897522
 20
6.9310263564
 30
0.0
 40
0.5625
 41
0.0
 71
     1
 72
     1
  1
24"
  7
SLDTEXTSTYLE0
 73
     1
 44
1.0
  0
MTEXT
  5
3A8
330
1F
100
AcDbEntity
  8
TRMODEL1
 62
     4
100
AcDbMText
 10
29.1797231303
 20
1.4523571188
 30
0.0
 40
0.5625
 41
0.0
 71
     1
 72
     1
  1
36"
  7
SLDTEXTSTYLE0
 73
     1
 44
1.0
  0
MTEXT
  5
3A9
330
1F
100
AcDbEntity
  8
TRMODEL1
 62
     4
100
AcDbMText
 10
25.1507615959
 20
1.4523571188
 30
0.0
 40
0.5625
 41
0.0
 71
     1
 72
     1
  1
-
  7
SLDTEXTSTYLE0
 73
     1
 44
1.0
  0
MTEXT
  5
3AA
330
1F
100
AcDbEntity
  8
TRMODEL1
 62
     4
100
AcDbMText
 10
21.7533245108
 20
1.4465016789
 30
0.0
 40
0.5625
 41
0.0
 71
     1
 72
     1
  1
27"
  7
SLDTEXTSTYLE0
 73
     1
 44
1.0
  0
MTEXT
  5
3AB
330
1F
100
AcDbEntity
  8
TRMODEL1
 62
     4
100
AcDbMText
 10
18.3443577284
 20
1.4465016789
 30
0.0
 40
0.5625
 41
0.0
 71
     1
 72
     1
  1
21"
  7
SLDTEXTSTYLE0
 73
     1
 44
1.0
  0
MTEXT
  5
3AC
330
1F
100
AcDbEntity
  8
TRMODEL1
 62
     4
100
AcDbMText
 10
21.7533245108
 20
4.1887640176
 30
0.0
 40
0.5625
 41
0.0
 71
     1
 72
     1
  1
21"
  7
SLDTEXTSTYLE0
 73
     1
 44
1.0
  0
MTEXT
  5
3AD
330
1F
100
AcDbEntity
  8
TRMODEL1
 62
     4
100
AcDbMText
 10
18.3001586014
 20
4.1995304716
 30
0.0
 40
0.5625
 41
0.0
 71
     1
 72
     1
  1
15"
  7
SLDTEXTSTYLE0
 73
     1
 44
1.0
  0
MTEXT
  5
3AE
330
1F
100
AcDbEntity
  8
TRMODEL1
 62
     4
100
AcDbMText
 10
18.3001586014
 20
2.8234882881
 30
0.0
 40
0.5625
 41
0.0
 71
     1
 72
     1
  1
18"
  7
SLDTEXTSTYLE0
 73
     1
 44
1.0
  0
MTEXT
  5
3AF
330
1F
100
AcDbEntity
  8
TRMODEL1
 62
     4
100
AcDbMText
 10
21.7533245108
 20
2.8176328482
 30
0.0
 40
0.5625
 41
0.0
 71
     1
 72
     1
  1
24"
  7
SLDTEXTSTYLE0
 73
     1
 44
1.0
  0
MTEXT
  5
3B0
330
1F
100
AcDbEntity
  8
TRMODEL1
 62
     4
100
AcDbMText
 10
18.3001586014
 20
5.559895187
 30
0.0
 40
0.5625
 41
0.0
 71
     1
 72
     1
  1
12"
  7
SLDTEXTSTYLE0
 73
     1
 44
1.0
  0
MTEXT
  5
3B1
330
1F
100
AcDbEntity
  8
TRMODEL1
 62
     4
100
AcDbMText
 10
21.7091253838
 20
5.5657506269
 30
0.0
 40
0.5625
 41
0.0
 71
     1
 72
     1
  1
18"
  7
SLDTEXTSTYLE0
 73
     1
 44
1.0
  0
MTEXT
  5
3B2
330
1F
100
AcDbEntity
  8
TRMODEL1
 62
     4
100
AcDbMText
 10
29.1797231303
 20
4.1946194575
 30
0.0
 40
0.5625
 41
0.0
 71
     1
 72
     1
  1
30"
  7
SLDTEXTSTYLE0
 73
     1
 44
1.0
  0
MTEXT
  5
3B3
330
1F
100
AcDbEntity
  8
TRMODEL1
 62
     4
100
AcDbMText
 10
25.1507615959
 20
4.1946194575
 30
0.0
 40
0.5625
 41
0.0
 71
     1
 72
     1
  1
-
  7
SLDTEXTSTYLE0
 73
     1
 44
1.0
  0
MTEXT
  5
3B4
330
1F
100
AcDbEntity
  8
TRMODEL1
 62
     4
100
AcDbMText
 10
25.1507615959
 20
2.8234882881
 30
0.0
 40
0.5625
 41
0.0
 71
     1
 72
     1
  1
-
  7
SLDTEXTSTYLE0
 73
     1
 44
1.0
  0
MTEXT
  5
3B5
330
1F
100
AcDbEntity
  8
TRMODEL1
 62
     4
100
AcDbMText
 10
29.1797231303
 20
2.8234882881
 30
0.0
 40
0.5625
 41
0.0
 71
     1
 72
     1
  1
33"
  7
SLDTEXTSTYLE0
 73
     1
 44
1.0
  0
MTEXT
  5
3B6
330
1F
100
AcDbEntity
  8
TRMODEL1
 62
     4
100
AcDbMText
 10
25.1507615959
 20
5.5657506269
 30
0.0
 40
0.5625
 41
0.0
 71
     1
 72
     1
  1
-
  7
SLDTEXTSTYLE0
 73
     1
 44
1.0
  0
MTEXT
  5
3B7
330
1F
100
AcDbEntity
  8
TRMODEL1
 62
     4
100
AcDbMText
 10
29.1819897522
 20
5.559895187
 30
0.0
 40
0.5625
 41
0.0
 71
     1
 72
     1
  1
27"
  7
SLDTEXTSTYLE0
 73
     1
 44
1.0
  0
MTEXT
  5
3B8
330
1F
100
AcDbEntity
  8
TRMODEL1
 62
     4
100
AcDbMText
 10
18.3296246861
 20
9.6795219054
 30
0.0
 40
0.5625
 41
0.0
 71
     1
 72
     1
  1
HEIGHT RANGE
  7
SLDTEXTSTYLE0
 73
     1
 44
1.0
  0
MTEXT
  5
3B9
330
1F
100
AcDbEntity
  8
TRMODEL1
 62
     4
100
AcDbMText
 10
18.3296246861
 20
8.5042230745
 30
0.0
 40
0.5625
 41
0.0
 71
     1
 72
     1
  1
MIN.
  7
SLDTEXTSTYLE0
 73
     1
 44
1.0
  0
MTEXT
  5
3BA
330
1F
100
AcDbEntity
  8
TRMODEL1
 62
     4
100
AcDbMText
 10
21.3859391786
 20
8.5042230745
 30
0.0
 40
0.5625
 41
0.0
 71
     1
 72
     1
  1
MAX.
  7
SLDTEXTSTYLE0
 73
     1
 44
1.0
  0
MTEXT
  5
3BB
330
1F
100
AcDbEntity
  8
TRMODEL1
 62
     4
100
AcDbMText
 10
25.1651168679
 20
8.9838218354
 30
0.0
 40
0.5625
 41
0.0
 71
     1
 72
     1
  1
QTY.
  7
SLDTEXTSTYLE0
 73
     1
 44
1.0
  0
MTEXT
  5
3BC
330
1F
100
AcDbEntity
  8
TRMODEL1
 62
     4
100
AcDbMText
 10
29.1672567099
 20
8.5042230745
 30
0.0
 40
0.5625
 41
0.0
 71
     1
 72
     1
  1
MIN.
  7
SLDTEXTSTYLE0
 73
     1
 44
1.0
  0
MTEXT
  5
3BD
330
1F
100
AcDbEntity
  8
TRMODEL1
 62
     4
100
AcDbMText
 10
32.2848683861
 20
6.9368817963
 30
0.0
 40
0.5625
 41
0.0
 71
     1
 72
     1
  1
30"
  7
SLDTEXTSTYLE0
 73
     1
 44
1.0
  0
MTEXT
  5
3BE
330
1F
100
AcDbEntity
  8
TRMODEL1
 62
     4
100
AcDbMText
 10
35.9883936197
 20
6.9368817963
 30
0.0
 40
0.5625
 41
0.0
 71
     1
 72
     1
  1
-
  7
SLDTEXTSTYLE0
 73
     1
 44
1.0
  0
MTEXT
  5
3BF
330
1F
100
AcDbEntity
  8
TRMODEL1
 62
     4
100
AcDbMText
 10
35.9883936197
 20
1.4523571188
 30
0.0
 40
0.5625
 41
0.0
 71
     1
 72
     1
  1
-
  7
SLDTEXTSTYLE0
 73
     1
 44
1.0
  0
MTEXT
  5
3C0
330
1F
100
AcDbEntity
  8
TRMODEL1
 62
     4
100
AcDbMText
 10
32.3188677145
 20
1.4465016789
 30
0.0
 40
0.5625
 41
0.0
 71
     1
 72
     1
  1
42"
  7
SLDTEXTSTYLE0
 73
     1
 44
1.0
  0
MTEXT
  5
3C1
330
1F
100
AcDbEntity
  8
TRMODEL1
 62
     4
100
AcDbMText
 10
35.9883936197
 20
4.1946194575
 30
0.0
 40
0.5625
 41
0.0
 71
     1
 72
     1
  1
-
  7
SLDTEXTSTYLE0
 73
     1
 44
1.0
  0
MTEXT
  5
3C2
330
1F
100
AcDbEntity
  8
TRMODEL1
 62
     4
100
AcDbMText
 10
32.2848683861
 20
4.1946194575
 30
0.0
 40
0.5625
 41
0.0
 71
     1
 72
     1
  1
36"
  7
SLDTEXTSTYLE0
 73
     1
 44
1.0
  0
MTEXT
  5
3C3
330
1F
100
AcDbEntity
  8
TRMODEL1
 62
     4
100
AcDbMText
 10
32.2848683861
 20
2.8234882881
 30
0.0
 40
0.5625
 41
0.0
 71
     1
 72
     1
  1
39"
  7
SLDTEXTSTYLE0
 73
     1
 44
1.0
  0
MTEXT
  5
3C4
330
1F
100
AcDbEntity
  8
TRMODEL1
 62
     4
100
AcDbMText
 10
35.9883936197
 20
2.8234882881
 30
0.0
 40
0.5625
 41
0.0
 71
     1
 72
     1
  1
-
  7
SLDTEXTSTYLE0
 73
     1
 44
1.0
  0
MTEXT
  5
3C5
330
1F
100
AcDbEntity
  8
TRMODEL1
 62
     4
100
AcDbMText
 10
32.2848683861
 20
5.5657506269
 30
0.0
 40
0.5625
 41
0.0
 71
     1
 72
     1
  1
33"
  7
SLDTEXTSTYLE0
 73
     1
 44
1.0
  0
MTEXT
  5
3C6
330
1F
100
AcDbEntity
  8
TRMODEL1
 62
     4
100
AcDbMText
 10
35.9883936197
 20
5.5657506269
 30
0.0
 40
0.5625
 41
0.0
 71
     1
 72
     1
  1
-
  7
SLDTEXTSTYLE0
 73
     1
 44
1.0
  0
MTEXT
  5
3C7
330
1F
100
AcDbEntity
  8
TRMODEL1
 62
     4
100
AcDbMText
 10
36.0027488917
 20
8.9838218354
 30
0.0
 40
0.5625
 41
0.0
 71
     1
 72
     1
  1
QTY.
  7
SLDTEXTSTYLE0
 73
     1
 44
1.0
  0
MTEXT
  5
3C8
330
1F
100
AcDbEntity
  8
TRMODEL1
 62
     4
100
AcDbMText
 10
32.2235712024
 20
8.5042230745
 30
0.0
 40
0.5625
 41
0.0
 71
     1
 72
     1
  1
MAX.
  7
SLDTEXTSTYLE0
 73
     1
 44
1.0
  0
MTEXT
  5
3C9
330
1F
100
AcDbEntity
  8
TRMODEL1
 62
     4
100
AcDbMText
 10
0.2074159563
 20
5.1876180532
 30
0.0
 40
0.5625
 41
0.0
 71
     1
 72
     1
  1
***
  7
SLDTEXTSTYLE0
 11
6.123233995736766E-17
 21
1.0
 31
0.0
 73
     1
 44
1.0
  0
MTEXT
  5
3CA
330
1F
100
AcDbEntity
  8
TRMODEL1
 62
     4
100
AcDbMText
 10
3.2899279811
 20
1.9749364806
 30
0.0
 40
0.5625
 41
0.0
 71
     1
 72
     1
  1
SEE CHART FOR
  7
SLDTEXTSTYLE0
 11
6.123233995736766E-17
 21
1.0
 31
0.0
 73
     1
 44
1.0
  0
MTEXT
  5
3CB
330
1F
100
AcDbEntity
  8
TRMODEL1
 62
     4
100
AcDbMText
 10
4.4773181559
 20
1.9500036398
 30
0.0
 40
0.5625
 41
0.0
 71
     1
 72
     1
  1
MIN. - MAX.
  7
SLDTEXTSTYLE0
 11
6.123233995736766E-17
 21
1.0
 31
0.0
 73
     1
 44
1.0
  0
MTEXT
  5
3CC
330
1F
100
AcDbEntity
  8
TRMODEL1
 62
     4
100
AcDbMText
 10
1.3927371449
 20
1.8757056959
 30
0.0
 40
0.5625
 41
0.0
 71
     1
 72
     1
  1
TO TOP OF GRATING
  7
SLDTEXTSTYLE0
 11
6.123233995736766E-17
 21
1.0
 31
0.0
 73
     1
 44
1.0
  0
ENDSEC
  0
SECTION
  2
OBJECTS
  0
DICTIONARY
  5
C
330
0
100
AcDbDictionary
281
     1
  3
ACAD_GROUP
350
D
  3
ACAD_LAYOUT
350
1A
  3
ACAD_MLINESTYLE
350
17
  3
ACAD_PLOTSETTINGS
350
19
  3
ACAD_PLOTSTYLENAME
350
E
  3
ACAD_TABLESTYLE
350
3CD
  3
ACAD_VISUALSTYLE
350
2A
  0
DICTIONARY
  5
D
102
{ACAD_REACTORS
330
C
102
}
330
C
100
AcDbDictionary
281
     1
  0
DICTIONARY
  5
1A
102
{ACAD_REACTORS
330
C
102
}
330
C
100
AcDbDictionary
281
     1
  3
Layout1
350
1E
  3
Layout2
350
26
  3
Model
350
22
  0
DICTIONARY
  5
17
102
{ACAD_REACTORS
330
C
102
}
330
C
100
AcDbDictionary
281
     1
  3
Standard
350
18
  0
DICTIONARY
  5
19
102
{ACAD_REACTORS
330
C
102
}
330
C
100
AcDbDictionary
281
     1
  0
ACDBDICTIONARYWDFLT
  5
E
102
{ACAD_REACTORS
330
C
102
}
330
C
100
AcDbDictionary
281
     1
  3
Normal
350
F
100
AcDbDictionaryWithDefault
340
F
  0
DICTIONARY
  5
3CD
102
{ACAD_REACTORS
330
C
102
}
330
C
100
AcDbDictionary
281
     1
  0
DICTIONARY
  5
2A
102
{ACAD_REACTORS
330
C
102
}
330
C
100
AcDbDictionary
281
     1
  3
2dWireframe
350
2F
  3
3D Hidden
350
31
  3
3dWireframe
350
30
  3
Basic
350
32
  3
Brighten
350
36
  3
ColorChange
350
3A
  3
Conceptual
350
34
  3
Dim
350
35
  3
Facepattern
350
39
  3
Flat
350
2B
  3
FlatWithEdges
350
2C
  3
Gouraud
350
2D
  3
GouraudWithEdges
350
2E
  3
Linepattern
350
38
  3
Realistic
350
33
  3
Thicken
350
37
  0
LAYOUT
  5
1E
102
{ACAD_REACTORS
330
1A
102
}
330
1A
100
AcDbPlotSettings
  1

  2
none_device
  4

  6

 40
0.0
 41
0.0
 42
0.0
 43
0.0
 44
0.0
 45
0.0
 46
0.0
 47
0.0
 48
0.0
 49
0.0
140
0.0
141
0.0
142
1.0
143
1.0
 70
   688
 72
     0
 73
     0
 74
     5
  7

 75
    16
147
1.0
148
0.0
149
0.0
100
AcDbLayout
  1
Layout1
 70
     1
 71
     1
 10
0.0
 20
0.0
 11
12.0
 21
9.0
 12
0.0
 22
0.0
 32
0.0
 14
1.0000000000E+20
 24
1.0000000000E+20
 34
1.0000000000E+20
 15
-1.0000000000E+20
 25
-1.0000000000E+20
 35
-1.0000000000E+20
146
0.0
 13
0.0
 23
0.0
 33
0.0
 16
1.0
 26
0.0
 36
0.0
 17
0.0
 27
1.0
 37
0.0
 76
     0
330
1B
  0
LAYOUT
  5
26
102
{ACAD_REACTORS
330
1A
102
}
330
1A
100
AcDbPlotSettings
  1

  2
none_device
  4

  6

 40
0.0
 41
0.0
 42
0.0
 43
0.0
 44
0.0
 45
0.0
 46
0.0
 47
0.0
 48
0.0
 49
0.0
140
0.0
141
0.0
142
1.0
143
1.0
 70
   688
 72
     0
 73
     0
 74
     5
  7

 75
    16
147
1.0
148
0.0
149
0.0
100
AcDbLayout
  1
Layout2
 70
     1
 71
     2
 10
0.0
 20
0.0
 11
0.0
 21
0.0
 12
0.0
 22
0.0
 32
0.0
 14
0.0
 24
0.0
 34
0.0
 15
0.0
 25
0.0
 35
0.0
146
0.0
 13
0.0
 23
0.0
 33
0.0
 16
1.0
 26
0.0
 36
0.0
 17
0.0
 27
1.0
 37
0.0
 76
     0
330
23
  0
LAYOUT
  5
22
102
{ACAD_REACTORS
330
1A
102
}
330
1A
100
AcDbPlotSettings
  1

  2
none_device
  4

  6

 40
0.0
 41
0.0
 42
0.0
 43
0.0
 44
0.0
 45
0.0
 46
0.0
 47
0.0
 48
0.0
 49
0.0
140
0.0
141
0.0
142
1.0
143
1.0
 70
  1712
 72
     0
 73
     0
 74
     0
  7

 75
     0
147
1.0
148
0.0
149
0.0
100
AcDbLayout
  1
Model
 70
     1
 71
     0
 10
0.0
 20
0.0
 11
34.0
 21
22.0
 12
0.0
 22
0.0
 32
0.0
 14
0.0
 24
0.0
 34
0.0
 15
34.0
 25
22.0
 35
0.0
146
0.0
 13
0.0
 23
0.0
 33
0.0
 16
1.0
 26
0.0
 36
0.0
 17
0.0
 27
1.0
 37
0.0
 76
     0
330
1F
331
29
  0
MLINESTYLE
  5
18
102
{ACAD_REACTORS
330
17
102
}
330
17
100
AcDbMlineStyle
  2
Standard
 70
     0
  3

 62
   256
 51
90.0
 52
90.0
 71
     2
 49
0.5
 62
   256
  6
BYLAYER
 49
-0.5
 62
   256
  6
BYLAYER
  0
ACDBPLACEHOLDER
  5
F
102
{ACAD_REACTORS
330
E
102
}
330
E
  0
VISUALSTYLE
  5
2F
102
{ACAD_REACTORS
330
2A
102
}
330
2A
100
AcDbVisualStyle
  2
2dWireframe
 70
     4
 71
     0
 72
     2
 73
     0
 90
        0
 40
-0.6
 41
-30.0
 62
     5
 63
     7
 74
     1
 91
        4
 64
     7
 65
   257
 75
     1
175
     1
 42
1.0
 92
        0
 66
   257
 43
1.0
 76
     1
 77
     6
 78
     2
 67
     7
 79
     5
170
     0
171
     0
290
     0
174
     0
 93
        1
 44
0.0
173
     0
291
     0
 45
0.0
1001
ACAD
1000
AcDbSavedByObjectVersion
1070
     0
  0
VISUALSTYLE
  5
31
102
{ACAD_REACTORS
330
2A
102
}
330
2A
100
AcDbVisualStyle
  2
3D Hidden
 70
     6
 71
     1
 72
     2
 73
     2
 90
        0
 40
-0.6
 41
-30.0
 62
     5
 63
     7
 74
     2
 91
        2
 64
     7
 65
   257
 75
     2
175
     1
 42
40.0
 92
        0
 66
   257
 43
1.0
 76
     1
 77
     6
 78
     2
 67
     7
 79
     3
170
     0
171
     0
290
     0
174
     0
 93
        1
 44
0.0
173
     0
291
     0
 45
0.0
1001
ACAD
1000
AcDbSavedByObjectVersion
1070
     0
  0
VISUALSTYLE
  5
30
102
{ACAD_REACTORS
330
2A
102
}
330
2A
100
AcDbVisualStyle
  2
3dWireframe
 70
     5
 71
     0
 72
     2
 73
     0
 90
        0
 40
-0.6
 41
-30.0
 62
     5
 63
     7
 74
     1
 91
        4
 64
     7
 65
   257
 75
     1
175
     1
 42
1.0
 92
        0
 66
   257
 43
1.0
 76
     1
 77
     6
 78
     2
 67
     7
 79
     5
170
     0
171
     0
290
     0
174
     0
 93
        1
 44
0.0
173
     0
291
     0
 45
0.0
1001
ACAD
1000
AcDbSavedByObjectVersion
1070
     0
  0
VISUALSTYLE
  5
32
102
{ACAD_REACTORS
330
2A
102
}
330
2A
100
AcDbVisualStyle
  2
Basic
 70
     7
 71
     1
 72
     0
 73
     1
 90
        0
 40
-0.6
 41
-30.0
 62
     5
 63
     7
 74
     0
 91
        4
 64
     7
 65
   257
 75
     1
175
     1
 42
1.0
 92
        8
 66
     7
 43
1.0
 76
     1
 77
     6
 78
     2
 67
     7
 79
     5
170
     0
171
     0
290
     0
174
     0
 93
        1
 44
0.0
173
     0
291
     1
 45
0.0
1001
ACAD
1000
AcDbSavedByObjectVersion
1070
     0
  0
VISUALSTYLE
  5
36
102
{ACAD_REACTORS
330
2A
102
}
330
2A
100
AcDbVisualStyle
  2
Brighten
 70
    12
 71
     2
 72
     2
 73
     0
 90
        0
 40
-0.6
 41
-30.0
 62
     5
 63
     7
 74
     1
 91
        4
 64
     7
 65
   257
 75
     1
175
     1
 42
1.0
 92
        8
 66
     7
 43
1.0
 76
     1
 77
     6
 78
     2
 67
     7
 79
     5
170
     0
171
     0
290
     0
174
     0
 93
        1
 44
50.0
173
     0
291
     1
 45
0.0
1001
ACAD
1000
AcDbSavedByObjectVersion
1070
     0
  0
VISUALSTYLE
  5
3A
102
{ACAD_REACTORS
330
2A
102
}
330
2A
100
AcDbVisualStyle
  2
ColorChange
 70
    16
 71
     2
 72
     2
 73
     3
 90
        0
 40
-0.6
 41
-30.0
 62
     5
 63
     8
 74
     1
 91
        4
 64
     7
 65
   257
 75
     1
175
     1
 42
1.0
 92
        8
 66
     8
 43
1.0
 76
     1
 77
     6
 78
     2
 67
     7
 79
     5
170
     0
171
     0
290
     0
174
     0
 93
        1
 44
0.0
173
     0
291
     1
 45
0.0
1001
ACAD
1000
AcDbSavedByObjectVersion
1070
     0
  0
VISUALSTYLE
  5
34
102
{ACAD_REACTORS
330
2A
102
}
330
2A
100
AcDbVisualStyle
  2
Conceptual
 70
     9
 71
     3
 72
     2
 73
     0
 90
        0
 40
-0.6
 41
-30.0
 62
     5
 63
     7
 74
     2
 91
        2
 64
     7
 65
   257
 75
     1
175
     1
 42
40.0
 92
        8
 66
     7
 43
1.0
 76
     1
 77
     6
 78
     2
 67
     7
 79
     3
170
     0
171
     0
290
     0
174
     0
 93
        1
 44
0.0
173
     0
291
     0
 45
0.0
1001
ACAD
1000
AcDbSavedByObjectVersion
1070
     0
  0
VISUALSTYLE
  5
35
102
{ACAD_REACTORS
330
2A
102
}
330
2A
100
AcDbVisualStyle
  2
Dim
 70
    11
 71
     2
 72
     2
 73
     0
 90
        0
 40
-0.6
 41
-30.0
 62
     5
 63
     7
 74
     1
 91
        4
 64
     7
 65
   257
 75
     1
175
     1
 42
1.0
 92
        8
 66
     7
 43
1.0
 76
     1
 77
     6
 78
     2
 67
     7
 79
     5
170
     0
171
     0
290
     0
174
     0
 93
        1
 44
-50.0
173
     0
291
     1
 45
0.0
1001
ACAD
1000
AcDbSavedByObjectVersion
1070
     0
  0
VISUALSTYLE
  5
39
102
{ACAD_REACTORS
330
2A
102
}
330
2A
100
AcDbVisualStyle
  2
Facepattern
 70
    15
 71
     2
 72
     2
 73
     0
 90
        0
 40
-0.6
 41
-30.0
 62
     5
 63
     7
 74
     1
 91
        4
 64
     7
 65
   257
 75
     1
175
     1
 42
1.0
 92
        8
 66
     7
 43
1.0
 76
     1
 77
     6
 78
     2
 67
     7
 79
     5
170
     0
171
     0
290
     0
174
     0
 93
        1
 44
0.0
173
     0
291
     1
 45
0.0
1001
ACAD
1000
AcDbSavedByObjectVersion
1070
     0
  0
VISUALSTYLE
  5
2B
102
{ACAD_REACTORS
330
2A
102
}
330
2A
100
AcDbVisualStyle
  2
Flat
 70
     0
 71
     2
 72
     1
 73
     1
 90
        2
 40
-0.6
 41
30.0
 62
     5
 63
     7
 74
     0
 91
        4
 64
     7
 65
   257
 75
     1
175
     1
 42
1.0
 92
        8
 66
     7
 43
1.0
 76
     1
 77
     6
 78
     2
 67
     7
 79
     5
170
     0
171
     0
290
     0
174
     0
 93
       13
 44
0.0
173
     0
291
     1
 45
0.0
1001
ACAD
1000
AcDbSavedByObjectVersion
1070
     0
  0
VISUALSTYLE
  5
2C
102
{ACAD_REACTORS
330
2A
102
}
330
2A
100
AcDbVisualStyle
  2
FlatWithEdges
 70
     1
 71
     2
 72
     1
 73
     1
 90
        2
 40
-0.6
 41
30.0
 62
     5
 63
     7
 74
     1
 91
        4
 64
     7
 65
   257
 75
     1
175
     1
 42
1.0
 92
        0
 66
   257
 43
1.0
 76
     1
 77
     6
 78
     2
 67
     7
 79
     5
170
     0
171
     0
290
     0
174
     0
 93
       13
 44
0.0
173
     0
291
     1
 45
0.0
1001
ACAD
1000
AcDbSavedByObjectVersion
1070
     0
  0
VISUALSTYLE
  5
2D
102
{ACAD_REACTORS
330
2A
102
}
330
2A
100
AcDbVisualStyle
  2
Gouraud
 70
     2
 71
     2
 72
     2
 73
     1
 90
        2
 40
-0.6
 41
30.0
 62
     5
 63
     7
 74
     0
 91
        4
 64
     7
 65
   257
 75
     1
175
     1
 42
1.0
 92
        0
 66
     7
 43
1.0
 76
     1
 77
     6
 78
     2
 67
     7
 79
     5
170
     0
171
     0
290
     0
174
     0
 93
       13
 44
0.0
173
     0
291
     1
 45
0.0
1001
ACAD
1000
AcDbSavedByObjectVersion
1070
     0
  0
VISUALSTYLE
  5
2E
102
{ACAD_REACTORS
330
2A
102
}
330
2A
100
AcDbVisualStyle
  2
GouraudWithEdges
 70
     3
 71
     2
 72
     2
 73
     1
 90
        2
 40
-0.6
 41
30.0
 62
     5
 63
     7
 74
     1
 91
        4
 64
     7
 65
   257
 75
     1
175
     1
 42
1.0
 92
        0
 66
   257
 43
1.0
 76
     1
 77
     6
 78
     2
 67
     7
 79
     5
170
     0
171
     0
290
     0
174
     0
 93
       13
 44
0.0
173
     0
291
     1
 45
0.0
1001
ACAD
1000
AcDbSavedByObjectVersion
1070
     0
  0
VISUALSTYLE
  5
38
102
{ACAD_REACTORS
330
2A
102
}
330
2A
100
AcDbVisualStyle
  2
Linepattern
 70
    14
 71
     2
 72
     2
 73
     0
 90
        0
 40
-0.6
 41
-30.0
 62
     5
 63
     7
 74
     1
 91
        4
 64
     7
 65
   257
 75
     7
175
     7
 42
1.0
 92
        8
 66
     7
 43
1.0
 76
     1
 77
     6
 78
     2
 67
     7
 79
     5
170
     0
171
     0
290
     0
174
     0
 93
        1
 44
0.0
173
     0
291
     1
 45
0.0
1001
ACAD
1000
AcDbSavedByObjectVersion
1070
     0
  0
VISUALSTYLE
  5
33
102
{ACAD_REACTORS
330
2A
102
}
330
2A
100
AcDbVisualStyle
  2
Realistic
 70
     8
 71
     2
 72
     2
 73
     0
 90
        0
 40
-0.6
 41
-30.0
 62
     5
 63
     7
 74
     1
 91
        0
 64
     7
 65
   257
 75
     1
175
     1
 42
1.0
 92
        8
 66
     8
 43
1.0
 76
     1
 77
     6
 78
     2
 67
     7
 79
     5
170
     0
171
     0
290
     0
174
     0
 93
       13
 44
0.0
173
     0
291
     0
 45
0.0
1001
ACAD
1000
AcDbSavedByObjectVersion
1070
     0
  0
VISUALSTYLE
  5
37
102
{ACAD_REACTORS
330
2A
102
}
330
2A
100
AcDbVisualStyle
  2
Thicken
 70
    13
 71
     2
 72
     2
 73
     0
 90
        0
 40
-0.6
 41
-30.0
 62
     5
 63
     7
 74
     1
 91
        4
 64
     7
 65
   257
 75
     1
175
     1
 42
1.0
 92
       12
 66
     7
 43
1.0
 76
     1
 77
     6
 78
     2
 67
     7
 79
     5
170
     0
171
     0
290
     0
174
     0
 93
        1
 44
0.0
173
     0
291
     1
 45
0.0
1001
ACAD
1000
AcDbSavedByObjectVersion
1070
     0
  0
ENDSEC
  0
EOF
