  0
SECTION
  2
HEADER
  9
$ACADVER
  1
AC1015
  9
$ACADMAINTVER
 70
     6
  9
$DWGCODEPAGE
  3
ANSI_1252
  9
$INSBASE
 10
0.0
 20
0.0
 30
0.0
  9
$EXTMIN
 10
0.0
 20
0.0
 30
0.0
  9
$EXTMAX
 10
22.0
 20
17.0
 30
0.0
  9
$LIMMIN
 10
0.0
 20
0.0
  9
$LIMMAX
 10
22.0
 20
17.0
  9
$ORTHOMODE
 70
     0
  9
$REGENMODE
 70
     1
  9
$FILLMODE
 70
     1
  9
$QTEXTMODE
 70
     0
  9
$MIRRTEXT
 70
     1
  9
$LTSCALE
 40
1.0
  9
$ATTMODE
 70
     1
  9
$TEXTSIZE
 40
0.1377952756
  9
$TRACEWID
 40
0.05
  9
$TEXTSTYLE
  7
Standard
  9
$CLAYER
  8
0
  9
$CELTYPE
  6
ByLayer
  9
$CECOLOR
 62
   256
  9
$CELTSCALE
 40
1.0
  9
$DISPSILH
 70
     0
  9
$DIMSCALE
 40
1.0
  9
$DIMASZ
 40
0.2362204724
  9
$DIMEXO
 40
0.0393700787
  9
$DIMDLI
 40
0.38
  9
$DIMRND
 40
0.0
  9
$DIMDLE
 40
0.0
  9
$DIMEXE
 40
0.0393700787
  9
$DIMTP
 40
0.0
  9
$DIMTM
 40
0.0
  9
$DIMTXT
 40
0.1377952756
  9
$DIMCEN
 40
0.09
  9
$DIMTSZ
 40
0.0
  9
$DIMTOL
 70
     0
  9
$DIMLIM
 70
     0
  9
$DIMTIH
 70
     1
  9
$DIMTOH
 70
     1
  9
$DIMSE1
 70
     0
  9
$DIMSE2
 70
     0
  9
$DIMTAD
 70
     1
  9
$DIMZIN
 70
     1
  9
$DIMBLK
  1

  9
$DIMASO
 70
     1
  9
$DIMSHO
 70
     1
  9
$DIMPOST
  1

  9
$DIMAPOST
  1

  9
$DIMALT
 70
     0
  9
$DIMALTD
 70
     2
  9
$DIMALTF
 40
25.4
  9
$DIMLFAC
 40
6.0
  9
$DIMTOFL
 70
     0
  9
$DIMTVP
 40
0.0
  9
$DIMTIX
 70
     0
  9
$DIMSOXD
 70
     0
  9
$DIMSAH
 70
     0
  9
$DIMBLK1
  1

  9
$DIMBLK2
  1

  9
$DIMSTYLE
  2
Standard
  9
$DIMCLRD
 70
     0
  9
$DIMCLRE
 70
     0
  9
$DIMCLRT
 70
     0
  9
$DIMTFAC
 40
1.0
  9
$DIMGAP
 40
0.06
  9
$DIMJUST
 70
     0
  9
$DIMSD1
 70
     0
  9
$DIMSD2
 70
     0
  9
$DIMTOLJ
 70
     1
  9
$DIMTZIN
 70
     1
  9
$DIMALTZ
 70
     0
  9
$DIMALTTZ
 70
     0
  9
$DIMUPT
 70
     0
  9
$DIMDEC
 70
     4
  9
$DIMTDEC
 70
     4
  9
$DIMALTU
 70
     2
  9
$DIMALTTD
 70
     2
  9
$DIMTXSTY
  7
Standard
  9
$DIMAUNIT
 70
     0
  9
$DIMADEC
 70
     0
  9
$DIMALTRND
 40
0.0
  9
$DIMAZIN
 70
     0
  9
$DIMDSEP
 70
    46
  9
$DIMATFIT
 70
     3
  9
$DIMFRAC
 70
     0
  9
$DIMLDRBLK
  1

  9
$DIMLUNIT
 70
     2
  9
$DIMLWD
 70
    -2
  9
$DIMLWE
 70
    -2
  9
$DIMTMOVE
 70
     0
  9
$LUNITS
 70
     2
  9
$LUPREC
 70
     4
  9
$SKETCHINC
 40
0.1
  9
$FILLETRAD
 40
0.5
  9
$AUNITS
 70
     0
  9
$AUPREC
 70
     0
  9
$MENU
  1
.
  9
$ELEVATION
 40
0.0
  9
$PELEVATION
 40
0.0
  9
$THICKNESS
 40
0.0
  9
$LIMCHECK
 70
     0
  9
$CHAMFERA
 40
0.5
  9
$CHAMFERB
 40
0.5
  9
$CHAMFERC
 40
1.0
  9
$CHAMFERD
 40
0.0
  9
$SKPOLY
 70
     0
  9
$TDCREATE
 40
2454440.85396662
  9
$TDUCREATE
 40
2454441.187299954
  9
$TDUPDATE
 40
2454440.853966632
  9
$TDUUPDATE
 40
2454441.187299965
  9
$TDINDWG
 40
0.0000000116
  9
$TDUSRTIMER
 40
0.0000000116
  9
$USRTIMER
 70
     1
  9
$ANGBASE
 50
0.0
  9
$ANGDIR
 70
     0
  9
$PDMODE
 70
     0
  9
$PDSIZE
 40
-1.0
  9
$PLINEWID
 40
0.0
  9
$SPLFRAME
 70
     0
  9
$SPLINETYPE
 70
     6
  9
$SPLINESEGS
 70
     8
  9
$HANDSEED
  5
62D
  9
$SURFTAB1
 70
     6
  9
$SURFTAB2
 70
     6
  9
$SURFTYPE
 70
     6
  9
$SURFU
 70
     6
  9
$SURFV
 70
     6
  9
$UCSBASE
  2

  9
$UCSNAME
  2

  9
$UCSORG
 10
0.0
 20
0.0
 30
0.0
  9
$UCSXDIR
 10
1.0
 20
0.0
 30
0.0
  9
$UCSYDIR
 10
0.0
 20
1.0
 30
0.0
  9
$UCSORTHOREF
  2

  9
$UCSORTHOVIEW
 70
     0
  9
$UCSORGTOP
 10
0.0
 20
0.0
 30
0.0
  9
$UCSORGBOTTOM
 10
0.0
 20
0.0
 30
0.0
  9
$UCSORGLEFT
 10
0.0
 20
0.0
 30
0.0
  9
$UCSORGRIGHT
 10
0.0
 20
0.0
 30
0.0
  9
$UCSORGFRONT
 10
0.0
 20
0.0
 30
0.0
  9
$UCSORGBACK
 10
0.0
 20
0.0
 30
0.0
  9
$PUCSBASE
  2

  9
$PUCSNAME
  2

  9
$PUCSORG
 10
0.0
 20
0.0
 30
0.0
  9
$PUCSXDIR
 10
1.0
 20
0.0
 30
0.0
  9
$PUCSYDIR
 10
0.0
 20
1.0
 30
0.0
  9
$PUCSORTHOREF
  2

  9
$PUCSORTHOVIEW
 70
     0
  9
$PUCSORGTOP
 10
0.0
 20
0.0
 30
0.0
  9
$PUCSORGBOTTOM
 10
0.0
 20
0.0
 30
0.0
  9
$PUCSORGLEFT
 10
0.0
 20
0.0
 30
0.0
  9
$PUCSORGRIGHT
 10
0.0
 20
0.0
 30
0.0
  9
$PUCSORGFRONT
 10
0.0
 20
0.0
 30
0.0
  9
$PUCSORGBACK
 10
0.0
 20
0.0
 30
0.0
  9
$USERI1
 70
     0
  9
$USERI2
 70
     0
  9
$USERI3
 70
     0
  9
$USERI4
 70
     0
  9
$USERI5
 70
     0
  9
$USERR1
 40
0.0
  9
$USERR2
 40
0.0
  9
$USERR3
 40
0.0
  9
$USERR4
 40
0.0
  9
$USERR5
 40
0.0
  9
$WORLDVIEW
 70
     1
  9
$SHADEDGE
 70
     3
  9
$SHADEDIF
 70
    70
  9
$TILEMODE
 70
     1
  9
$MAXACTVP
 70
    64
  9
$PINSBASE
 10
0.0
 20
0.0
 30
0.0
  9
$PLIMCHECK
 70
     0
  9
$PEXTMIN
 10
1.0000000000E+20
 20
1.0000000000E+20
 30
1.0000000000E+20
  9
$PEXTMAX
 10
-1.0000000000E+20
 20
-1.0000000000E+20
 30
-1.0000000000E+20
  9
$PLIMMIN
 10
0.0
 20
0.0
  9
$PLIMMAX
 10
12.0
 20
9.0
  9
$UNITMODE
 70
     0
  9
$VISRETAIN
 70
     1
  9
$PLINEGEN
 70
     0
  9
$PSLTSCALE
 70
     1
  9
$TREEDEPTH
 70
  3020
  9
$CMLSTYLE
  2
Standard
  9
$CMLJUST
 70
     0
  9
$CMLSCALE
 40
1.0
  9
$PROXYGRAPHICS
 70
     1
  9
$MEASUREMENT
 70
     0
  9
$CELWEIGHT
370
    -1
  9
$ENDCAPS
280
     0
  9
$JOINSTYLE
280
     0
  9
$LWDISPLAY
290
     1
  9
$INSUNITS
 70
     1
  9
$HYPERLINKBASE
  1

  9
$STYLESHEET
  1

  9
$XEDIT
290
     1
  9
$CEPSNTYPE
380
     0
  9
$PSTYLEMODE
290
     1
  9
$FINGERPRINTGUID
  2
{E1F4146F-8DF5-4050-8427-F9AE370C81B6}
  9
$VERSIONGUID
  2
{FAEB1C32-E019-11D5-929B-00C0DF256EC4}
  9
$EXTNAMES
290
     1
  9
$PSVPSCALE
 40
0.0
  9
$OLESTARTUP
290
     0
  0
ENDSEC
  0
SECTION
  2
CLASSES
  0
CLASS
  1
ACDBDICTIONARYWDFLT
  2
AcDbDictionaryWithDefault
  3
ObjectDBX Classes
 90
        0
280
     0
281
     0
  0
CLASS
  1
VISUALSTYLE
  2
AcDbVisualStyle
  3
ObjectDBX Classes
 90
     4095
280
     0
281
     0
  0
CLASS
  1
ACDBPLACEHOLDER
  2
AcDbPlaceHolder
  3
ObjectDBX Classes
 90
        0
280
     0
281
     0
  0
CLASS
  1
LAYOUT
  2
AcDbLayout
  3
ObjectDBX Classes
 90
        0
280
     0
281
     0
  0
ENDSEC
  0
SECTION
  2
TABLES
  0
TABLE
  2
VPORT
  5
8
330
0
100
AcDbSymbolTable
 70
     1
  0
VPORT
  5
29
330
8
100
AcDbSymbolTableRecord
100
AcDbViewportTableRecord
  2
*Active
 70
     0
 10
0.0
 20
0.0
 11
1.0
 21
1.0
 12
11.0
 22
8.5
 13
0.0
 23
0.0
 14
0.5
 24
0.5
 15
0.5
 25
0.5
 16
0.0
 26
0.0
 36
1.0
 17
0.0
 27
0.0
 37
0.0
 40
17.0
 41
1.2941176471
 42
50.0
 43
0.0
 44
0.0
 50
0.0
 51
0.0
 71
     0
 72
  2000
 73
     1
 74
     3
 75
     0
 76
     0
 77
     0
 78
     0
281
     0
 65
     1
110
0.0
120
0.0
130
0.0
111
1.0
121
0.0
131
0.0
112
0.0
122
1.0
132
0.0
 79
     0
146
0.0
  0
ENDTAB
  0
TABLE
  2
LTYPE
  5
5
330
0
100
AcDbSymbolTable
 70
     6
  0
LTYPE
  5
14
330
5
100
AcDbSymbolTableRecord
100
AcDbLinetypeTableRecord
  2
ByBlock
 70
     0
  3

 72
    65
 73
     0
 40
0.0
  0
LTYPE
  5
15
330
5
100
AcDbSymbolTableRecord
100
AcDbLinetypeTableRecord
  2
ByLayer
 70
     0
  3

 72
    65
 73
     0
 40
0.0
  0
LTYPE
  5
16
330
5
100
AcDbSymbolTableRecord
100
AcDbLinetypeTableRecord
  2
Continuous
 70
     0
  3
Solid line
 72
    65
 73
     0
 40
0.0
  0
LTYPE
  5
3B
330
5
100
AcDbSymbolTableRecord
100
AcDbLinetypeTableRecord
  2
HIDDEN
 70
     0
  3
Hidden __ __ __ __ __ __ __ __ __ __ __ __ __ __
 72
    65
 73
     2
 40
0.075
 49
0.05
 74
     0
 49
-0.025
 74
     0
  0
LTYPE
  5
3C
330
5
100
AcDbSymbolTableRecord
100
AcDbLinetypeTableRecord
  2
PHANTOM
 70
     0
  3
Phantom ______  __  __  ______  __  __  ______
 72
    65
 73
     6
 40
0.5
 49
0.25
 74
     0
 49
-0.05
 74
     0
 49
0.05
 74
     0
 49
-0.05
 74
     0
 49
0.05
 74
     0
 49
-0.05
 74
     0
  0
LTYPE
  5
3D
330
5
100
AcDbSymbolTableRecord
100
AcDbLinetypeTableRecord
  2
CENTER
 70
     0
  3
Center ____ _ ____ _ ____ _ ____ _ ____ _ ____
 72
    65
 73
     4
 40
0.4
 49
0.25
 74
     0
 49
-0.05
 74
     0
 49
0.05
 74
     0
 49
-0.05
 74
     0
  0
LTYPE
  5
3E
330
5
100
AcDbSymbolTableRecord
100
AcDbLinetypeTableRecord
  2
CENTERX2
 70
     0
  3
Center (2x) ________  __  ________  __  _____
 72
    65
 73
     4
 40
0.8
 49
0.5
 74
     0
 49
-0.1
 74
     0
 49
0.1
 74
     0
 49
-0.1
 74
     0
  0
LTYPE
  5
3F
330
5
100
AcDbSymbolTableRecord
100
AcDbLinetypeTableRecord
  2
DOT2
 70
     0
  3
Dot (.5x) ........................................
 72
    65
 73
     2
 40
0.025
 49
0.0
 74
     0
 49
-0.025
 74
     0
  0
ENDTAB
  0
TABLE
  2
LAYER
  5
2
330
0
100
AcDbSymbolTable
 70
    12
  0
LAYER
  5
10
330
2
100
AcDbSymbolTableRecord
100
AcDbLayerTableRecord
  2
0
 70
     0
 62
     7
  6
Continuous
370
    -3
390
F
  0
LAYER
  5
40
330
2
100
AcDbSymbolTableRecord
100
AcDbLayerTableRecord
  2
SLD-0
 70
     0
 62
   179
  6
Continuous
370
    -3
390
F
  0
LAYER
  5
41
330
2
100
AcDbSymbolTableRecord
100
AcDbLayerTableRecord
  2
2
 70
     0
 62
     2
  6
Continuous
370
    -3
390
F
  0
LAYER
  5
42
330
2
100
AcDbSymbolTableRecord
100
AcDbLayerTableRecord
  2
4
 70
     0
 62
     4
  6
Continuous
370
    -3
390
F
  0
LAYER
  5
43
330
2
100
AcDbSymbolTableRecord
100
AcDbLayerTableRecord
  2
TRMODEL1
 70
     0
 62
   179
  6
Continuous
370
    -3
390
F
  0
LAYER
  5
44
330
2
100
AcDbSymbolTableRecord
100
AcDbLayerTableRecord
  2
TRMODEL2
 70
     0
 62
     3
  6
Continuous
370
    -3
390
F
  0
LAYER
  5
45
330
2
100
AcDbSymbolTableRecord
100
AcDbLayerTableRecord
  2
TRMODEL3
 70
     0
 62
     1
  6
HIDDEN
370
    -3
390
F
  0
LAYER
  5
46
330
2
100
AcDbSymbolTableRecord
100
AcDbLayerTableRecord
  2
TRDIM
 70
     0
 62
     3
  6
Continuous
370
    -3
390
F
  0
LAYER
  5
47
330
2
100
AcDbSymbolTableRecord
100
AcDbLayerTableRecord
  2
TRDETAIL1
 70
     0
 62
     1
  6
Continuous
370
    -3
390
F
  0
LAYER
  5
48
330
2
100
AcDbSymbolTableRecord
100
AcDbLayerTableRecord
  2
TRDETAIL2
 70
     0
 62
     6
  6
HIDDEN
370
    -3
390
F
  0
LAYER
  5
49
330
2
100
AcDbSymbolTableRecord
100
AcDbLayerTableRecord
  2
TRDETAIL3
 70
     0
 62
     4
  6
CENTERX2
370
    -3
390
F
  0
LAYER
  5
4A
330
2
100
AcDbSymbolTableRecord
100
AcDbLayerTableRecord
  2
TRTEXT
 70
     0
 62
   179
  6
Continuous
370
    -3
390
F
  0
ENDTAB
  0
TABLE
  2
STYLE
  5
3
330
0
100
AcDbSymbolTable
 70
     2
  0
STYLE
  5
11
330
3
100
AcDbSymbolTableRecord
100
AcDbTextStyleTableRecord
  2
Standard
 70
     0
 40
0.0
 41
1.0
 50
0.0
 71
     0
 42
0.2
  3
txt
  4

  0
STYLE
  5
61C
330
3
100
AcDbSymbolTableRecord
100
AcDbTextStyleTableRecord
  2
SLDTEXTSTYLE0
 70
     0
 40
0.0
 41
0.7
 50
0.0
 71
     0
 42
0.2
  3
TXT
  4

  0
ENDTAB
  0
TABLE
  2
VIEW
  5
6
330
0
100
AcDbSymbolTable
 70
     0
  0
ENDTAB
  0
TABLE
  2
UCS
  5
7
330
0
100
AcDbSymbolTable
 70
     0
  0
ENDTAB
  0
TABLE
  2
APPID
  5
9
330
0
100
AcDbSymbolTable
 70
     1
  0
APPID
  5
12
330
9
100
AcDbSymbolTableRecord
100
AcDbRegAppTableRecord
  2
ACAD
 70
     0
  0
ENDTAB
  0
TABLE
  2
DIMSTYLE
  5
A
330
0
100
AcDbSymbolTable
 70
     1
100
AcDbDimStyleTable
  0
DIMSTYLE
105
27
330
A
100
AcDbSymbolTableRecord
100
AcDbDimStyleTableRecord
  2
Standard
 70
     0
340
11
  0
ENDTAB
  0
TABLE
  2
BLOCK_RECORD
  5
1
330
0
100
AcDbSymbolTable
 70
     1
  0
BLOCK_RECORD
  5
1F
330
1
100
AcDbSymbolTableRecord
100
AcDbBlockTableRecord
  2
*Model_Space
340
22
  0
BLOCK_RECORD
  5
1B
330
1
100
AcDbSymbolTableRecord
100
AcDbBlockTableRecord
  2
*Paper_Space
340
1E
  0
BLOCK_RECORD
  5
23
330
1
100
AcDbSymbolTableRecord
100
AcDbBlockTableRecord
  2
*Paper_Space0
340
26
  0
ENDTAB
  0
ENDSEC
  0
SECTION
  2
BLOCKS
  0
BLOCK
  5
20
330
1F
100
AcDbEntity
  8
0
100
AcDbBlockBegin
  2
*Model_Space
 70
     0
 71
     0
 10
0.0
 20
0.0
 30
0.0
  3
*Model_Space
  1

  0
ENDBLK
  5
21
330
1F
100
AcDbEntity
  8
0
100
AcDbBlockEnd
  0
BLOCK
  5
1C
330
1B
100
AcDbEntity
 67
     1
  8
0
100
AcDbBlockBegin
  2
*Paper_Space
 70
     0
 71
     0
 10
0.0
 20
0.0
 30
0.0
  3
*Paper_Space
  1

  0
ENDBLK
  5
1D
330
1B
100
AcDbEntity
 67
     1
  8
0
100
AcDbBlockEnd
  0
BLOCK
  5
24
330
23
100
AcDbEntity
  8
0
100
AcDbBlockBegin
  2
*Paper_Space0
 70
     0
 71
     0
 10
0.0
 20
0.0
 30
0.0
  3
*Paper_Space0
  1

  0
ENDBLK
  5
25
330
23
100
AcDbEntity
  8
0
100
AcDbBlockEnd
  0
ENDSEC
  0
SECTION
  2
ENTITIES
  0
LINE
  5
4B
330
1F
100
AcDbEntity
  8
TRMODEL1
  6
Continuous
 62
     2
100
AcDbLine
 10
16.8326017193
 20
0.0517766963
 30
0.0
 11
17.2439997815
 21
0.4631747585
 31
0.0
  0
LINE
  5
4C
330
1F
100
AcDbEntity
  8
TRMODEL1
  6
Continuous
 62
     2
100
AcDbLine
 10
16.655825024
 20
0.0517766963
 30
0.0
 11
17.2439997815
 21
0.6399514538
 31
0.0
  0
LINE
  5
4D
330
1F
100
AcDbEntity
  8
TRMODEL1
  6
Continuous
 62
     2
100
AcDbLine
 10
16.4790483287
 20
0.0517766963
 30
0.0
 11
17.2439997815
 21
0.8167281491
 31
0.0
  0
LINE
  5
4E
330
1F
100
AcDbEntity
  8
TRMODEL1
  6
Continuous
 62
     2
100
AcDbLine
 10
16.868999774
 20
0.6185048369
 30
0.0
 11
17.2439997815
 21
0.9935048444
 31
0.0
  0
LINE
  5
4F
330
1F
100
AcDbEntity
  8
TRMODEL1
  6
Continuous
 62
     2
100
AcDbLine
 10
16.868999774
 20
0.7952815322
 30
0.0
 11
17.2439997815
 21
1.1702815397
 31
0.0
  0
LINE
  5
50
330
1F
100
AcDbEntity
  8
TRMODEL1
  6
Continuous
 62
     2
100
AcDbLine
 10
16.868999774
 20
0.9720582275
 30
0.0
 11
17.2439997815
 21
1.347058235
 31
0.0
  0
LINE
  5
51
330
1F
100
AcDbEntity
  8
TRMODEL1
  6
Continuous
 62
     2
100
AcDbLine
 10
16.868999774
 20
1.1488349228
 30
0.0
 11
17.2439997815
 21
1.5238349303
 31
0.0
  0
LINE
  5
52
330
1F
100
AcDbEntity
  8
TRMODEL1
  6
Continuous
 62
     2
100
AcDbLine
 10
16.868999774
 20
1.3256116181
 30
0.0
 11
17.2439997815
 21
1.7006116256
 31
0.0
  0
LINE
  5
53
330
1F
100
AcDbEntity
  8
TRMODEL1
  6
Continuous
 62
     2
100
AcDbLine
 10
16.868999774
 20
1.5023883134
 30
0.0
 11
17.2439997815
 21
1.8773883209
 31
0.0
  0
LINE
  5
54
330
1F
100
AcDbEntity
  8
TRMODEL1
  6
Continuous
 62
     2
100
AcDbLine
 10
16.868999774
 20
1.6791650087
 30
0.0
 11
17.2439997815
 21
2.0541650162
 31
0.0
  0
LINE
  5
55
330
1F
100
AcDbEntity
  8
TRMODEL1
  6
Continuous
 62
     2
100
AcDbLine
 10
16.868999774
 20
1.855941704
 30
0.0
 11
17.2439997815
 21
2.2309417115
 31
0.0
  0
LINE
  5
56
330
1F
100
AcDbEntity
  8
TRMODEL1
  6
Continuous
 62
     2
100
AcDbLine
 10
16.868999774
 20
2.0327183993
 30
0.0
 11
17.2439997815
 21
2.4077184068
 31
0.0
  0
LINE
  5
57
330
1F
100
AcDbEntity
  8
TRMODEL1
  6
Continuous
 62
     2
100
AcDbLine
 10
16.868999774
 20
2.2094950946
 30
0.0
 11
17.2439997815
 21
2.5844951021
 31
0.0
  0
LINE
  5
58
330
1F
100
AcDbEntity
  8
TRMODEL1
  6
Continuous
 62
     2
100
AcDbLine
 10
16.868999774
 20
2.3862717899
 30
0.0
 11
17.2439997815
 21
2.7612717974
 31
0.0
  0
LINE
  5
59
330
1F
100
AcDbEntity
  8
TRMODEL1
  6
Continuous
 62
     2
100
AcDbLine
 10
16.868999774
 20
2.5630484852
 30
0.0
 11
17.2439997815
 21
2.9380484927
 31
0.0
  0
LINE
  5
5A
330
1F
100
AcDbEntity
  8
TRMODEL1
  6
Continuous
 62
     2
100
AcDbLine
 10
16.868999774
 20
2.7398251805
 30
0.0
 11
17.2439997815
 21
3.114825188
 31
0.0
  0
LINE
  5
5B
330
1F
100
AcDbEntity
  8
TRMODEL1
  6
Continuous
 62
     2
100
AcDbLine
 10
16.868999774
 20
2.9166018758
 30
0.0
 11
17.2439997815
 21
3.2916018833
 31
0.0
  0
LINE
  5
5C
330
1F
100
AcDbEntity
  8
TRMODEL1
  6
Continuous
 62
     2
100
AcDbLine
 10
16.868999774
 20
3.0933785711
 30
0.0
 11
17.2439997815
 21
3.4683785786
 31
0.0
  0
LINE
  5
5D
330
1F
100
AcDbEntity
  8
TRMODEL1
  6
Continuous
 62
     2
100
AcDbLine
 10
16.868999774
 20
3.2701552664
 30
0.0
 11
17.2439997815
 21
3.6451552739
 31
0.0
  0
LINE
  5
5E
330
1F
100
AcDbEntity
  8
TRMODEL1
  6
Continuous
 62
     2
100
AcDbLine
 10
16.868999774
 20
3.4469319617
 30
0.0
 11
17.2439997815
 21
3.8219319692
 31
0.0
  0
LINE
  5
5F
330
1F
100
AcDbEntity
  8
TRMODEL1
  6
Continuous
 62
     2
100
AcDbLine
 10
16.868999774
 20
3.623708657
 30
0.0
 11
17.2439997815
 21
3.9987086645
 31
0.0
  0
LINE
  5
60
330
1F
100
AcDbEntity
  8
TRMODEL1
  6
Continuous
 62
     2
100
AcDbLine
 10
16.868999774
 20
3.8004853522
 30
0.0
 11
17.2439997815
 21
4.1754853597
 31
0.0
  0
LINE
  5
61
330
1F
100
AcDbEntity
  8
TRMODEL1
  6
Continuous
 62
     2
100
AcDbLine
 10
16.868999774
 20
3.9772620475
 30
0.0
 11
17.2439997815
 21
4.352262055
 31
0.0
  0
LINE
  5
62
330
1F
100
AcDbEntity
  8
TRMODEL1
  6
Continuous
 62
     2
100
AcDbLine
 10
16.868999774
 20
4.1540387428
 30
0.0
 11
17.2439997815
 21
4.5290387503
 31
0.0
  0
LINE
  5
63
330
1F
100
AcDbEntity
  8
TRMODEL1
  6
Continuous
 62
     2
100
AcDbLine
 10
16.868999774
 20
4.3308154381
 30
0.0
 11
17.2439997815
 21
4.7058154456
 31
0.0
  0
LINE
  5
64
330
1F
100
AcDbEntity
  8
TRMODEL1
  6
Continuous
 62
     2
100
AcDbLine
 10
16.868999774
 20
4.5075921334
 30
0.0
 11
17.2439997815
 21
4.8825921409
 31
0.0
  0
LINE
  5
65
330
1F
100
AcDbEntity
  8
TRMODEL1
  6
Continuous
 62
     2
100
AcDbLine
 10
16.868999774
 20
4.6843688287
 30
0.0
 11
17.2439997815
 21
5.0593688362
 31
0.0
  0
LINE
  5
66
330
1F
100
AcDbEntity
  8
TRMODEL1
  6
Continuous
 62
     2
100
AcDbLine
 10
16.868999774
 20
4.861145524
 30
0.0
 11
17.2439997815
 21
5.2361455315
 31
0.0
  0
LINE
  5
67
330
1F
100
AcDbEntity
  8
TRMODEL1
  6
Continuous
 62
     2
100
AcDbLine
 10
16.868999774
 20
5.0379222193
 30
0.0
 11
17.2439997815
 21
5.4129222268
 31
0.0
  0
LINE
  5
68
330
1F
100
AcDbEntity
  8
TRMODEL1
  6
Continuous
 62
     2
100
AcDbLine
 10
16.868999774
 20
5.2146989146
 30
0.0
 11
17.2439997815
 21
5.5896989221
 31
0.0
  0
LINE
  5
69
330
1F
100
AcDbEntity
  8
TRMODEL1
  6
Continuous
 62
     2
100
AcDbLine
 10
16.868999774
 20
5.3914756099
 30
0.0
 11
17.2439997815
 21
5.7664756174
 31
0.0
  0
LINE
  5
6A
330
1F
100
AcDbEntity
  8
TRMODEL1
  6
Continuous
 62
     2
100
AcDbLine
 10
16.868999774
 20
5.5682523052
 30
0.0
 11
17.2439997815
 21
5.9432523127
 31
0.0
  0
LINE
  5
6B
330
1F
100
AcDbEntity
  8
TRMODEL1
  6
Continuous
 62
     2
100
AcDbLine
 10
16.868999774
 20
5.7450290005
 30
0.0
 11
17.2439997815
 21
6.120029008
 31
0.0
  0
LINE
  5
6C
330
1F
100
AcDbEntity
  8
TRMODEL1
  6
Continuous
 62
     2
100
AcDbLine
 10
16.868999774
 20
5.9218056958
 30
0.0
 11
17.2439997815
 21
6.2968057033
 31
0.0
  0
LINE
  5
6D
330
1F
100
AcDbEntity
  8
TRMODEL1
  6
Continuous
 62
     2
100
AcDbLine
 10
16.868999774
 20
6.0985823911
 30
0.0
 11
17.2439997815
 21
6.4735823986
 31
0.0
  0
LINE
  5
6E
330
1F
100
AcDbEntity
  8
TRMODEL1
  6
Continuous
 62
     2
100
AcDbLine
 10
16.868999774
 20
6.2753590864
 30
0.0
 11
17.2439997815
 21
6.6503590939
 31
0.0
  0
LINE
  5
6F
330
1F
100
AcDbEntity
  8
TRMODEL1
  6
Continuous
 62
     2
100
AcDbLine
 10
16.868999774
 20
6.4521357817
 30
0.0
 11
17.2439997815
 21
6.8271357892
 31
0.0
  0
LINE
  5
70
330
1F
100
AcDbEntity
  8
TRMODEL1
  6
Continuous
 62
     2
100
AcDbLine
 10
16.868999774
 20
6.628912477
 30
0.0
 11
17.2439997815
 21
7.0039124845
 31
0.0
  0
LINE
  5
71
330
1F
100
AcDbEntity
  8
TRMODEL1
  6
Continuous
 62
     2
100
AcDbLine
 10
16.868999774
 20
6.8056891723
 30
0.0
 11
17.2439997815
 21
7.1806891798
 31
0.0
  0
LINE
  5
72
330
1F
100
AcDbEntity
  8
TRMODEL1
  6
Continuous
 62
     2
100
AcDbLine
 10
16.868999774
 20
6.9824658676
 30
0.0
 11
17.2439997815
 21
7.3574658751
 31
0.0
  0
LINE
  5
73
330
1F
100
AcDbEntity
  8
TRMODEL1
  6
Continuous
 62
     2
100
AcDbLine
 10
16.868999774
 20
7.1592425629
 30
0.0
 11
17.2439997815
 21
7.5342425704
 31
0.0
  0
LINE
  5
74
330
1F
100
AcDbEntity
  8
TRMODEL1
  6
Continuous
 62
     2
100
AcDbLine
 10
16.868999774
 20
7.3360192582
 30
0.0
 11
17.2439997815
 21
7.7110192657
 31
0.0
  0
LINE
  5
75
330
1F
100
AcDbEntity
  8
TRMODEL1
  6
Continuous
 62
     2
100
AcDbLine
 10
16.868999774
 20
7.5127959535
 30
0.0
 11
17.2326030197
 21
7.8763991992
 31
0.0
  0
LINE
  5
76
330
1F
100
AcDbEntity
  8
TRMODEL1
  6
Continuous
 62
     2
100
AcDbLine
 10
16.8257583641
 20
7.6463312389
 30
0.0
 11
17.164262761
 21
7.9848356358
 31
0.0
  0
LINE
  5
77
330
1F
100
AcDbEntity
  8
TRMODEL1
  6
Continuous
 62
     2
100
AcDbLine
 10
16.6794272787
 20
7.6767768488
 30
0.0
 11
17.0484300444
 21
8.0457796145
 31
0.0
  0
LINE
  5
78
330
1F
100
AcDbEntity
  8
TRMODEL1
  6
Continuous
 62
     4
100
AcDbLine
 10
16.0375076157
 20
9.5517768563
 30
0.0
 11
18.7902292479
 21
9.5517768563
 31
0.0
  0
LINE
  5
79
330
1F
100
AcDbEntity
  8
TRMODEL1
  6
Continuous
 62
     4
100
AcDbLine
 10
15.6644462591
 20
8.0517768563
 30
0.0
 11
15.1067402123
 21
8.0517768563
 31
0.0
  0
LINE
  5
7A
330
1F
100
AcDbEntity
  8
TRMODEL1
  6
Continuous
 62
     4
100
AcDbLine
 10
15.1067402123
 20
7.6767768488
 30
0.0
 11
16.7439997715
 21
7.6767768488
 31
0.0
  0
LINE
  5
7B
330
1F
100
AcDbEntity
  8
TRMODEL1
  6
Continuous
 62
     4
100
AcDbLine
 10
16.868999774
 20
7.5517768463
 30
0.0
 11
16.868999774
 21
0.5517767063
 31
0.0
  0
LINE
  5
7C
330
1F
100
AcDbEntity
  8
TRMODEL1
  6
Continuous
 62
     4
100
AcDbLine
 10
16.7439997715
 20
0.4267767038
 30
0.0
 11
15.1067402123
 21
0.4267767038
 31
0.0
  0
LINE
  5
7D
330
1F
100
AcDbEntity
  8
TRMODEL1
  6
Continuous
 62
     4
100
AcDbLine
 10
15.1067402123
 20
0.0517766963
 30
0.0
 11
16.9939997765
 21
0.0517766963
 31
0.0
  0
LINE
  5
7E
330
1F
100
AcDbEntity
  8
TRMODEL1
  6
Continuous
 62
     4
100
AcDbLine
 10
17.2439997815
 20
0.3017767013
 30
0.0
 11
17.2439997815
 21
7.8017768513
 31
0.0
  0
LINE
  5
7F
330
1F
100
AcDbEntity
  8
TRMODEL1
  6
Continuous
 62
     4
100
AcDbLine
 10
16.9939997765
 20
8.0517768563
 30
0.0
 11
15.9125076157
 21
8.0517768563
 31
0.0
  0
LINE
  5
80
330
1F
100
AcDbEntity
  8
TRMODEL1
  6
Continuous
 62
     4
100
AcDbLine
 10
15.9105924476
 20
8.0517768263
 30
0.0
 11
21.0346313742
 21
8.0517768263
 31
0.0
  0
LINE
  5
81
330
1F
100
AcDbEntity
  8
TRMODEL1
  6
Continuous
 62
     2
100
AcDbLine
 10
15.0923426581
 20
0.0792845881
 30
0.0
 11
15.4398347738
 21
0.4267767038
 31
0.0
  0
LINE
  5
82
330
1F
100
AcDbEntity
  8
TRMODEL1
  6
Continuous
 62
     2
100
AcDbLine
 10
15.0569611491
 20
0.2206797744
 30
0.0
 11
15.2630580785
 21
0.4267767038
 31
0.0
  0
LINE
  5
83
330
1F
100
AcDbEntity
  8
TRMODEL1
  6
Continuous
 62
     2
100
AcDbLine
 10
16.3022716334
 20
0.0517766963
 30
0.0
 11
16.6772716409
 21
0.4267767038
 31
0.0
  0
LINE
  5
84
330
1F
100
AcDbEntity
  8
TRMODEL1
  6
Continuous
 62
     2
100
AcDbLine
 10
16.1254949381
 20
0.0517766963
 30
0.0
 11
16.5004949456
 21
0.4267767038
 31
0.0
  0
LINE
  5
85
330
1F
100
AcDbEntity
  8
TRMODEL1
  6
Continuous
 62
     2
100
AcDbLine
 10
15.9487182428
 20
0.0517766963
 30
0.0
 11
16.3237182503
 21
0.4267767038
 31
0.0
  0
LINE
  5
86
330
1F
100
AcDbEntity
  8
TRMODEL1
  6
Continuous
 62
     2
100
AcDbLine
 10
15.7719415475
 20
0.0517766963
 30
0.0
 11
16.146941555
 21
0.4267767038
 31
0.0
  0
LINE
  5
87
330
1F
100
AcDbEntity
  8
TRMODEL1
  6
Continuous
 62
     2
100
AcDbLine
 10
15.5951648522
 20
0.0517766963
 30
0.0
 11
15.9701648597
 21
0.4267767038
 31
0.0
  0
LINE
  5
88
330
1F
100
AcDbEntity
  8
TRMODEL1
  6
Continuous
 62
     2
100
AcDbLine
 10
15.4183881569
 20
0.0517766963
 30
0.0
 11
15.7933881644
 21
0.4267767038
 31
0.0
  0
LINE
  5
89
330
1F
100
AcDbEntity
  8
TRMODEL1
  6
Continuous
 62
     2
100
AcDbLine
 10
15.2416114616
 20
0.0517766963
 30
0.0
 11
15.6166114691
 21
0.4267767038
 31
0.0
  0
LINE
  5
8A
330
1F
100
AcDbEntity
  8
TRMODEL1
  6
Continuous
 62
     2
100
AcDbLine
 10
15.0732465632
 20
9.3297957769
 30
0.0
 11
15.1982465657
 21
9.4547957794
 31
0.0
  0
LINE
  5
8B
330
1F
100
AcDbEntity
  8
TRMODEL1
  6
Continuous
 62
     4
100
AcDbLine
 10
15.5375076157
 20
9.1767768263
 30
0.0
 11
15.5375076157
 21
9.4917768263
 31
0.0
  0
LINE
  5
8C
330
1F
100
AcDbEntity
  8
TRMODEL1
  6
Continuous
 62
     4
100
AcDbLine
 10
16.0375076157
 20
9.1767768263
 30
0.0
 11
16.0375076157
 21
9.4917768263
 31
0.0
  0
LINE
  5
8D
330
1F
100
AcDbEntity
  8
TRMODEL1
  6
Continuous
 62
     4
100
AcDbLine
 10
15.1982465657
 20
9.5517768563
 30
0.0
 11
15.1982465657
 21
8.0517768263
 31
0.0
  0
LINE
  5
8E
330
1F
100
AcDbEntity
  8
TRMODEL1
  6
Continuous
 62
     4
100
AcDbLine
 10
15.0732465632
 20
9.5517768563
 30
0.0
 11
15.0732465632
 21
8.0517768263
 31
0.0
  0
LINE
  5
8F
330
1F
100
AcDbEntity
  8
TRMODEL1
  6
Continuous
 62
     2
100
AcDbLine
 10
15.0732465632
 20
8.0923589099
 30
0.0
 11
15.1982465657
 21
8.2173589124
 31
0.0
  0
LINE
  5
90
330
1F
100
AcDbEntity
  8
TRMODEL1
  6
Continuous
 62
     2
100
AcDbLine
 10
15.0732465632
 20
8.2691356052
 30
0.0
 11
15.1982465657
 21
8.3941356077
 31
0.0
  0
LINE
  5
91
330
1F
100
AcDbEntity
  8
TRMODEL1
  6
Continuous
 62
     2
100
AcDbLine
 10
15.0732465632
 20
8.4459123004
 30
0.0
 11
15.1982465657
 21
8.5709123029
 31
0.0
  0
LINE
  5
92
330
1F
100
AcDbEntity
  8
TRMODEL1
  6
Continuous
 62
     2
100
AcDbLine
 10
15.0732465632
 20
8.6226889957
 30
0.0
 11
15.1982465657
 21
8.7476889982
 31
0.0
  0
LINE
  5
93
330
1F
100
AcDbEntity
  8
TRMODEL1
  6
Continuous
 62
     2
100
AcDbLine
 10
15.0732465632
 20
8.799465691
 30
0.0
 11
15.1982465657
 21
8.9244656935
 31
0.0
  0
LINE
  5
94
330
1F
100
AcDbEntity
  8
TRMODEL1
  6
Continuous
 62
     2
100
AcDbLine
 10
15.0732465632
 20
8.9762423863
 30
0.0
 11
15.1982465657
 21
9.1012423888
 31
0.0
  0
LINE
  5
95
330
1F
100
AcDbEntity
  8
TRMODEL1
  6
Continuous
 62
     2
100
AcDbLine
 10
15.0732465632
 20
9.1530190816
 30
0.0
 11
15.1982465657
 21
9.2780190841
 31
0.0
  0
LINE
  5
96
330
1F
100
AcDbEntity
  8
TRMODEL1
  6
Continuous
 62
     2
100
AcDbLine
 10
15.100217768
 20
7.6885575958
 30
0.0
 11
15.4634370285
 21
8.0517768563
 31
0.0
  0
LINE
  5
97
330
1F
100
AcDbEntity
  8
TRMODEL1
  6
Continuous
 62
     2
100
AcDbLine
 10
15.0586899372
 20
7.8238064602
 30
0.0
 11
15.2866603332
 21
8.0517768563
 31
0.0
  0
LINE
  5
98
330
1F
100
AcDbEntity
  8
TRMODEL1
  6
Continuous
 62
     4
100
AcDbLine
 10
15.0732465632
 20
8.0517768263
 30
0.0
 11
15.6987583417
 21
8.0517768263
 31
0.0
  0
LINE
  5
99
330
1F
100
AcDbEntity
  8
TRMODEL1
  6
Continuous
 62
     2
100
AcDbLine
 10
15.1026941363
 20
8.0445873546
 30
0.0
 11
15.109883638
 21
8.0517768563
 31
0.0
  0
LINE
  5
9A
330
1F
100
AcDbEntity
  8
TRMODEL1
  6
Continuous
 62
     2
100
AcDbLine
 10
15.7114040228
 20
6.9527143788
 30
0.0
 11
15.7699977728
 21
7.3042768788
 31
0.0
  0
LINE
  5
9B
330
1F
100
AcDbEntity
  8
TRMODEL1
  6
Continuous
 62
     2
100
AcDbLine
 10
15.7699977728
 20
7.3042768788
 30
0.0
 11
15.8285915228
 21
6.9527143788
 31
0.0
  0
LINE
  5
9C
330
1F
100
AcDbEntity
  8
TRMODEL1
  6
Continuous
 62
     2
100
AcDbLine
 10
15.8285915228
 20
6.9527143788
 30
0.0
 11
15.7114040228
 21
6.9527143788
 31
0.0
  0
LINE
  5
9D
330
1F
100
AcDbEntity
  8
TRMODEL1
  6
Continuous
 62
     2
100
AcDbLine
 10
16.5026505834
 20
7.6767768488
 30
0.0
 11
16.8776505909
 21
8.0517768563
 31
0.0
  0
LINE
  5
9E
330
1F
100
AcDbEntity
  8
TRMODEL1
  6
Continuous
 62
     2
100
AcDbLine
 10
16.3258738881
 20
7.6767768488
 30
0.0
 11
16.7008738956
 21
8.0517768563
 31
0.0
  0
LINE
  5
9F
330
1F
100
AcDbEntity
  8
TRMODEL1
  6
Continuous
 62
     2
100
AcDbLine
 10
16.1490971928
 20
7.6767768488
 30
0.0
 11
16.5240972003
 21
8.0517768563
 31
0.0
  0
LINE
  5
A0
330
1F
100
AcDbEntity
  8
TRMODEL1
  6
Continuous
 62
     2
100
AcDbLine
 10
15.9723204975
 20
7.6767768488
 30
0.0
 11
16.347320505
 21
8.0517768563
 31
0.0
  0
LINE
  5
A1
330
1F
100
AcDbEntity
  8
TRMODEL1
  6
Continuous
 62
     2
100
AcDbLine
 10
15.9042388369
 20
7.7854718835
 30
0.0
 11
16.1705438097
 21
8.0517768563
 31
0.0
  0
LINE
  5
A2
330
1F
100
AcDbEntity
  8
TRMODEL1
  6
Continuous
 62
     2
100
AcDbLine
 10
15.8726491759
 20
7.7538822225
 30
0.0
 11
15.874551865
 21
7.7557849116
 31
0.0
  0
LINE
  5
A3
330
1F
100
AcDbEntity
  8
TRMODEL1
  6
Continuous
 62
     2
100
AcDbLine
 10
15.8873143621
 20
7.945324104
 30
0.0
 11
15.9937671144
 21
8.0517768563
 31
0.0
  0
LINE
  5
A4
330
1F
100
AcDbEntity
  8
TRMODEL1
  6
Continuous
 62
     2
100
AcDbLine
 10
15.6187671069
 20
7.6767768488
 30
0.0
 11
15.6625076157
 21
7.7205173576
 31
0.0
  0
LINE
  5
A5
330
1F
100
AcDbEntity
  8
TRMODEL1
  6
Continuous
 62
     2
100
AcDbLine
 10
15.4419904116
 20
7.6767768488
 30
0.0
 11
15.6625076157
 21
7.8972940529
 31
0.0
  0
LINE
  5
A6
330
1F
100
AcDbEntity
  8
TRMODEL1
  6
Continuous
 62
     2
100
AcDbLine
 10
15.2652137163
 20
7.6767768488
 30
0.0
 11
15.6402137238
 21
8.0517768563
 31
0.0
  0
LINE
  5
A7
330
1F
100
AcDbEntity
  8
TRMODEL1
  6
Continuous
 62
     4
100
AcDbLine
 10
15.5621330025
 20
7.4046224485
 30
0.0
 11
15.5621330025
 21
7.5957768488
 31
0.0
  0
LINE
  5
A8
330
1F
100
AcDbEntity
  8
TRMODEL1
  6
Continuous
 62
     4
100
AcDbLine
 10
15.9989687816
 20
7.4046224485
 30
0.0
 11
15.9989687816
 21
7.5957768488
 31
0.0
  0
LINE
  5
A9
330
1F
100
AcDbEntity
  8
TRMODEL1
  6
Continuous
 62
     4
100
AcDbLine
 10
16.012882229
 20
7.4046224485
 30
0.0
 11
16.012882229
 21
7.5957768488
 31
0.0
  0
LINE
  5
AA
330
1F
100
AcDbEntity
  8
TRMODEL1
  6
Continuous
 62
     4
100
AcDbLine
 10
15.7735941684
 20
7.4046224485
 30
0.0
 11
15.7735941684
 21
7.5957768488
 31
0.0
  0
LINE
  5
AB
330
1F
100
AcDbEntity
  8
TRMODEL1
  6
Continuous
 62
     4
100
AcDbLine
 10
15.5684117214
 20
7.3890035441
 30
0.0
 11
15.5753313918
 21
7.3857768488
 31
0.0
  0
LINE
  5
AC
330
1F
100
AcDbEntity
  8
TRMODEL1
  6
Continuous
 62
     4
100
AcDbLine
 10
15.5684250758
 20
7.3890321827
 30
0.0
 11
15.5658530478
 21
7.3924582527
 31
0.0
  0
LINE
  5
AD
330
1F
100
AcDbEntity
  8
TRMODEL1
  6
Continuous
 62
     4
100
AcDbLine
 10
15.5658530478
 20
7.3924582527
 30
0.0
 11
15.5621330025
 21
7.4046224485
 31
0.0
  0
LINE
  5
AE
330
1F
100
AcDbEntity
  8
TRMODEL1
  6
Continuous
 62
     4
100
AcDbLine
 10
15.9996838397
 20
7.3857768488
 30
0.0
 11
16.0066035101
 21
7.3890035441
 31
0.0
  0
LINE
  5
AF
330
1F
100
AcDbEntity
  8
TRMODEL1
  6
Continuous
 62
     4
100
AcDbLine
 10
15.9118281072
 20
7.3810713405
 30
0.0
 11
15.903731467
 21
7.3857768488
 31
0.0
  0
LINE
  5
B0
330
1F
100
AcDbEntity
  8
TRMODEL1
  6
Continuous
 62
     4
100
AcDbLine
 10
15.6919078115
 20
7.3857768488
 30
0.0
 11
15.703046068
 21
7.3792767235
 31
0.0
  0
LINE
  5
B1
330
1F
100
AcDbEntity
  8
TRMODEL1
  6
Continuous
 62
     4
100
AcDbLine
 10
15.8988878943
 20
7.3204071274
 30
0.0
 11
15.9099021774
 21
7.3314214105
 31
0.0
  0
LINE
  5
B2
330
1F
100
AcDbEntity
  8
TRMODEL1
  6
Continuous
 62
     4
100
AcDbLine
 10
15.9101750678
 20
7.3319150303
 30
0.0
 11
15.9094914449
 21
7.3321980512
 31
0.0
  0
LINE
  5
B3
330
1F
100
AcDbEntity
  8
TRMODEL1
  6
Continuous
 62
     4
100
AcDbLine
 10
15.8493960098
 20
7.3042768488
 30
0.0
 11
15.8715265079
 21
7.3042768488
 31
0.0
  0
LINE
  5
B4
330
1F
100
AcDbEntity
  8
TRMODEL1
  6
Continuous
 62
     4
100
AcDbLine
 10
15.681115552
 20
7.3154189126
 30
0.0
 11
15.6922576157
 21
7.3042768488
 31
0.0
  0
LINE
  5
B5
330
1F
100
AcDbEntity
  8
TRMODEL1
  6
Continuous
 62
     4
100
AcDbLine
 10
15.6628268875
 20
7.3552323659
 30
0.0
 11
15.6626026778
 21
7.3555434279
 31
0.0
  0
LINE
  5
B6
330
1F
100
AcDbEntity
  8
TRMODEL1
  6
Continuous
 62
     4
100
AcDbLine
 10
15.8493960098
 20
7.3042768488
 30
0.0
 11
15.6922576157
 21
7.3042768488
 31
0.0
  0
LINE
  5
B7
330
1F
100
AcDbEntity
  8
TRMODEL1
  6
Continuous
 62
     4
100
AcDbLine
 10
15.9989687816
 20
7.4046224485
 30
0.0
 11
16.0014413024
 21
7.3956769456
 31
0.0
  0
LINE
  5
B8
330
1F
100
AcDbEntity
  8
TRMODEL1
  6
Continuous
 62
     4
100
AcDbLine
 10
16.0014413024
 20
7.3956769456
 30
0.0
 11
16.0039582764
 21
7.3901927806
 31
0.0
  0
LINE
  5
B9
330
1F
100
AcDbEntity
  8
TRMODEL1
  6
Continuous
 62
     4
100
AcDbLine
 10
16.0039582764
 20
7.3901927806
 30
0.0
 11
16.00655052
 21
7.388979386
 31
0.0
  0
LINE
  5
BA
330
1F
100
AcDbEntity
  8
TRMODEL1
  6
Continuous
 62
     4
100
AcDbLine
 10
16.00655052
 20
7.388979386
 30
0.0
 11
16.0091621837
 21
7.3924582527
 31
0.0
  0
LINE
  5
BB
330
1F
100
AcDbEntity
  8
TRMODEL1
  6
Continuous
 62
     4
100
AcDbLine
 10
16.0091621837
 20
7.3924582527
 30
0.0
 11
16.012882229
 21
7.4046224485
 31
0.0
  0
LINE
  5
BC
330
1F
100
AcDbEntity
  8
TRMODEL1
  6
Continuous
 62
     4
100
AcDbLine
 10
15.7052395149
 20
7.3804901241
 30
0.0
 11
15.7107817759
 21
7.3824708655
 31
0.0
  0
LINE
  5
BD
330
1F
100
AcDbEntity
  8
TRMODEL1
  6
Continuous
 62
     4
100
AcDbLine
 10
15.7107817759
 20
7.3824708655
 30
0.0
 11
15.721733144
 21
7.3845395027
 31
0.0
  0
LINE
  5
BE
330
1F
100
AcDbEntity
  8
TRMODEL1
  6
Continuous
 62
     4
100
AcDbLine
 10
15.721733144
 20
7.3845395027
 30
0.0
 11
15.7309229086
 21
7.3857768488
 31
0.0
  0
LINE
  5
BF
330
1F
100
AcDbEntity
  8
TRMODEL1
  6
Continuous
 62
     4
100
AcDbLine
 10
15.7735941684
 20
7.4046224485
 30
0.0
 11
15.8136448758
 21
7.3956769456
 31
0.0
  0
LINE
  5
C0
330
1F
100
AcDbEntity
  8
TRMODEL1
  6
Continuous
 62
     4
100
AcDbLine
 10
15.8136448758
 20
7.3956769456
 30
0.0
 11
15.8544156522
 21
7.3901927806
 31
0.0
  0
LINE
  5
C1
330
1F
100
AcDbEntity
  8
TRMODEL1
  6
Continuous
 62
     4
100
AcDbLine
 10
15.8544156522
 20
7.3901927806
 30
0.0
 11
15.8964056699
 21
7.388979386
 31
0.0
  0
LINE
  5
C2
330
1F
100
AcDbEntity
  8
TRMODEL1
  6
Continuous
 62
     4
100
AcDbLine
 10
15.8964056699
 20
7.388979386
 30
0.0
 11
15.9387102592
 21
7.3924582527
 31
0.0
  0
LINE
  5
C3
330
1F
100
AcDbEntity
  8
TRMODEL1
  6
Continuous
 62
     4
100
AcDbLine
 10
15.9387102592
 20
7.3924582527
 30
0.0
 11
15.9989687816
 21
7.4046224485
 31
0.0
  0
LINE
  5
C4
330
1F
100
AcDbEntity
  8
TRMODEL1
  6
Continuous
 62
     4
100
AcDbLine
 10
15.9095892267
 20
7.3323661956
 30
0.0
 11
15.8907545116
 21
7.3433168413
 31
0.0
  0
LINE
  5
C5
330
1F
100
AcDbEntity
  8
TRMODEL1
  6
Continuous
 62
     4
100
AcDbLine
 10
15.8907545116
 20
7.3433168413
 30
0.0
 11
15.8719696323
 21
7.3542772841
 31
0.0
  0
LINE
  5
C6
330
1F
100
AcDbEntity
  8
TRMODEL1
  6
Continuous
 62
     4
100
AcDbLine
 10
15.8714663341
 20
7.3039848718
 30
0.0
 11
15.8905889293
 21
7.3151523473
 31
0.0
  0
LINE
  5
C7
330
1F
100
AcDbEntity
  8
TRMODEL1
  6
Continuous
 62
     4
100
AcDbLine
 10
15.8905889293
 20
7.3151523473
 30
0.0
 11
15.895255495
 21
7.3178655346
 31
0.0
  0
LINE
  5
C8
330
1F
100
AcDbEntity
  8
TRMODEL1
  6
Continuous
 62
     4
100
AcDbLine
 10
15.8987714882
 20
7.3205235335
 30
0.0
 11
15.8951211671
 21
7.3178028292
 31
0.0
  0
LINE
  5
C9
330
1F
100
AcDbEntity
  8
TRMODEL1
  6
Continuous
 62
     4
100
AcDbLine
 10
15.8951211671
 20
7.3178028292
 30
0.0
 11
15.8874261789
 21
7.3144440696
 31
0.0
  0
LINE
  5
CA
330
1F
100
AcDbEntity
  8
TRMODEL1
  6
Continuous
 62
     4
100
AcDbLine
 10
15.8874261789
 20
7.3144440696
 30
0.0
 11
15.8771771139
 21
7.311155361
 31
0.0
  0
LINE
  5
CB
330
1F
100
AcDbEntity
  8
TRMODEL1
  6
Continuous
 62
     4
100
AcDbLine
 10
15.8771771139
 20
7.311155361
 30
0.0
 11
15.8643562955
 21
7.3077596754
 31
0.0
  0
LINE
  5
CC
330
1F
100
AcDbEntity
  8
TRMODEL1
  6
Continuous
 62
     4
100
AcDbLine
 10
15.8643562955
 20
7.3077596754
 30
0.0
 11
15.8493960098
 21
7.3042768488
 31
0.0
  0
LINE
  5
CD
330
1F
100
AcDbEntity
  8
TRMODEL1
  6
Continuous
 62
     4
100
AcDbLine
 10
15.7054188689
 20
7.3306600711
 30
0.0
 11
15.684406659
 21
7.3183945493
 31
0.0
  0
LINE
  5
CE
330
1F
100
AcDbEntity
  8
TRMODEL1
  6
Continuous
 62
     4
100
AcDbLine
 10
15.684406659
 20
7.3183945493
 30
0.0
 11
15.6820402785
 21
7.317018887
 31
0.0
  0
LINE
  5
CF
330
1F
100
AcDbEntity
  8
TRMODEL1
  6
Continuous
 62
     4
100
AcDbLine
 10
15.6631624384
 20
7.3525085488
 30
0.0
 11
15.684281306
 21
7.3402286926
 31
0.0
  0
LINE
  5
D0
330
1F
100
AcDbEntity
  8
TRMODEL1
  6
Continuous
 62
     4
100
AcDbLine
 10
15.684281306
 20
7.3402286926
 30
0.0
 11
15.7030463343
 21
7.3292751442
 31
0.0
  0
LINE
  5
D1
330
1F
100
AcDbEntity
  8
TRMODEL1
  6
Continuous
 62
     4
100
AcDbLine
 10
15.7055678111
 20
7.3306550581
 30
0.0
 11
15.705644793
 21
7.3307796958
 31
0.0
  0
LINE
  5
D2
330
1F
100
AcDbEntity
  8
TRMODEL1
  6
Continuous
 62
     4
100
AcDbLine
 10
15.705644793
 20
7.3307796958
 30
0.0
 11
15.7124046004
 21
7.332846496
 31
0.0
  0
LINE
  5
D3
330
1F
100
AcDbEntity
  8
TRMODEL1
  6
Continuous
 62
     4
100
AcDbLine
 10
15.7124046004
 20
7.332846496
 30
0.0
 11
15.7242278431
 21
7.3349162335
 31
0.0
  0
LINE
  5
D4
330
1F
100
AcDbEntity
  8
TRMODEL1
  6
Continuous
 62
     4
100
AcDbLine
 10
15.7242278431
 20
7.3349162335
 30
0.0
 11
15.740277788
 21
7.3369825478
 31
0.0
  0
LINE
  5
D5
330
1F
100
AcDbEntity
  8
TRMODEL1
  6
Continuous
 62
     4
100
AcDbLine
 10
15.740277788
 20
7.3369825478
 30
0.0
 11
15.7594969741
 21
7.3390494945
 31
0.0
  0
LINE
  5
D6
330
1F
100
AcDbEntity
  8
TRMODEL1
  6
Continuous
 62
     4
100
AcDbLine
 10
15.7594969741
 20
7.3390494945
 30
0.0
 11
15.7806277575
 21
7.3411191729
 31
0.0
  0
LINE
  5
D7
330
1F
100
AcDbEntity
  8
TRMODEL1
  6
Continuous
 62
     4
100
AcDbLine
 10
15.7806277575
 20
7.3411191729
 30
0.0
 11
15.8021828333
 21
7.3431854006
 31
0.0
  0
LINE
  5
D8
330
1F
100
AcDbEntity
  8
TRMODEL1
  6
Continuous
 62
     4
100
AcDbLine
 10
15.8021828333
 20
7.3431854006
 30
0.0
 11
15.8227647543
 21
7.3452525054
 31
0.0
  0
LINE
  5
D9
330
1F
100
AcDbEntity
  8
TRMODEL1
  6
Continuous
 62
     4
100
AcDbLine
 10
15.8227647543
 20
7.3452525054
 30
0.0
 11
15.8409999862
 21
7.3473221024
 31
0.0
  0
LINE
  5
DA
330
1F
100
AcDbEntity
  8
TRMODEL1
  6
Continuous
 62
     4
100
AcDbLine
 10
15.8409999862
 20
7.3473221024
 30
0.0
 11
15.8556140616
 21
7.3493882545
 31
0.0
  0
LINE
  5
DB
330
1F
100
AcDbEntity
  8
TRMODEL1
  6
Continuous
 62
     4
100
AcDbLine
 10
15.8556140616
 20
7.3493882545
 30
0.0
 11
15.865673196
 21
7.3514555293
 31
0.0
  0
LINE
  5
DC
330
1F
100
AcDbEntity
  8
TRMODEL1
  6
Continuous
 62
     4
100
AcDbLine
 10
15.865673196
 20
7.3514555293
 30
0.0
 11
15.8694025039
 21
7.3530601335
 31
0.0
  0
LINE
  5
DD
330
1F
100
AcDbEntity
  8
TRMODEL1
  6
Continuous
 62
     4
100
AcDbLine
 10
15.6823495869
 20
7.3164876611
 30
0.0
 11
15.6865055097
 21
7.3176786642
 31
0.0
  0
LINE
  5
DE
330
1F
100
AcDbEntity
  8
TRMODEL1
  6
Continuous
 62
     4
100
AcDbLine
 10
15.6865055097
 20
7.3176786642
 30
0.0
 11
15.7037933146
 21
7.3193479865
 31
0.0
  0
LINE
  5
DF
330
1F
100
AcDbEntity
  8
TRMODEL1
  6
Continuous
 62
     4
100
AcDbLine
 10
15.7037933146
 20
7.3193479865
 30
0.0
 11
15.7163171509
 21
7.3201879565
 31
0.0
  0
LINE
  5
E0
330
1F
100
AcDbEntity
  8
TRMODEL1
  6
Continuous
 62
     4
100
AcDbLine
 10
15.7163171509
 20
7.3201879565
 30
0.0
 11
15.7308888305
 21
7.321023921
 31
0.0
  0
LINE
  5
E1
330
1F
100
AcDbEntity
  8
TRMODEL1
  6
Continuous
 62
     4
100
AcDbLine
 10
15.7308888305
 20
7.321023921
 30
0.0
 11
15.7474093079
 21
7.3218657635
 31
0.0
  0
LINE
  5
E2
330
1F
100
AcDbEntity
  8
TRMODEL1
  6
Continuous
 62
     4
100
AcDbLine
 10
15.7474093079
 20
7.3218657635
 30
0.0
 11
15.7651601018
 21
7.3226979062
 31
0.0
  0
LINE
  5
E3
330
1F
100
AcDbEntity
  8
TRMODEL1
  6
Continuous
 62
     4
100
AcDbLine
 10
15.7651601018
 20
7.3226979062
 30
0.0
 11
15.7838996961
 21
7.3235348604
 31
0.0
  0
LINE
  5
E4
330
1F
100
AcDbEntity
  8
TRMODEL1
  6
Continuous
 62
     4
100
AcDbLine
 10
15.7838996961
 20
7.3235348604
 30
0.0
 11
15.8028769129
 21
7.3243703122
 31
0.0
  0
LINE
  5
E5
330
1F
100
AcDbEntity
  8
TRMODEL1
  6
Continuous
 62
     4
100
AcDbLine
 10
15.8028769129
 20
7.3243703122
 30
0.0
 11
15.8218961835
 21
7.3252162635
 31
0.0
  0
LINE
  5
E6
330
1F
100
AcDbEntity
  8
TRMODEL1
  6
Continuous
 62
     4
100
AcDbLine
 10
15.8218961835
 20
7.3252162635
 30
0.0
 11
15.8401052996
 21
7.3260517956
 31
0.0
  0
LINE
  5
E7
330
1F
100
AcDbEntity
  8
TRMODEL1
  6
Continuous
 62
     4
100
AcDbLine
 10
15.8401052996
 20
7.3260517956
 30
0.0
 11
15.8571810191
 21
7.3268867343
 31
0.0
  0
LINE
  5
E8
330
1F
100
AcDbEntity
  8
TRMODEL1
  6
Continuous
 62
     4
100
AcDbLine
 10
15.8571810191
 20
7.3268867343
 30
0.0
 11
15.8724691661
 21
7.3277187413
 31
0.0
  0
LINE
  5
E9
330
1F
100
AcDbEntity
  8
TRMODEL1
  6
Continuous
 62
     4
100
AcDbLine
 10
15.8724691661
 20
7.3277187413
 30
0.0
 11
15.8857368352
 21
7.3285638269
 31
0.0
  0
LINE
  5
EA
330
1F
100
AcDbEntity
  8
TRMODEL1
  6
Continuous
 62
     4
100
AcDbLine
 10
15.8857368352
 20
7.3285638269
 30
0.0
 11
15.8963904472
 21
7.3294030794
 31
0.0
  0
LINE
  5
EB
330
1F
100
AcDbEntity
  8
TRMODEL1
  6
Continuous
 62
     4
100
AcDbLine
 10
15.8963904472
 20
7.3294030794
 30
0.0
 11
15.9041948925
 21
7.330241669
 31
0.0
  0
LINE
  5
EC
330
1F
100
AcDbEntity
  8
TRMODEL1
  6
Continuous
 62
     4
100
AcDbLine
 10
15.9041948925
 20
7.330241669
 30
0.0
 11
15.9088387963
 21
7.3310726243
 31
0.0
  0
LINE
  5
ED
330
1F
100
AcDbEntity
  8
TRMODEL1
  6
Continuous
 62
     4
100
AcDbLine
 10
15.9088387963
 20
7.3310726243
 30
0.0
 11
15.909704936
 21
7.331618652
 31
0.0
  0
LINE
  5
EE
330
1F
100
AcDbEntity
  8
TRMODEL1
  6
Continuous
 62
     4
100
AcDbLine
 10
15.7051660539
 20
7.3805133577
 30
0.0
 11
15.6841376729
 21
7.3682470427
 31
0.0
  0
LINE
  5
EF
330
1F
100
AcDbEntity
  8
TRMODEL1
  6
Continuous
 62
     4
100
AcDbLine
 10
15.6841376729
 20
7.3682470427
 30
0.0
 11
15.6630424864
 21
7.3559798998
 31
0.0
  0
LINE
  5
F0
330
1F
100
AcDbEntity
  8
TRMODEL1
  6
Continuous
 62
     4
100
AcDbLine
 10
15.8698552169
 20
7.3530433923
 30
0.0
 11
15.8908843045
 21
7.3653151616
 31
0.0
  0
LINE
  5
F1
330
1F
100
AcDbEntity
  8
TRMODEL1
  6
Continuous
 62
     4
100
AcDbLine
 10
15.8908843045
 20
7.3653151616
 30
0.0
 11
15.9119799784
 21
7.3775864597
 31
0.0
  0
LINE
  5
F2
330
1F
100
AcDbEntity
  8
TRMODEL1
  6
Continuous
 62
     4
100
AcDbLine
 10
15.6635445341
 20
7.356030467
 30
0.0
 11
15.6652149509
 21
7.3568942488
 31
0.0
  0
LINE
  5
F3
330
1F
100
AcDbEntity
  8
TRMODEL1
  6
Continuous
 62
     4
100
AcDbLine
 10
15.6652149509
 20
7.3568942488
 30
0.0
 11
15.671288446
 21
7.3582382961
 31
0.0
  0
LINE
  5
F4
330
1F
100
AcDbEntity
  8
TRMODEL1
  6
Continuous
 62
     4
100
AcDbLine
 10
15.671288446
 20
7.3582382961
 30
0.0
 11
15.6806980901
 21
7.3595773409
 31
0.0
  0
LINE
  5
F5
330
1F
100
AcDbEntity
  8
TRMODEL1
  6
Continuous
 62
     4
100
AcDbLine
 10
15.6806980901
 20
7.3595773409
 30
0.0
 11
15.6931307545
 21
7.360920292
 31
0.0
  0
LINE
  5
F6
330
1F
100
AcDbEntity
  8
TRMODEL1
  6
Continuous
 62
     4
100
AcDbLine
 10
15.6931307545
 20
7.360920292
 30
0.0
 11
15.7082713806
 21
7.3622714924
 31
0.0
  0
LINE
  5
F7
330
1F
100
AcDbEntity
  8
TRMODEL1
  6
Continuous
 62
     4
100
AcDbLine
 10
15.7082713806
 20
7.3622714924
 30
0.0
 11
15.7256546426
 21
7.3636196222
 31
0.0
  0
LINE
  5
F8
330
1F
100
AcDbEntity
  8
TRMODEL1
  6
Continuous
 62
     4
100
AcDbLine
 10
15.7256546426
 20
7.3636196222
 30
0.0
 11
15.7448144502
 21
7.3649590831
 31
0.0
  0
LINE
  5
F9
330
1F
100
AcDbEntity
  8
TRMODEL1
  6
Continuous
 62
     4
100
AcDbLine
 10
15.7448144502
 20
7.3649590831
 30
0.0
 11
15.7651825968
 21
7.3662998
 31
0.0
  0
LINE
  5
FA
330
1F
100
AcDbEntity
  8
TRMODEL1
  6
Continuous
 62
     4
100
AcDbLine
 10
15.7651825968
 20
7.3662998
 30
0.0
 11
15.786189973
 21
7.3676502234
 31
0.0
  0
LINE
  5
FB
330
1F
100
AcDbEntity
  8
TRMODEL1
  6
Continuous
 62
     4
100
AcDbLine
 10
15.786189973
 20
7.3676502234
 30
0.0
 11
15.8072346196
 21
7.3690009721
 31
0.0
  0
LINE
  5
FC
330
1F
100
AcDbEntity
  8
TRMODEL1
  6
Continuous
 62
     4
100
AcDbLine
 10
15.8072346196
 20
7.3690009721
 30
0.0
 11
15.827714614
 21
7.3703430063
 31
0.0
  0
LINE
  5
FD
330
1F
100
AcDbEntity
  8
TRMODEL1
  6
Continuous
 62
     4
100
AcDbLine
 10
15.827714614
 20
7.3703430063
 30
0.0
 11
15.8470567536
 21
7.3716816546
 31
0.0
  0
LINE
  5
FE
330
1F
100
AcDbEntity
  8
TRMODEL1
  6
Continuous
 62
     4
100
AcDbLine
 10
15.8470567536
 20
7.3716816546
 30
0.0
 11
15.8646884331
 21
7.3730260428
 31
0.0
  0
LINE
  5
FF
330
1F
100
AcDbEntity
  8
TRMODEL1
  6
Continuous
 62
     4
100
AcDbLine
 10
15.8646884331
 20
7.3730260428
 30
0.0
 11
15.8801354424
 21
7.374378144
 31
0.0
  0
LINE
  5
100
330
1F
100
AcDbEntity
  8
TRMODEL1
  6
Continuous
 62
     4
100
AcDbLine
 10
15.8801354424
 20
7.374378144
 30
0.0
 11
15.892924672
 21
7.3757259473
 31
0.0
  0
LINE
  5
101
330
1F
100
AcDbEntity
  8
TRMODEL1
  6
Continuous
 62
     4
100
AcDbLine
 10
15.892924672
 20
7.3757259473
 30
0.0
 11
15.9027304827
 21
7.3770656812
 31
0.0
  0
LINE
  5
102
330
1F
100
AcDbEntity
  8
TRMODEL1
  6
Continuous
 62
     4
100
AcDbLine
 10
15.9027304827
 20
7.3770656812
 30
0.0
 11
15.9092288255
 21
7.3784064588
 31
0.0
  0
LINE
  5
103
330
1F
100
AcDbEntity
  8
TRMODEL1
  6
Continuous
 62
     4
100
AcDbLine
 10
15.9092288255
 20
7.3784064588
 30
0.0
 11
15.9122820355
 21
7.3797539564
 31
0.0
  0
LINE
  5
104
330
1F
100
AcDbEntity
  8
TRMODEL1
  6
Continuous
 62
     4
100
AcDbLine
 10
15.9122820355
 20
7.3797539564
 30
0.0
 11
15.9120944251
 21
7.3802338123
 31
0.0
  0
LINE
  5
105
330
1F
100
AcDbEntity
  8
TRMODEL1
  6
Continuous
 62
     4
100
AcDbLine
 10
15.9120588904
 20
7.378330099
 30
0.0
 11
15.9121322765
 21
7.3777215557
 31
0.0
  0
LINE
  5
106
330
1F
100
AcDbEntity
  8
TRMODEL1
  6
Continuous
 62
     4
100
AcDbLine
 10
15.9121322765
 20
7.3777215557
 30
0.0
 11
15.9087678358
 21
7.3763786292
 31
0.0
  0
LINE
  5
107
330
1F
100
AcDbEntity
  8
TRMODEL1
  6
Continuous
 62
     4
100
AcDbLine
 10
15.9087678358
 20
7.3763786292
 30
0.0
 11
15.9019227612
 21
7.3750399492
 31
0.0
  0
LINE
  5
108
330
1F
100
AcDbEntity
  8
TRMODEL1
  6
Continuous
 62
     4
100
AcDbLine
 10
15.9019227612
 20
7.3750399492
 30
0.0
 11
15.8918395101
 21
7.3736945384
 31
0.0
  0
LINE
  5
109
330
1F
100
AcDbEntity
  8
TRMODEL1
  6
Continuous
 62
     4
100
AcDbLine
 10
15.8918395101
 20
7.3736945384
 30
0.0
 11
15.8787623579
 21
7.3723413137
 31
0.0
  0
LINE
  5
10A
330
1F
100
AcDbEntity
  8
TRMODEL1
  6
Continuous
 62
     4
100
AcDbLine
 10
15.8787623579
 20
7.3723413137
 30
0.0
 11
15.8631023209
 21
7.3709939253
 31
0.0
  0
LINE
  5
10B
330
1F
100
AcDbEntity
  8
TRMODEL1
  6
Continuous
 62
     4
100
AcDbLine
 10
15.8631023209
 20
7.3709939253
 30
0.0
 11
15.8452713522
 21
7.3696565232
 31
0.0
  0
LINE
  5
10C
330
1F
100
AcDbEntity
  8
TRMODEL1
  6
Continuous
 62
     4
100
AcDbLine
 10
15.8452713522
 20
7.3696565232
 30
0.0
 11
15.825805546
 21
7.3683162422
 31
0.0
  0
LINE
  5
10D
330
1F
100
AcDbEntity
  8
TRMODEL1
  6
Continuous
 62
     4
100
AcDbLine
 10
15.825805546
 20
7.3683162422
 30
0.0
 11
15.8052421904
 21
7.3669665664
 31
0.0
  0
LINE
  5
10E
330
1F
100
AcDbEntity
  8
TRMODEL1
  6
Continuous
 62
     4
100
AcDbLine
 10
15.8052421904
 20
7.3669665664
 30
0.0
 11
15.7841771369
 21
7.3656137373
 31
0.0
  0
LINE
  5
10F
330
1F
100
AcDbEntity
  8
TRMODEL1
  6
Continuous
 62
     4
100
AcDbLine
 10
15.7841771369
 20
7.3656137373
 30
0.0
 11
15.7632056593
 21
7.364270839
 31
0.0
  0
LINE
  5
110
330
1F
100
AcDbEntity
  8
TRMODEL1
  6
Continuous
 62
     4
100
AcDbLine
 10
15.7632056593
 20
7.364270839
 30
0.0
 11
15.742921677
 21
7.3629341198
 31
0.0
  0
LINE
  5
111
330
1F
100
AcDbEntity
  8
TRMODEL1
  6
Continuous
 62
     4
100
AcDbLine
 10
15.742921677
 20
7.3629341198
 30
0.0
 11
15.7239190484
 21
7.3615892233
 31
0.0
  0
LINE
  5
112
330
1F
100
AcDbEntity
  8
TRMODEL1
  6
Continuous
 62
     4
100
AcDbLine
 10
15.7239190484
 20
7.3615892233
 30
0.0
 11
15.7067164099
 21
7.3602375835
 31
0.0
  0
LINE
  5
113
330
1F
100
AcDbEntity
  8
TRMODEL1
  6
Continuous
 62
     4
100
AcDbLine
 10
15.7067164099
 20
7.3602375835
 30
0.0
 11
15.6918317838
 21
7.3588899267
 31
0.0
  0
LINE
  5
114
330
1F
100
AcDbEntity
  8
TRMODEL1
  6
Continuous
 62
     4
100
AcDbLine
 10
15.6918317838
 20
7.3588899267
 30
0.0
 11
15.6796548276
 21
7.3575501204
 31
0.0
  0
LINE
  5
115
330
1F
100
AcDbEntity
  8
TRMODEL1
  6
Continuous
 62
     4
100
AcDbLine
 10
15.6796548276
 20
7.3575501204
 30
0.0
 11
15.670573836
 21
7.3562095191
 31
0.0
  0
LINE
  5
116
330
1F
100
AcDbEntity
  8
TRMODEL1
  6
Continuous
 62
     4
100
AcDbLine
 10
15.670573836
 20
7.3562095191
 30
0.0
 11
15.6648025359
 21
7.3548609952
 31
0.0
  0
LINE
  5
117
330
1F
100
AcDbEntity
  8
TRMODEL1
  6
Continuous
 62
     4
100
AcDbLine
 10
15.6648025359
 20
7.3548609952
 30
0.0
 11
15.6625530015
 21
7.3535084081
 31
0.0
  0
LINE
  5
118
330
1F
100
AcDbEntity
  8
TRMODEL1
  6
Continuous
 62
     4
100
AcDbLine
 10
15.6625530015
 20
7.3535084081
 30
0.0
 11
15.6627269921
 21
7.3533266949
 31
0.0
  0
LINE
  5
119
330
1F
100
AcDbEntity
  8
TRMODEL1
  6
Continuous
 62
     4
100
AcDbLine
 10
15.5753313918
 20
7.3857768488
 30
0.0
 11
15.9996838397
 21
7.3857768488
 31
0.0
  0
LINE
  5
11A
330
1F
100
AcDbEntity
  8
TRMODEL1
  6
Continuous
 62
     4
100
AcDbLine
 10
15.5621330025
 20
7.4046224485
 30
0.0
 11
15.5889848437
 21
7.3979020303
 31
0.0
  0
LINE
  5
11B
330
1F
100
AcDbEntity
  8
TRMODEL1
  6
Continuous
 62
     4
100
AcDbLine
 10
15.5889848437
 20
7.3979020303
 30
0.0
 11
15.6239399996
 21
7.3917498504
 31
0.0
  0
LINE
  5
11C
330
1F
100
AcDbEntity
  8
TRMODEL1
  6
Continuous
 62
     4
100
AcDbLine
 10
15.6239399996
 20
7.3917498504
 30
0.0
 11
15.659183686
 21
7.3889567637
 31
0.0
  0
LINE
  5
11D
330
1F
100
AcDbEntity
  8
TRMODEL1
  6
Continuous
 62
     4
100
AcDbLine
 10
15.659183686
 20
7.3889567637
 30
0.0
 11
15.6955322772
 21
7.390022261
 31
0.0
  0
LINE
  5
11E
330
1F
100
AcDbEntity
  8
TRMODEL1
  6
Continuous
 62
     4
100
AcDbLine
 10
15.6955322772
 20
7.390022261
 30
0.0
 11
15.7316751716
 21
7.3948574124
 31
0.0
  0
LINE
  5
11F
330
1F
100
AcDbEntity
  8
TRMODEL1
  6
Continuous
 62
     4
100
AcDbLine
 10
15.7316751716
 20
7.3948574124
 30
0.0
 11
15.7735941684
 21
7.4046224485
 31
0.0
  0
LINE
  5
120
330
1F
100
AcDbEntity
  8
TRMODEL1
  6
Continuous
 62
     4
100
AcDbLine
 10
15.5375076157
 20
9.3259513567
 30
0.0
 11
15.534916873
 21
9.3247432735
 31
0.0
  0
LINE
  5
121
330
1F
100
AcDbEntity
  8
TRMODEL1
  6
Continuous
 62
     4
100
AcDbLine
 10
15.534916873
 20
9.3247432735
 30
0.0
 11
15.5375076157
 21
9.3257758838
 31
0.0
  0
LINE
  5
122
330
1F
100
AcDbEntity
  8
TRMODEL1
  6
Continuous
 62
     4
100
AcDbLine
 10
15.4750076157
 20
9.1792768263
 30
0.0
 11
15.4750076157
 21
9.1142768263
 31
0.0
  0
LINE
  5
123
330
1F
100
AcDbEntity
  8
TRMODEL1
  6
Continuous
 62
     4
100
AcDbLine
 10
15.5375076157
 20
9.2042768263
 30
0.0
 11
15.534916873
 21
9.2042768263
 31
0.0
  0
LINE
  5
124
330
1F
100
AcDbEntity
  8
TRMODEL1
  6
Continuous
 62
     4
100
AcDbLine
 10
15.5375076157
 20
9.1142768263
 30
0.0
 11
15.4750076157
 21
9.1142768263
 31
0.0
  0
LINE
  5
125
330
1F
100
AcDbEntity
  8
TRMODEL1
  6
Continuous
 62
     4
100
AcDbLine
 10
15.5375076157
 20
9.1792768263
 30
0.0
 11
15.4750076157
 21
9.1792768263
 31
0.0
  0
LINE
  5
126
330
1F
100
AcDbEntity
  8
TRMODEL1
  6
Continuous
 62
     4
100
AcDbLine
 10
15.5375076157
 20
9.1742768263
 30
0.0
 11
15.5375076157
 21
9.0517768263
 31
0.0
  0
LINE
  5
127
330
1F
100
AcDbEntity
  8
TRMODEL1
  6
Continuous
 62
     4
100
AcDbLine
 10
15.5375076157
 20
9.1767768263
 30
0.0
 11
15.5375076157
 21
9.1742768263
 31
0.0
  0
LINE
  5
128
330
1F
100
AcDbEntity
  8
TRMODEL1
  6
Continuous
 62
     4
100
AcDbLine
 10
15.5906326157
 20
7.6117768488
 30
0.0
 11
15.5906326157
 21
7.5957768488
 31
0.0
  0
LINE
  5
129
330
1F
100
AcDbEntity
  8
TRMODEL1
  6
Continuous
 62
     4
100
AcDbLine
 10
15.4750076157
 20
7.6767768488
 30
0.0
 11
15.4750076157
 21
7.6117768488
 31
0.0
  0
LINE
  5
12A
330
1F
100
AcDbEntity
  8
TRMODEL1
  6
Continuous
 62
     4
100
AcDbLine
 10
15.534916873
 20
9.2042768263
 30
0.0
 11
15.534916873
 21
9.3247432735
 31
0.0
  0
LINE
  5
12B
330
1F
100
AcDbEntity
  8
TRMODEL1
  6
Continuous
 62
     4
100
AcDbLine
 10
16.0400983585
 20
9.3247432735
 30
0.0
 11
16.0375076157
 21
9.3259513567
 31
0.0
  0
LINE
  5
12C
330
1F
100
AcDbEntity
  8
TRMODEL1
  6
Continuous
 62
     4
100
AcDbLine
 10
16.0375076157
 20
9.3256765424
 30
0.0
 11
16.0400983585
 21
9.3247432735
 31
0.0
  0
LINE
  5
12D
330
1F
100
AcDbEntity
  8
TRMODEL1
  6
Continuous
 62
     4
100
AcDbLine
 10
16.1000076157
 20
9.1142768263
 30
0.0
 11
16.1000076157
 21
9.1792768263
 31
0.0
  0
LINE
  5
12E
330
1F
100
AcDbEntity
  8
TRMODEL1
  6
Continuous
 62
     4
100
AcDbLine
 10
16.0400983585
 20
9.2042768263
 30
0.0
 11
16.0375076157
 21
9.2042768263
 31
0.0
  0
LINE
  5
12F
330
1F
100
AcDbEntity
  8
TRMODEL1
  6
Continuous
 62
     4
100
AcDbLine
 10
16.1000076157
 20
9.1142768263
 30
0.0
 11
16.0375076157
 21
9.1142768263
 31
0.0
  0
LINE
  5
130
330
1F
100
AcDbEntity
  8
TRMODEL1
  6
Continuous
 62
     4
100
AcDbLine
 10
16.1000076157
 20
9.1792768263
 30
0.0
 11
16.0375076157
 21
9.1792768263
 31
0.0
  0
LINE
  5
131
330
1F
100
AcDbEntity
  8
TRMODEL1
  6
Continuous
 62
     4
100
AcDbLine
 10
16.0375076157
 20
9.1742768263
 30
0.0
 11
16.0375076157
 21
9.0517768263
 31
0.0
  0
LINE
  5
132
330
1F
100
AcDbEntity
  8
TRMODEL1
  6
Continuous
 62
     4
100
AcDbLine
 10
16.0375076157
 20
9.1767768263
 30
0.0
 11
16.0375076157
 21
9.1742768263
 31
0.0
  0
LINE
  5
133
330
1F
100
AcDbEntity
  8
TRMODEL1
  6
Continuous
 62
     4
100
AcDbLine
 10
15.8775068956
 20
8.0240882463
 30
0.0
 11
15.8783730255
 21
8.0242188508
 31
0.0
  0
LINE
  5
134
330
1F
100
AcDbEntity
  8
TRMODEL1
  6
Continuous
 62
     4
100
AcDbLine
 10
15.8783730254
 20
8.0723121314
 30
0.0
 11
15.8783730255
 21
8.0242188508
 31
0.0
  0
LINE
  5
135
330
1F
100
AcDbEntity
  8
TRMODEL1
  6
Continuous
 62
     4
100
AcDbLine
 10
15.8783730254
 20
8.0723121314
 30
0.0
 11
15.8776231845
 21
8.0722883127
 31
0.0
  0
LINE
  5
136
330
1F
100
AcDbEntity
  8
TRMODEL1
  6
Continuous
 62
     4
100
AcDbLine
 10
15.8783730255
 20
8.0242188508
 30
0.0
 11
15.8480970751
 21
8.0482531658
 31
0.0
  0
LINE
  5
137
330
1F
100
AcDbEntity
  8
TRMODEL1
  6
Continuous
 62
     4
100
AcDbLine
 10
15.8480970751
 20
8.0482531658
 30
0.0
 11
15.8783730254
 21
8.0723121314
 31
0.0
  0
LINE
  5
138
330
1F
100
AcDbEntity
  8
TRMODEL1
  6
Continuous
 62
     4
100
AcDbLine
 10
15.9122392731
 20
7.8783272267
 30
0.0
 11
15.9124398766
 21
7.8780907343
 31
0.0
  0
LINE
  5
139
330
1F
100
AcDbEntity
  8
TRMODEL1
  6
Continuous
 62
     4
100
AcDbLine
 10
15.6626596121
 20
8.0529598324
 30
0.0
 11
15.6638290653
 21
8.0523899975
 31
0.0
  0
LINE
  5
13A
330
1F
100
AcDbEntity
  8
TRMODEL1
  6
Continuous
 62
     4
100
AcDbLine
 10
15.6627500749
 20
7.9552398866
 30
0.0
 11
15.6625538344
 21
7.9554572227
 31
0.0
  0
LINE
  5
13B
330
1F
100
AcDbEntity
  8
TRMODEL1
  6
Continuous
 62
     4
100
AcDbLine
 10
15.6631274406
 20
7.8525358246
 30
0.0
 11
15.6636169082
 21
7.8523670491
 31
0.0
  0
LINE
  5
13C
330
1F
100
AcDbEntity
  8
TRMODEL1
  6
Continuous
 62
     4
100
AcDbLine
 10
15.6628305495
 20
7.8027732513
 30
0.0
 11
15.6633972885
 21
7.8025388292
 31
0.0
  0
LINE
  5
13D
330
1F
100
AcDbEntity
  8
TRMODEL1
  6
Continuous
 62
     4
100
AcDbLine
 10
15.9843826157
 20
7.5957768488
 30
0.0
 11
15.9843826157
 21
7.6117768488
 31
0.0
  0
LINE
  5
13E
330
1F
100
AcDbEntity
  8
TRMODEL1
  6
Continuous
 62
     4
100
AcDbLine
 10
16.1000076157
 20
7.6117768488
 30
0.0
 11
16.1000076157
 21
7.6767768488
 31
0.0
  0
LINE
  5
13F
330
1F
100
AcDbEntity
  8
TRMODEL1
  6
Continuous
 62
     4
100
AcDbLine
 10
16.012882229
 20
7.5957768488
 30
0.0
 11
15.9989687816
 21
7.5957768488
 31
0.0
  0
LINE
  5
140
330
1F
100
AcDbEntity
  8
TRMODEL1
  6
Continuous
 62
     4
100
AcDbLine
 10
15.911844727
 20
7.6810614336
 30
0.0
 11
15.9114352436
 21
7.6812002223
 31
0.0
  0
LINE
  5
141
330
1F
100
AcDbEntity
  8
TRMODEL1
  6
Continuous
 62
     4
100
AcDbLine
 10
15.9121539442
 20
7.7308247678
 30
0.0
 11
15.9115866052
 21
7.73105367
 31
0.0
  0
LINE
  5
142
330
1F
100
AcDbEntity
  8
TRMODEL1
  6
Continuous
 62
     4
100
AcDbLine
 10
15.7053706396
 20
7.6806343467
 30
0.0
 11
15.6987591531
 21
7.6767768488
 31
0.0
  0
LINE
  5
143
330
1F
100
AcDbEntity
  8
TRMODEL1
  6
Continuous
 62
     4
100
AcDbLine
 10
15.9989687816
 20
7.5957768488
 30
0.0
 11
15.7735941684
 21
7.5957768488
 31
0.0
  0
LINE
  5
144
330
1F
100
AcDbEntity
  8
TRMODEL1
  6
Continuous
 62
     4
100
AcDbLine
 10
15.9125076157
 20
8.028336925
 30
0.0
 11
15.9125076157
 21
9.0517768263
 31
0.0
  0
LINE
  5
145
330
1F
100
AcDbEntity
  8
TRMODEL1
  6
Continuous
 62
     4
100
AcDbLine
 10
15.6625076157
 20
9.0517768263
 30
0.0
 11
15.6625076157
 21
8.0533337051
 31
0.0
  0
LINE
  5
146
330
1F
100
AcDbEntity
  8
TRMODEL1
  6
Continuous
 62
     4
100
AcDbLine
 10
16.0400983585
 20
9.2042768263
 30
0.0
 11
16.0400983585
 21
9.3247432735
 31
0.0
  0
LINE
  5
147
330
1F
100
AcDbEntity
  8
TRMODEL1
  6
Continuous
 62
     4
100
AcDbLine
 10
15.8562985651
 20
8.0223334648
 30
0.0
 11
15.8672560947
 21
8.0239333535
 31
0.0
  0
LINE
  5
148
330
1F
100
AcDbEntity
  8
TRMODEL1
  6
Continuous
 62
     4
100
AcDbLine
 10
15.8672560947
 20
8.0239333535
 30
0.0
 11
15.8775068956
 21
8.0240882463
 31
0.0
  0
LINE
  5
149
330
1F
100
AcDbEntity
  8
TRMODEL1
  6
Continuous
 62
     4
100
AcDbLine
 10
15.8776231845
 20
8.0722883127
 30
0.0
 11
15.8607936217
 21
8.0704938993
 31
0.0
  0
LINE
  5
14A
330
1F
100
AcDbEntity
  8
TRMODEL1
  6
Continuous
 62
     4
100
AcDbLine
 10
15.8607936217
 20
8.0704938993
 30
0.0
 11
15.8557593228
 21
8.0704815019
 31
0.0
  0
LINE
  5
14B
330
1F
100
AcDbEntity
  8
TRMODEL1
  6
Continuous
 62
     4
100
AcDbLine
 10
15.9119538617
 20
7.9809954612
 30
0.0
 11
15.8908819963
 21
7.993245497
 31
0.0
  0
LINE
  5
14C
330
1F
100
AcDbEntity
  8
TRMODEL1
  6
Continuous
 62
     4
100
AcDbLine
 10
15.8908819963
 20
7.993245497
 30
0.0
 11
15.8719674593
 21
8.0042779774
 31
0.0
  0
LINE
  5
14D
330
1F
100
AcDbEntity
  8
TRMODEL1
  6
Continuous
 62
     4
100
AcDbLine
 10
15.911771351
 20
7.9311045654
 30
0.0
 11
15.8906554978
 21
7.9433746171
 31
0.0
  0
LINE
  5
14E
330
1F
100
AcDbEntity
  8
TRMODEL1
  6
Continuous
 62
     4
100
AcDbLine
 10
15.8906554978
 20
7.9433746171
 30
0.0
 11
15.8719690488
 21
7.9542777927
 31
0.0
  0
LINE
  5
14F
330
1F
100
AcDbEntity
  8
TRMODEL1
  6
Continuous
 62
     4
100
AcDbLine
 10
15.911876467
 20
7.8810380742
 30
0.0
 11
15.8908209311
 21
7.8932798123
 31
0.0
  0
LINE
  5
150
330
1F
100
AcDbEntity
  8
TRMODEL1
  6
Continuous
 62
     4
100
AcDbLine
 10
15.8908209311
 20
7.8932798123
 30
0.0
 11
15.8719688201
 21
7.9042771224
 31
0.0
  0
LINE
  5
151
330
1F
100
AcDbEntity
  8
TRMODEL1
  6
Continuous
 62
     4
100
AcDbLine
 10
15.9118335688
 20
7.8310568518
 30
0.0
 11
15.8907269654
 21
7.8433298678
 31
0.0
  0
LINE
  5
152
330
1F
100
AcDbEntity
  8
TRMODEL1
  6
Continuous
 62
     4
100
AcDbLine
 10
15.8907269654
 20
7.8433298678
 30
0.0
 11
15.8719704265
 21
7.8542765596
 31
0.0
  0
LINE
  5
153
330
1F
100
AcDbEntity
  8
TRMODEL1
  6
Continuous
 62
     4
100
AcDbLine
 10
15.8696319055
 20
7.9529132061
 30
0.0
 11
15.8906540634
 21
7.9651874016
 31
0.0
  0
LINE
  5
154
330
1F
100
AcDbEntity
  8
TRMODEL1
  6
Continuous
 62
     4
100
AcDbLine
 10
15.8906540634
 20
7.9651874016
 30
0.0
 11
15.9117615751
 21
7.977462716
 31
0.0
  0
LINE
  5
155
330
1F
100
AcDbEntity
  8
TRMODEL1
  6
Continuous
 62
     4
100
AcDbLine
 10
15.8698555411
 20
7.9030439305
 30
0.0
 11
15.8908393741
 21
7.9152889261
 31
0.0
  0
LINE
  5
156
330
1F
100
AcDbEntity
  8
TRMODEL1
  6
Continuous
 62
     4
100
AcDbLine
 10
15.8908393741
 20
7.9152889261
 30
0.0
 11
15.9118940372
 21
7.9275338227
 31
0.0
  0
LINE
  5
157
330
1F
100
AcDbEntity
  8
TRMODEL1
  6
Continuous
 62
     4
100
AcDbLine
 10
15.8696677469
 20
7.8529323203
 30
0.0
 11
15.8907122591
 21
7.8652175116
 31
0.0
  0
LINE
  5
158
330
1F
100
AcDbEntity
  8
TRMODEL1
  6
Continuous
 62
     4
100
AcDbLine
 10
15.8907122591
 20
7.8652175116
 30
0.0
 11
15.9118381891
 21
7.8775012485
 31
0.0
  0
LINE
  5
159
330
1F
100
AcDbEntity
  8
TRMODEL1
  6
Continuous
 62
     4
100
AcDbLine
 10
15.8698060151
 20
7.8030135279
 30
0.0
 11
15.890772355
 21
7.815253964
 31
0.0
  0
LINE
  5
15A
330
1F
100
AcDbEntity
  8
TRMODEL1
  6
Continuous
 62
     4
100
AcDbLine
 10
15.890772355
 20
7.815253964
 30
0.0
 11
15.9118139187
 21
7.8274934763
 31
0.0
  0
LINE
  5
15B
330
1F
100
AcDbEntity
  8
TRMODEL1
  6
Continuous
 62
     4
100
AcDbLine
 10
15.8698636155
 20
8.0030498203
 30
0.0
 11
15.8908594401
 21
8.0153065153
 31
0.0
  0
LINE
  5
15C
330
1F
100
AcDbEntity
  8
TRMODEL1
  6
Continuous
 62
     4
100
AcDbLine
 10
15.8908594401
 20
8.0153065153
 30
0.0
 11
15.9119237851
 21
8.0275639505
 31
0.0
  0
LINE
  5
15D
330
1F
100
AcDbEntity
  8
TRMODEL1
  6
Continuous
 62
     4
100
AcDbLine
 10
15.6633087301
 20
8.0524386104
 30
0.0
 11
15.6843749888
 21
8.0401833782
 31
0.0
  0
LINE
  5
15E
330
1F
100
AcDbEntity
  8
TRMODEL1
  6
Continuous
 62
     4
100
AcDbLine
 10
15.6843749888
 20
8.0401833782
 30
0.0
 11
15.7030448297
 21
8.0292783755
 31
0.0
  0
LINE
  5
15F
330
1F
100
AcDbEntity
  8
TRMODEL1
  6
Continuous
 62
     4
100
AcDbLine
 10
15.7051538733
 20
7.830505492
 30
0.0
 11
15.6841386689
 21
7.8182427964
 31
0.0
  0
LINE
  5
160
330
1F
100
AcDbEntity
  8
TRMODEL1
  6
Continuous
 62
     4
100
AcDbLine
 10
15.6841386689
 20
7.8182427964
 30
0.0
 11
15.6630562244
 21
7.8059795793
 31
0.0
  0
LINE
  5
161
330
1F
100
AcDbEntity
  8
TRMODEL1
  6
Continuous
 62
     4
100
AcDbLine
 10
15.7054153852
 20
7.8806582702
 30
0.0
 11
15.6844135306
 21
7.8683990479
 31
0.0
  0
LINE
  5
162
330
1F
100
AcDbEntity
  8
TRMODEL1
  6
Continuous
 62
     4
100
AcDbLine
 10
15.6844135306
 20
7.8683990479
 30
0.0
 11
15.6633227463
 21
7.8561386487
 31
0.0
  0
LINE
  5
163
330
1F
100
AcDbEntity
  8
TRMODEL1
  6
Continuous
 62
     4
100
AcDbLine
 10
15.7051930446
 20
7.9305303144
 30
0.0
 11
15.6841557624
 21
7.9182589296
 31
0.0
  0
LINE
  5
164
330
1F
100
AcDbEntity
  8
TRMODEL1
  6
Continuous
 62
     4
100
AcDbLine
 10
15.6841557624
 20
7.9182589296
 30
0.0
 11
15.6630503633
 21
7.9059870842
 31
0.0
  0
LINE
  5
165
330
1F
100
AcDbEntity
  8
TRMODEL1
  6
Continuous
 62
     4
100
AcDbLine
 10
15.7053560343
 20
7.9806264891
 30
0.0
 11
15.6843777355
 21
7.9683838515
 31
0.0
  0
LINE
  5
166
330
1F
100
AcDbEntity
  8
TRMODEL1
  6
Continuous
 62
     4
100
AcDbLine
 10
15.6843777355
 20
7.9683838515
 30
0.0
 11
15.6633134613
 21
7.9561421926
 31
0.0
  0
LINE
  5
167
330
1F
100
AcDbEntity
  8
TRMODEL1
  6
Continuous
 62
     4
100
AcDbLine
 10
15.6633374716
 20
7.8524157339
 30
0.0
 11
15.68442687
 21
7.8401529462
 31
0.0
  0
LINE
  5
168
330
1F
100
AcDbEntity
  8
TRMODEL1
  6
Continuous
 62
     4
100
AcDbLine
 10
15.68442687
 20
7.8401529462
 30
0.0
 11
15.7030486009
 21
7.8292770331
 31
0.0
  0
LINE
  5
169
330
1F
100
AcDbEntity
  8
TRMODEL1
  6
Continuous
 62
     4
100
AcDbLine
 10
15.6630410203
 20
7.9025828353
 30
0.0
 11
15.6841428654
 21
7.8903083099
 31
0.0
  0
LINE
  5
16A
330
1F
100
AcDbEntity
  8
TRMODEL1
  6
Continuous
 62
     4
100
AcDbLine
 10
15.6841428654
 20
7.8903083099
 30
0.0
 11
15.7030471763
 21
7.8792758971
 31
0.0
  0
LINE
  5
16B
330
1F
100
AcDbEntity
  8
TRMODEL1
  6
Continuous
 62
     4
100
AcDbLine
 10
15.6633308456
 20
7.9524172126
 30
0.0
 11
15.6844040505
 21
7.9401631371
 31
0.0
  0
LINE
  5
16C
330
1F
100
AcDbEntity
  8
TRMODEL1
  6
Continuous
 62
     4
100
AcDbLine
 10
15.6844040505
 20
7.9401631371
 30
0.0
 11
15.7030459002
 21
7.9292778506
 31
0.0
  0
LINE
  5
16D
330
1F
100
AcDbEntity
  8
TRMODEL1
  6
Continuous
 62
     4
100
AcDbLine
 10
15.663082515
 20
8.0025675563
 30
0.0
 11
15.6841830082
 21
7.9902892324
 31
0.0
  0
LINE
  5
16E
330
1F
100
AcDbEntity
  8
TRMODEL1
  6
Continuous
 62
     4
100
AcDbLine
 10
15.6841830082
 20
7.9902892324
 30
0.0
 11
15.7030451412
 21
7.9792778846
 31
0.0
  0
LINE
  5
16F
330
1F
100
AcDbEntity
  8
TRMODEL1
  6
Continuous
 62
     4
100
AcDbLine
 10
15.7052568777
 20
8.0305690646
 30
0.0
 11
15.6842129025
 21
8.0182902939
 31
0.0
  0
LINE
  5
170
330
1F
100
AcDbEntity
  8
TRMODEL1
  6
Continuous
 62
     4
100
AcDbLine
 10
15.6842129025
 20
8.0182902939
 30
0.0
 11
15.6630952336
 21
8.0060127746
 31
0.0
  0
LINE
  5
171
330
1F
100
AcDbEntity
  8
TRMODEL1
  6
Continuous
 62
     4
100
AcDbLine
 10
15.6632862395
 20
7.806028327
 30
0.0
 11
15.6633411512
 21
7.8061419475
 31
0.0
  0
LINE
  5
172
330
1F
100
AcDbEntity
  8
TRMODEL1
  6
Continuous
 62
     4
100
AcDbLine
 10
15.6633411512
 20
7.8061419475
 30
0.0
 11
15.6675042022
 21
7.8074912912
 31
0.0
  0
LINE
  5
173
330
1F
100
AcDbEntity
  8
TRMODEL1
  6
Continuous
 62
     4
100
AcDbLine
 10
15.6675042022
 20
7.8074912912
 30
0.0
 11
15.6751115309
 21
7.8088416554
 31
0.0
  0
LINE
  5
174
330
1F
100
AcDbEntity
  8
TRMODEL1
  6
Continuous
 62
     4
100
AcDbLine
 10
15.6751115309
 20
7.8088416554
 30
0.0
 11
15.6859002198
 21
7.8101839789
 31
0.0
  0
LINE
  5
175
330
1F
100
AcDbEntity
  8
TRMODEL1
  6
Continuous
 62
     4
100
AcDbLine
 10
15.6859002198
 20
7.8101839789
 30
0.0
 11
15.6996055225
 21
7.8115217427
 31
0.0
  0
LINE
  5
176
330
1F
100
AcDbEntity
  8
TRMODEL1
  6
Continuous
 62
     4
100
AcDbLine
 10
15.6996055225
 20
7.8115217427
 30
0.0
 11
15.7157983853
 21
7.8128677253
 31
0.0
  0
LINE
  5
177
330
1F
100
AcDbEntity
  8
TRMODEL1
  6
Continuous
 62
     4
100
AcDbLine
 10
15.7157983853
 20
7.8128677253
 30
0.0
 11
15.7340485837
 21
7.8142214587
 31
0.0
  0
LINE
  5
178
330
1F
100
AcDbEntity
  8
TRMODEL1
  6
Continuous
 62
     4
100
AcDbLine
 10
15.7340485837
 20
7.8142214587
 30
0.0
 11
15.7538120678
 21
7.8155692261
 31
0.0
  0
LINE
  5
179
330
1F
100
AcDbEntity
  8
TRMODEL1
  6
Continuous
 62
     4
100
AcDbLine
 10
15.7538120678
 20
7.8155692261
 30
0.0
 11
15.7745442892
 21
7.8169062733
 31
0.0
  0
LINE
  5
17A
330
1F
100
AcDbEntity
  8
TRMODEL1
  6
Continuous
 62
     4
100
AcDbLine
 10
15.7745442892
 20
7.8169062733
 30
0.0
 11
15.7956432871
 21
7.8182457909
 31
0.0
  0
LINE
  5
17B
330
1F
100
AcDbEntity
  8
TRMODEL1
  6
Continuous
 62
     4
100
AcDbLine
 10
15.7956432871
 20
7.8182457909
 30
0.0
 11
15.8165068423
 21
7.8195956286
 31
0.0
  0
LINE
  5
17C
330
1F
100
AcDbEntity
  8
TRMODEL1
  6
Continuous
 62
     4
100
AcDbLine
 10
15.8165068423
 20
7.8195956286
 30
0.0
 11
15.8365495307
 21
7.8209485663
 31
0.0
  0
LINE
  5
17D
330
1F
100
AcDbEntity
  8
TRMODEL1
  6
Continuous
 62
     4
100
AcDbLine
 10
15.8365495307
 20
7.8209485663
 30
0.0
 11
15.8551865435
 21
7.8222912394
 31
0.0
  0
LINE
  5
17E
330
1F
100
AcDbEntity
  8
TRMODEL1
  6
Continuous
 62
     4
100
AcDbLine
 10
15.8551865435
 20
7.8222912394
 30
0.0
 11
15.8719082021
 21
7.8236279728
 31
0.0
  0
LINE
  5
17F
330
1F
100
AcDbEntity
  8
TRMODEL1
  6
Continuous
 62
     4
100
AcDbLine
 10
15.8719082021
 20
7.8236279728
 30
0.0
 11
15.8862059946
 21
7.8249735057
 31
0.0
  0
LINE
  5
180
330
1F
100
AcDbEntity
  8
TRMODEL1
  6
Continuous
 62
     4
100
AcDbLine
 10
15.8862059946
 20
7.8249735057
 30
0.0
 11
15.8977102774
 21
7.8263251583
 31
0.0
  0
LINE
  5
181
330
1F
100
AcDbEntity
  8
TRMODEL1
  6
Continuous
 62
     4
100
AcDbLine
 10
15.8977102774
 20
7.8263251583
 30
0.0
 11
15.9060521295
 21
7.8276728607
 31
0.0
  0
LINE
  5
182
330
1F
100
AcDbEntity
  8
TRMODEL1
  6
Continuous
 62
     4
100
AcDbLine
 10
15.9060521295
 20
7.8276728607
 30
0.0
 11
15.9110388695
 21
7.82901246
 31
0.0
  0
LINE
  5
183
330
1F
100
AcDbEntity
  8
TRMODEL1
  6
Continuous
 62
     4
100
AcDbLine
 10
15.9110388695
 20
7.82901246
 30
0.0
 11
15.9124797828
 21
7.8303523181
 31
0.0
  0
LINE
  5
184
330
1F
100
AcDbEntity
  8
TRMODEL1
  6
Continuous
 62
     4
100
AcDbLine
 10
15.9124797828
 20
7.8303523181
 30
0.0
 11
15.9113057476
 21
7.8311080001
 31
0.0
  0
LINE
  5
185
330
1F
100
AcDbEntity
  8
TRMODEL1
  6
Continuous
 62
     4
100
AcDbLine
 10
15.6629600834
 20
7.8552295157
 30
0.0
 11
15.6629643991
 21
7.8559108555
 31
0.0
  0
LINE
  5
186
330
1F
100
AcDbEntity
  8
TRMODEL1
  6
Continuous
 62
     4
100
AcDbLine
 10
15.6629643991
 20
7.8559108555
 30
0.0
 11
15.6665473438
 21
7.8572636203
 31
0.0
  0
LINE
  5
187
330
1F
100
AcDbEntity
  8
TRMODEL1
  6
Continuous
 62
     4
100
AcDbLine
 10
15.6665473438
 20
7.8572636203
 30
0.0
 11
15.6735536545
 21
7.8586114157
 31
0.0
  0
LINE
  5
188
330
1F
100
AcDbEntity
  8
TRMODEL1
  6
Continuous
 62
     4
100
AcDbLine
 10
15.6735536545
 20
7.8586114157
 30
0.0
 11
15.6838314703
 21
7.859949527
 31
0.0
  0
LINE
  5
189
330
1F
100
AcDbEntity
  8
TRMODEL1
  6
Continuous
 62
     4
100
AcDbLine
 10
15.6838314703
 20
7.859949527
 30
0.0
 11
15.6970438115
 21
7.861288784
 31
0.0
  0
LINE
  5
18A
330
1F
100
AcDbEntity
  8
TRMODEL1
  6
Continuous
 62
     4
100
AcDbLine
 10
15.6970438115
 20
7.861288784
 30
0.0
 11
15.7128513226
 21
7.8626392883
 31
0.0
  0
LINE
  5
18B
330
1F
100
AcDbEntity
  8
TRMODEL1
  6
Continuous
 62
     4
100
AcDbLine
 10
15.7128513226
 20
7.8626392883
 30
0.0
 11
15.7307715983
 21
7.863990751
 31
0.0
  0
LINE
  5
18C
330
1F
100
AcDbEntity
  8
TRMODEL1
  6
Continuous
 62
     4
100
AcDbLine
 10
15.7307715983
 20
7.863990751
 30
0.0
 11
15.750321952
 21
7.8653323369
 31
0.0
  0
LINE
  5
18D
330
1F
100
AcDbEntity
  8
TRMODEL1
  6
Continuous
 62
     4
100
AcDbLine
 10
15.750321952
 20
7.8653323369
 30
0.0
 11
15.770925052
 21
7.8666704276
 31
0.0
  0
LINE
  5
18E
330
1F
100
AcDbEntity
  8
TRMODEL1
  6
Continuous
 62
     4
100
AcDbLine
 10
15.770925052
 20
7.8666704276
 30
0.0
 11
15.7920024387
 21
7.868017625
 31
0.0
  0
LINE
  5
18F
330
1F
100
AcDbEntity
  8
TRMODEL1
  6
Continuous
 62
     4
100
AcDbLine
 10
15.7920024387
 20
7.868017625
 30
0.0
 11
15.8129523338
 21
7.8693694062
 31
0.0
  0
LINE
  5
190
330
1F
100
AcDbEntity
  8
TRMODEL1
  6
Continuous
 62
     4
100
AcDbLine
 10
15.8129523338
 20
7.8693694062
 30
0.0
 11
15.8331731465
 21
7.8707157711
 31
0.0
  0
LINE
  5
191
330
1F
100
AcDbEntity
  8
TRMODEL1
  6
Continuous
 62
     4
100
AcDbLine
 10
15.8331731465
 20
7.8707157711
 30
0.0
 11
15.852101846
 21
7.8720549065
 31
0.0
  0
LINE
  5
192
330
1F
100
AcDbEntity
  8
TRMODEL1
  6
Continuous
 62
     4
100
AcDbLine
 10
15.852101846
 20
7.8720549065
 30
0.0
 11
15.8691758302
 21
7.8733951173
 31
0.0
  0
LINE
  5
193
330
1F
100
AcDbEntity
  8
TRMODEL1
  6
Continuous
 62
     4
100
AcDbLine
 10
15.8691758302
 20
7.8733951173
 30
0.0
 11
15.8839379815
 21
7.874745211
 31
0.0
  0
LINE
  5
194
330
1F
100
AcDbEntity
  8
TRMODEL1
  6
Continuous
 62
     4
100
AcDbLine
 10
15.8839379815
 20
7.874745211
 30
0.0
 11
15.8959326137
 21
7.8760967229
 31
0.0
  0
LINE
  5
195
330
1F
100
AcDbEntity
  8
TRMODEL1
  6
Continuous
 62
     4
100
AcDbLine
 10
15.8959326137
 20
7.8760967229
 30
0.0
 11
15.904858825
 21
7.8774401238
 31
0.0
  0
LINE
  5
196
330
1F
100
AcDbEntity
  8
TRMODEL1
  6
Continuous
 62
     4
100
AcDbLine
 10
15.904858825
 20
7.8774401238
 30
0.0
 11
15.9104169092
 21
7.8787780668
 31
0.0
  0
LINE
  5
197
330
1F
100
AcDbEntity
  8
TRMODEL1
  6
Continuous
 62
     4
100
AcDbLine
 10
15.9104169092
 20
7.8787780668
 30
0.0
 11
15.9124961017
 21
7.8801213964
 31
0.0
  0
LINE
  5
198
330
1F
100
AcDbEntity
  8
TRMODEL1
  6
Continuous
 62
     4
100
AcDbLine
 10
15.9124961017
 20
7.8801213964
 30
0.0
 11
15.9123752104
 21
7.8802297143
 31
0.0
  0
LINE
  5
199
330
1F
100
AcDbEntity
  8
TRMODEL1
  6
Continuous
 62
     4
100
AcDbLine
 10
15.6629124331
 20
7.9052343807
 30
0.0
 11
15.6627186846
 21
7.9056848511
 31
0.0
  0
LINE
  5
19A
330
1F
100
AcDbEntity
  8
TRMODEL1
  6
Continuous
 62
     4
100
AcDbLine
 10
15.6627186846
 20
7.9056848511
 30
0.0
 11
15.6656689948
 21
7.907032798
 31
0.0
  0
LINE
  5
19B
330
1F
100
AcDbEntity
  8
TRMODEL1
  6
Continuous
 62
     4
100
AcDbLine
 10
15.6656689948
 20
7.907032798
 30
0.0
 11
15.6721166709
 21
7.9083716468
 31
0.0
  0
LINE
  5
19C
330
1F
100
AcDbEntity
  8
TRMODEL1
  6
Continuous
 62
     4
100
AcDbLine
 10
15.6721166709
 20
7.9083716468
 30
0.0
 11
15.6818304012
 21
7.9097122823
 31
0.0
  0
LINE
  5
19D
330
1F
100
AcDbEntity
  8
TRMODEL1
  6
Continuous
 62
     4
100
AcDbLine
 10
15.6818304012
 20
7.9097122823
 30
0.0
 11
15.6945764415
 21
7.9110615902
 31
0.0
  0
LINE
  5
19E
330
1F
100
AcDbEntity
  8
TRMODEL1
  6
Continuous
 62
     4
100
AcDbLine
 10
15.6945764415
 20
7.9110615902
 30
0.0
 11
15.7099523676
 21
7.9124137903
 31
0.0
  0
LINE
  5
19F
330
1F
100
AcDbEntity
  8
TRMODEL1
  6
Continuous
 62
     4
100
AcDbLine
 10
15.7099523676
 20
7.9124137903
 30
0.0
 11
15.7275556384
 21
7.9137571427
 31
0.0
  0
LINE
  5
1A0
330
1F
100
AcDbEntity
  8
TRMODEL1
  6
Continuous
 62
     4
100
AcDbLine
 10
15.7275556384
 20
7.9137571427
 30
0.0
 11
15.7468561638
 21
7.9150946267
 31
0.0
  0
LINE
  5
1A1
330
1F
100
AcDbEntity
  8
TRMODEL1
  6
Continuous
 62
     4
100
AcDbLine
 10
15.7468561638
 20
7.9150946267
 30
0.0
 11
15.767322139
 21
7.9164383342
 31
0.0
  0
LINE
  5
1A2
330
1F
100
AcDbEntity
  8
TRMODEL1
  6
Continuous
 62
     4
100
AcDbLine
 10
15.767322139
 20
7.9164383342
 30
0.0
 11
15.7883589178
 21
7.9177897555
 31
0.0
  0
LINE
  5
1A3
330
1F
100
AcDbEntity
  8
TRMODEL1
  6
Continuous
 62
     4
100
AcDbLine
 10
15.7883589178
 20
7.9177897555
 30
0.0
 11
15.8093721562
 21
7.9191377402
 31
0.0
  0
LINE
  5
1A4
330
1F
100
AcDbEntity
  8
TRMODEL1
  6
Continuous
 62
     4
100
AcDbLine
 10
15.8093721562
 20
7.9191377402
 30
0.0
 11
15.8297670064
 21
7.9204783147
 31
0.0
  0
LINE
  5
1A5
330
1F
100
AcDbEntity
  8
TRMODEL1
  6
Continuous
 62
     4
100
AcDbLine
 10
15.8297670064
 20
7.9204783147
 30
0.0
 11
15.8489486211
 21
7.9218193347
 31
0.0
  0
LINE
  5
1A6
330
1F
100
AcDbEntity
  8
TRMODEL1
  6
Continuous
 62
     4
100
AcDbLine
 10
15.8489486211
 20
7.9218193347
 30
0.0
 11
15.8663909597
 21
7.9231662824
 31
0.0
  0
LINE
  5
1A7
330
1F
100
AcDbEntity
  8
TRMODEL1
  6
Continuous
 62
     4
100
AcDbLine
 10
15.8663909597
 20
7.9231662824
 30
0.0
 11
15.881568953
 21
7.9245177154
 31
0.0
  0
LINE
  5
1A8
330
1F
100
AcDbEntity
  8
TRMODEL1
  6
Continuous
 62
     4
100
AcDbLine
 10
15.881568953
 20
7.9245177154
 30
0.0
 11
15.89408507
 21
7.9258624179
 31
0.0
  0
LINE
  5
1A9
330
1F
100
AcDbEntity
  8
TRMODEL1
  6
Continuous
 62
     4
100
AcDbLine
 10
15.89408507
 20
7.9258624179
 30
0.0
 11
15.9035425241
 21
7.9272000353
 31
0.0
  0
LINE
  5
1AA
330
1F
100
AcDbEntity
  8
TRMODEL1
  6
Continuous
 62
     4
100
AcDbLine
 10
15.9035425241
 20
7.9272000353
 30
0.0
 11
15.9097155942
 21
7.9285436032
 31
0.0
  0
LINE
  5
1AB
330
1F
100
AcDbEntity
  8
TRMODEL1
  6
Continuous
 62
     4
100
AcDbLine
 10
15.9097155942
 20
7.9285436032
 30
0.0
 11
15.9123808768
 21
7.9298962513
 31
0.0
  0
LINE
  5
1AC
330
1F
100
AcDbEntity
  8
TRMODEL1
  6
Continuous
 62
     4
100
AcDbLine
 10
15.9123808768
 20
7.9298962513
 30
0.0
 11
15.9121614552
 21
7.9302372231
 31
0.0
  0
LINE
  5
1AD
330
1F
100
AcDbEntity
  8
TRMODEL1
  6
Continuous
 62
     4
100
AcDbLine
 10
15.6638535881
 20
7.9561945813
 30
0.0
 11
15.6649190026
 21
7.9567989978
 31
0.0
  0
LINE
  5
1AE
330
1F
100
AcDbEntity
  8
TRMODEL1
  6
Continuous
 62
     4
100
AcDbLine
 10
15.6649190026
 20
7.9567989978
 30
0.0
 11
15.6707541483
 21
7.9581355125
 31
0.0
  0
LINE
  5
1AF
330
1F
100
AcDbEntity
  8
TRMODEL1
  6
Continuous
 62
     4
100
AcDbLine
 10
15.6707541483
 20
7.9581355125
 30
0.0
 11
15.6799398045
 21
7.959481807
 31
0.0
  0
LINE
  5
1B0
330
1F
100
AcDbEntity
  8
TRMODEL1
  6
Continuous
 62
     4
100
AcDbLine
 10
15.6799398045
 20
7.959481807
 30
0.0
 11
15.6921695441
 21
7.960833955
 31
0.0
  0
LINE
  5
1B1
330
1F
100
AcDbEntity
  8
TRMODEL1
  6
Continuous
 62
     4
100
AcDbLine
 10
15.6921695441
 20
7.960833955
 30
0.0
 11
15.7071364076
 21
7.9621806996
 31
0.0
  0
LINE
  5
1B2
330
1F
100
AcDbEntity
  8
TRMODEL1
  6
Continuous
 62
     4
100
AcDbLine
 10
15.7071364076
 20
7.9621806996
 30
0.0
 11
15.7243784757
 21
7.9635196613
 31
0.0
  0
LINE
  5
1B3
330
1F
100
AcDbEntity
  8
TRMODEL1
  6
Continuous
 62
     4
100
AcDbLine
 10
15.7243784757
 20
7.9635196613
 30
0.0
 11
15.7434318984
 21
7.9648606233
 31
0.0
  0
LINE
  5
1B4
330
1F
100
AcDbEntity
  8
TRMODEL1
  6
Continuous
 62
     4
100
AcDbLine
 10
15.7434318984
 20
7.9648606233
 30
0.0
 11
15.7637322408
 21
7.966210494
 31
0.0
  0
LINE
  5
1B5
330
1F
100
AcDbEntity
  8
TRMODEL1
  6
Continuous
 62
     4
100
AcDbLine
 10
15.7637322408
 20
7.966210494
 30
0.0
 11
15.7847149987
 21
7.9675629442
 31
0.0
  0
LINE
  5
1B6
330
1F
100
AcDbEntity
  8
TRMODEL1
  6
Continuous
 62
     4
100
AcDbLine
 10
15.7847149987
 20
7.9675629442
 30
0.0
 11
15.8057773781
 21
7.9689059598
 31
0.0
  0
LINE
  5
1B7
330
1F
100
AcDbEntity
  8
TRMODEL1
  6
Continuous
 62
     4
100
AcDbLine
 10
15.8057773781
 20
7.9689059598
 30
0.0
 11
15.8263160159
 21
7.9702420605
 31
0.0
  0
LINE
  5
1B8
330
1F
100
AcDbEntity
  8
TRMODEL1
  6
Continuous
 62
     4
100
AcDbLine
 10
15.8263160159
 20
7.9702420605
 30
0.0
 11
15.8457557536
 21
7.971586172
 31
0.0
  0
LINE
  5
1B9
330
1F
100
AcDbEntity
  8
TRMODEL1
  6
Continuous
 62
     4
100
AcDbLine
 10
15.8457557536
 20
7.971586172
 30
0.0
 11
15.8635225344
 21
7.9729387807
 31
0.0
  0
LINE
  5
1BA
330
1F
100
AcDbEntity
  8
TRMODEL1
  6
Continuous
 62
     4
100
AcDbLine
 10
15.8635225344
 20
7.9729387807
 30
0.0
 11
15.8791381809
 21
7.9742890783
 31
0.0
  0
LINE
  5
1BB
330
1F
100
AcDbEntity
  8
TRMODEL1
  6
Continuous
 62
     4
100
AcDbLine
 10
15.8791381809
 20
7.9742890783
 30
0.0
 11
15.892125198
 21
7.97562817
 31
0.0
  0
LINE
  5
1BC
330
1F
100
AcDbEntity
  8
TRMODEL1
  6
Continuous
 62
     4
100
AcDbLine
 10
15.892125198
 20
7.97562817
 30
0.0
 11
15.9021510218
 21
7.9769655485
 31
0.0
  0
LINE
  5
1BD
330
1F
100
AcDbEntity
  8
TRMODEL1
  6
Continuous
 62
     4
100
AcDbLine
 10
15.9021510218
 20
7.9769655485
 30
0.0
 11
15.9088854141
 21
7.9783145966
 31
0.0
  0
LINE
  5
1BE
330
1F
100
AcDbEntity
  8
TRMODEL1
  6
Continuous
 62
     4
100
AcDbLine
 10
15.9088854141
 20
7.9783145966
 30
0.0
 11
15.9121847068
 21
7.9796671125
 31
0.0
  0
LINE
  5
1BF
330
1F
100
AcDbEntity
  8
TRMODEL1
  6
Continuous
 62
     4
100
AcDbLine
 10
15.9121847068
 20
7.9796671125
 30
0.0
 11
15.912066063
 21
7.9802384756
 31
0.0
  0
LINE
  5
1C0
330
1F
100
AcDbEntity
  8
TRMODEL1
  6
Continuous
 62
     4
100
AcDbLine
 10
15.6636066001
 20
8.0060647453
 30
0.0
 11
15.6642483426
 21
8.0065619405
 31
0.0
  0
LINE
  5
1C1
330
1F
100
AcDbEntity
  8
TRMODEL1
  6
Continuous
 62
     4
100
AcDbLine
 10
15.6642483426
 20
8.0065619405
 30
0.0
 11
15.6695139272
 21
8.0079030646
 31
0.0
  0
LINE
  5
1C2
330
1F
100
AcDbEntity
  8
TRMODEL1
  6
Continuous
 62
     4
100
AcDbLine
 10
15.6695139272
 20
8.0079030646
 30
0.0
 11
15.678118714
 21
8.0092543349
 31
0.0
  0
LINE
  5
1C3
330
1F
100
AcDbEntity
  8
TRMODEL1
  6
Continuous
 62
     4
100
AcDbLine
 10
15.678118714
 20
8.0092543349
 30
0.0
 11
15.6898631983
 21
8.0106064415
 31
0.0
  0
LINE
  5
1C4
330
1F
100
AcDbEntity
  8
TRMODEL1
  6
Continuous
 62
     4
100
AcDbLine
 10
15.6898631983
 20
8.0106064415
 30
0.0
 11
15.7043716734
 21
8.0119484123
 31
0.0
  0
LINE
  5
1C5
330
1F
100
AcDbEntity
  8
TRMODEL1
  6
Continuous
 62
     4
100
AcDbLine
 10
15.7043716734
 20
8.0119484123
 30
0.0
 11
15.7212668569
 21
8.0132840835
 31
0.0
  0
LINE
  5
1C6
330
1F
100
AcDbEntity
  8
TRMODEL1
  6
Continuous
 62
     4
100
AcDbLine
 10
15.7212668569
 20
8.0132840835
 30
0.0
 11
15.7400364792
 21
8.0146279643
 31
0.0
  0
LINE
  5
1C7
330
1F
100
AcDbEntity
  8
TRMODEL1
  6
Continuous
 62
     4
100
AcDbLine
 10
15.7400364792
 20
8.0146279643
 30
0.0
 11
15.7601670777
 21
8.0159844823
 31
0.0
  0
LINE
  5
1C8
330
1F
100
AcDbEntity
  8
TRMODEL1
  6
Continuous
 62
     4
100
AcDbLine
 10
15.7601670777
 20
8.0159844823
 30
0.0
 11
15.7810716365
 21
8.0173373382
 31
0.0
  0
LINE
  5
1C9
330
1F
100
AcDbEntity
  8
TRMODEL1
  6
Continuous
 62
     4
100
AcDbLine
 10
15.7810716365
 20
8.0173373382
 30
0.0
 11
15.8021645434
 21
8.0186585023
 31
0.0
  0
LINE
  5
1CA
330
1F
100
AcDbEntity
  8
TRMODEL1
  6
Continuous
 62
     4
100
AcDbLine
 10
15.8021645434
 20
8.0186585023
 30
0.0
 11
15.8228411617
 21
8.0200025312
 31
0.0
  0
LINE
  5
1CB
330
1F
100
AcDbEntity
  8
TRMODEL1
  6
Continuous
 62
     4
100
AcDbLine
 10
15.8228411617
 20
8.0200025312
 30
0.0
 11
15.8562985651
 21
8.0223334648
 31
0.0
  0
LINE
  5
1CC
330
1F
100
AcDbEntity
  8
TRMODEL1
  6
Continuous
 62
     4
100
AcDbLine
 10
15.8557593228
 20
8.0704815019
 30
0.0
 11
15.8372433308
 21
8.0690286336
 31
0.0
  0
LINE
  5
1CD
330
1F
100
AcDbEntity
  8
TRMODEL1
  6
Continuous
 62
     4
100
AcDbLine
 10
15.8372433308
 20
8.0690286336
 30
0.0
 11
15.8173200238
 21
8.0677465425
 31
0.0
  0
LINE
  5
1CE
330
1F
100
AcDbEntity
  8
TRMODEL1
  6
Continuous
 62
     4
100
AcDbLine
 10
15.8173200238
 20
8.0677465425
 30
0.0
 11
15.796500796
 21
8.066414128
 31
0.0
  0
LINE
  5
1CF
330
1F
100
AcDbEntity
  8
TRMODEL1
  6
Continuous
 62
     4
100
AcDbLine
 10
15.796500796
 20
8.066414128
 30
0.0
 11
15.7754284208
 21
8.0650698657
 31
0.0
  0
LINE
  5
1D0
330
1F
100
AcDbEntity
  8
TRMODEL1
  6
Continuous
 62
     4
100
AcDbLine
 10
15.7754284208
 20
8.0650698657
 30
0.0
 11
15.7546758487
 21
8.0637221846
 31
0.0
  0
LINE
  5
1D1
330
1F
100
AcDbEntity
  8
TRMODEL1
  6
Continuous
 62
     4
100
AcDbLine
 10
15.7546758487
 20
8.0637221846
 30
0.0
 11
15.7348528683
 21
8.0623658728
 31
0.0
  0
LINE
  5
1D2
330
1F
100
AcDbEntity
  8
TRMODEL1
  6
Continuous
 62
     4
100
AcDbLine
 10
15.7348528683
 20
8.0623658728
 30
0.0
 11
15.7165385648
 21
8.0610196979
 31
0.0
  0
LINE
  5
1D3
330
1F
100
AcDbEntity
  8
TRMODEL1
  6
Continuous
 62
     4
100
AcDbLine
 10
15.7165385648
 20
8.0610196979
 30
0.0
 11
15.7002325064
 21
8.059683872
 31
0.0
  0
LINE
  5
1D4
330
1F
100
AcDbEntity
  8
TRMODEL1
  6
Continuous
 62
     4
100
AcDbLine
 10
15.7002325064
 20
8.059683872
 30
0.0
 11
15.6864325944
 21
8.0583425281
 31
0.0
  0
LINE
  5
1D5
330
1F
100
AcDbEntity
  8
TRMODEL1
  6
Continuous
 62
     4
100
AcDbLine
 10
15.6864325944
 20
8.0583425281
 30
0.0
 11
15.6754936007
 21
8.0569925449
 31
0.0
  0
LINE
  5
1D6
330
1F
100
AcDbEntity
  8
TRMODEL1
  6
Continuous
 62
     4
100
AcDbLine
 10
15.6754936007
 20
8.0569925449
 30
0.0
 11
15.6677693414
 21
8.0556424136
 31
0.0
  0
LINE
  5
1D7
330
1F
100
AcDbEntity
  8
TRMODEL1
  6
Continuous
 62
     4
100
AcDbLine
 10
15.6677693414
 20
8.0556424136
 30
0.0
 11
15.6634338504
 21
8.0542992952
 31
0.0
  0
LINE
  5
1D8
330
1F
100
AcDbEntity
  8
TRMODEL1
  6
Continuous
 62
     4
100
AcDbLine
 10
15.6634338504
 20
8.0542992952
 30
0.0
 11
15.6628757186
 21
8.0533337051
 31
0.0
  0
LINE
  5
1D9
330
1F
100
AcDbEntity
  8
TRMODEL1
  6
Continuous
 62
     4
100
AcDbLine
 10
15.9117085247
 20
8.0275199352
 30
0.0
 11
15.9116506804
 21
8.0274049457
 31
0.0
  0
LINE
  5
1DA
330
1F
100
AcDbEntity
  8
TRMODEL1
  6
Continuous
 62
     4
100
AcDbLine
 10
15.9116506804
 20
8.0274049457
 30
0.0
 11
15.9074116295
 21
8.0260519421
 31
0.0
  0
LINE
  5
1DB
330
1F
100
AcDbEntity
  8
TRMODEL1
  6
Continuous
 62
     4
100
AcDbLine
 10
15.9074116295
 20
8.0260519421
 30
0.0
 11
15.89977915
 21
8.0247022132
 31
0.0
  0
LINE
  5
1DC
330
1F
100
AcDbEntity
  8
TRMODEL1
  6
Continuous
 62
     4
100
AcDbLine
 10
15.89977915
 20
8.0247022132
 30
0.0
 11
15.8889233655
 21
8.0233636513
 31
0.0
  0
LINE
  5
1DD
330
1F
100
AcDbEntity
  8
TRMODEL1
  6
Continuous
 62
     4
100
AcDbLine
 10
15.8889233655
 20
8.0233636513
 30
0.0
 11
15.875196957
 21
8.0220255542
 31
0.0
  0
LINE
  5
1DE
330
1F
100
AcDbEntity
  8
TRMODEL1
  6
Continuous
 62
     4
100
AcDbLine
 10
15.875196957
 20
8.0220255542
 30
0.0
 11
15.8589550559
 21
8.0206774014
 31
0.0
  0
LINE
  5
1DF
330
1F
100
AcDbEntity
  8
TRMODEL1
  6
Continuous
 62
     4
100
AcDbLine
 10
15.8589550559
 20
8.0206774014
 30
0.0
 11
15.8406914235
 21
8.0193243166
 31
0.0
  0
LINE
  5
1E0
330
1F
100
AcDbEntity
  8
TRMODEL1
  6
Continuous
 62
     4
100
AcDbLine
 10
15.8406914235
 20
8.0193243166
 30
0.0
 11
15.8208996728
 21
8.0179799995
 31
0.0
  0
LINE
  5
1E1
330
1F
100
AcDbEntity
  8
TRMODEL1
  6
Continuous
 62
     4
100
AcDbLine
 10
15.8208996728
 20
8.0179799995
 30
0.0
 11
15.8001623583
 21
8.0166425646
 31
0.0
  0
LINE
  5
1E2
330
1F
100
AcDbEntity
  8
TRMODEL1
  6
Continuous
 62
     4
100
AcDbLine
 10
15.8001623583
 20
8.0166425646
 30
0.0
 11
15.7790631872
 21
8.0152985223
 31
0.0
  0
LINE
  5
1E3
330
1F
100
AcDbEntity
  8
TRMODEL1
  6
Continuous
 62
     4
100
AcDbLine
 10
15.7790631872
 20
8.0152985223
 30
0.0
 11
15.7582034103
 21
8.0139479488
 31
0.0
  0
LINE
  5
1E4
330
1F
100
AcDbEntity
  8
TRMODEL1
  6
Continuous
 62
     4
100
AcDbLine
 10
15.7582034103
 20
8.0139479488
 30
0.0
 11
15.7381840752
 21
8.0125986687
 31
0.0
  0
LINE
  5
1E5
330
1F
100
AcDbEntity
  8
TRMODEL1
  6
Continuous
 62
     4
100
AcDbLine
 10
15.7381840752
 20
8.0125986687
 30
0.0
 11
15.7195602917
 21
8.0112577259
 31
0.0
  0
LINE
  5
1E6
330
1F
100
AcDbEntity
  8
TRMODEL1
  6
Continuous
 62
     4
100
AcDbLine
 10
15.7195602917
 20
8.0112577259
 30
0.0
 11
15.7028868926
 21
8.009919296
 31
0.0
  0
LINE
  5
1E7
330
1F
100
AcDbEntity
  8
TRMODEL1
  6
Continuous
 62
     4
100
AcDbLine
 10
15.7028868926
 20
8.009919296
 30
0.0
 11
15.6886089177
 21
8.0085717439
 31
0.0
  0
LINE
  5
1E8
330
1F
100
AcDbEntity
  8
TRMODEL1
  6
Continuous
 62
     4
100
AcDbLine
 10
15.6886089177
 20
8.0085717439
 30
0.0
 11
15.6771697725
 21
8.0072179457
 31
0.0
  0
LINE
  5
1E9
330
1F
100
AcDbEntity
  8
TRMODEL1
  6
Continuous
 62
     4
100
AcDbLine
 10
15.6771697725
 20
8.0072179457
 30
0.0
 11
15.6688531338
 21
8.0058718176
 31
0.0
  0
LINE
  5
1EA
330
1F
100
AcDbEntity
  8
TRMODEL1
  6
Continuous
 62
     4
100
AcDbLine
 10
15.6688531338
 20
8.0058718176
 30
0.0
 11
15.663941805
 21
8.0045355441
 31
0.0
  0
LINE
  5
1EB
330
1F
100
AcDbEntity
  8
TRMODEL1
  6
Continuous
 62
     4
100
AcDbLine
 10
15.663941805
 20
8.0045355441
 30
0.0
 11
15.6625280265
 21
8.003194698
 31
0.0
  0
LINE
  5
1EC
330
1F
100
AcDbEntity
  8
TRMODEL1
  6
Continuous
 62
     4
100
AcDbLine
 10
15.6625280265
 20
8.003194698
 30
0.0
 11
15.6636128271
 21
8.0025203396
 31
0.0
  0
LINE
  5
1ED
330
1F
100
AcDbEntity
  8
TRMODEL1
  6
Continuous
 62
     4
100
AcDbLine
 10
15.9120562391
 20
7.9783361909
 30
0.0
 11
15.9120113312
 21
7.9776335641
 31
0.0
  0
LINE
  5
1EE
330
1F
100
AcDbEntity
  8
TRMODEL1
  6
Continuous
 62
     4
100
AcDbLine
 10
15.9120113312
 20
7.9776335641
 30
0.0
 11
15.9084015747
 21
7.9762813883
 31
0.0
  0
LINE
  5
1EF
330
1F
100
AcDbEntity
  8
TRMODEL1
  6
Continuous
 62
     4
100
AcDbLine
 10
15.9084015747
 20
7.9762813883
 30
0.0
 11
15.9013215197
 21
7.9749383101
 31
0.0
  0
LINE
  5
1F0
330
1F
100
AcDbEntity
  8
TRMODEL1
  6
Continuous
 62
     4
100
AcDbLine
 10
15.9013215197
 20
7.9749383101
 30
0.0
 11
15.8910198476
 21
7.9736004047
 31
0.0
  0
LINE
  5
1F1
330
1F
100
AcDbEntity
  8
TRMODEL1
  6
Continuous
 62
     4
100
AcDbLine
 10
15.8910198476
 20
7.9736004047
 30
0.0
 11
15.877747906
 21
7.9722552645
 31
0.0
  0
LINE
  5
1F2
330
1F
100
AcDbEntity
  8
TRMODEL1
  6
Continuous
 62
     4
100
AcDbLine
 10
15.877747906
 20
7.9722552645
 30
0.0
 11
15.8619223321
 21
7.970903535
 31
0.0
  0
LINE
  5
1F3
330
1F
100
AcDbEntity
  8
TRMODEL1
  6
Continuous
 62
     4
100
AcDbLine
 10
15.8619223321
 20
7.970903535
 30
0.0
 11
15.8439602468
 21
7.9695549115
 31
0.0
  0
LINE
  5
1F4
330
1F
100
AcDbEntity
  8
TRMODEL1
  6
Continuous
 62
     4
100
AcDbLine
 10
15.8439602468
 20
7.9695549115
 30
0.0
 11
15.8243998617
 21
7.9682149559
 31
0.0
  0
LINE
  5
1F5
330
1F
100
AcDbEntity
  8
TRMODEL1
  6
Continuous
 62
     4
100
AcDbLine
 10
15.8243998617
 20
7.9682149559
 30
0.0
 11
15.8037808651
 21
7.9668766103
 31
0.0
  0
LINE
  5
1F6
330
1F
100
AcDbEntity
  8
TRMODEL1
  6
Continuous
 62
     4
100
AcDbLine
 10
15.8037808651
 20
7.9668766103
 30
0.0
 11
15.7827019047
 21
7.9655282984
 31
0.0
  0
LINE
  5
1F7
330
1F
100
AcDbEntity
  8
TRMODEL1
  6
Continuous
 62
     4
100
AcDbLine
 10
15.7827019047
 20
7.9655282984
 30
0.0
 11
15.7617612398
 21
7.964175985
 31
0.0
  0
LINE
  5
1F8
330
1F
100
AcDbEntity
  8
TRMODEL1
  6
Continuous
 62
     4
100
AcDbLine
 10
15.7617612398
 20
7.964175985
 30
0.0
 11
15.741548843
 21
7.9628301412
 31
0.0
  0
LINE
  5
1F9
330
1F
100
AcDbEntity
  8
TRMODEL1
  6
Continuous
 62
     4
100
AcDbLine
 10
15.741548843
 20
7.9628301412
 30
0.0
 11
15.7226544262
 21
7.9614922019
 31
0.0
  0
LINE
  5
1FA
330
1F
100
AcDbEntity
  8
TRMODEL1
  6
Continuous
 62
     4
100
AcDbLine
 10
15.7226544262
 20
7.9614922019
 30
0.0
 11
15.7055958189
 21
7.960151224
 31
0.0
  0
LINE
  5
1FB
330
1F
100
AcDbEntity
  8
TRMODEL1
  6
Continuous
 62
     4
100
AcDbLine
 10
15.7055958189
 20
7.960151224
 30
0.0
 11
15.6908895107
 21
7.9588001513
 31
0.0
  0
LINE
  5
1FC
330
1F
100
AcDbEntity
  8
TRMODEL1
  6
Continuous
 62
     4
100
AcDbLine
 10
15.6908895107
 20
7.9588001513
 30
0.0
 11
15.6789175314
 21
7.9574499168
 31
0.0
  0
LINE
  5
1FD
330
1F
100
AcDbEntity
  8
TRMODEL1
  6
Continuous
 62
     4
100
AcDbLine
 10
15.6789175314
 20
7.9574499168
 30
0.0
 11
15.6700614567
 21
7.9561094127
 31
0.0
  0
LINE
  5
1FE
330
1F
100
AcDbEntity
  8
TRMODEL1
  6
Continuous
 62
     4
100
AcDbLine
 10
15.6700614567
 20
7.9561094127
 30
0.0
 11
15.6645296543
 21
7.9547705431
 31
0.0
  0
LINE
  5
1FF
330
1F
100
AcDbEntity
  8
TRMODEL1
  6
Continuous
 62
     4
100
AcDbLine
 10
15.6645296543
 20
7.9547705431
 30
0.0
 11
15.662527932
 21
7.9534217168
 31
0.0
  0
LINE
  5
200
330
1F
100
AcDbEntity
  8
TRMODEL1
  6
Continuous
 62
     4
100
AcDbLine
 10
15.662527932
 20
7.9534217168
 30
0.0
 11
15.6626284068
 21
7.9533332766
 31
0.0
  0
LINE
  5
201
330
1F
100
AcDbEntity
  8
TRMODEL1
  6
Continuous
 62
     4
100
AcDbLine
 10
15.9120984557
 20
7.9283298544
 30
0.0
 11
15.9122913036
 21
7.9278592258
 31
0.0
  0
LINE
  5
202
330
1F
100
AcDbEntity
  8
TRMODEL1
  6
Continuous
 62
     4
100
AcDbLine
 10
15.9122913036
 20
7.9278592258
 30
0.0
 11
15.9092639781
 21
7.926513446
 31
0.0
  0
LINE
  5
203
330
1F
100
AcDbEntity
  8
TRMODEL1
  6
Continuous
 62
     4
100
AcDbLine
 10
15.9092639781
 20
7.926513446
 30
0.0
 11
15.9027903039
 21
7.9251753025
 31
0.0
  0
LINE
  5
204
330
1F
100
AcDbEntity
  8
TRMODEL1
  6
Continuous
 62
     4
100
AcDbLine
 10
15.9027903039
 20
7.9251753025
 30
0.0
 11
15.8930080156
 21
7.9238334882
 31
0.0
  0
LINE
  5
205
330
1F
100
AcDbEntity
  8
TRMODEL1
  6
Continuous
 62
     4
100
AcDbLine
 10
15.8930080156
 20
7.9238334882
 30
0.0
 11
15.8802401271
 21
7.9224836857
 31
0.0
  0
LINE
  5
206
330
1F
100
AcDbEntity
  8
TRMODEL1
  6
Continuous
 62
     4
100
AcDbLine
 10
15.8802401271
 20
7.9224836857
 30
0.0
 11
15.8648104852
 21
7.9211343575
 31
0.0
  0
LINE
  5
207
330
1F
100
AcDbEntity
  8
TRMODEL1
  6
Continuous
 62
     4
100
AcDbLine
 10
15.8648104852
 20
7.9211343575
 30
0.0
 11
15.8471926301
 21
7.9197918862
 31
0.0
  0
LINE
  5
208
330
1F
100
AcDbEntity
  8
TRMODEL1
  6
Continuous
 62
     4
100
AcDbLine
 10
15.8471926301
 20
7.9197918862
 30
0.0
 11
15.8278613933
 21
7.9184518
 31
0.0
  0
LINE
  5
209
330
1F
100
AcDbEntity
  8
TRMODEL1
  6
Continuous
 62
     4
100
AcDbLine
 10
15.8278613933
 20
7.9184518
 30
0.0
 11
15.8073883045
 21
7.9171066147
 31
0.0
  0
LINE
  5
20A
330
1F
100
AcDbEntity
  8
TRMODEL1
  6
Continuous
 62
     4
100
AcDbLine
 10
15.8073883045
 20
7.9171066147
 30
0.0
 11
15.7863454225
 21
7.9157546881
 31
0.0
  0
LINE
  5
20B
330
1F
100
AcDbEntity
  8
TRMODEL1
  6
Continuous
 62
     4
100
AcDbLine
 10
15.7863454225
 20
7.9157546881
 30
0.0
 11
15.7653350918
 21
7.9144082757
 31
0.0
  0
LINE
  5
20C
330
1F
100
AcDbEntity
  8
TRMODEL1
  6
Continuous
 62
     4
100
AcDbLine
 10
15.7653350918
 20
7.9144082757
 30
0.0
 11
15.7449600613
 21
7.9130703662
 31
0.0
  0
LINE
  5
20D
330
1F
100
AcDbEntity
  8
TRMODEL1
  6
Continuous
 62
     4
100
AcDbLine
 10
15.7449600613
 20
7.9130703662
 30
0.0
 11
15.7257895445
 21
7.9117284587
 31
0.0
  0
LINE
  5
20E
330
1F
100
AcDbEntity
  8
TRMODEL1
  6
Continuous
 62
     4
100
AcDbLine
 10
15.7257895445
 20
7.9117284587
 30
0.0
 11
15.7083917303
 21
7.9103774022
 31
0.0
  0
LINE
  5
20F
330
1F
100
AcDbEntity
  8
TRMODEL1
  6
Continuous
 62
     4
100
AcDbLine
 10
15.7083917303
 20
7.9103774022
 30
0.0
 11
15.69323296
 21
7.9090259089
 31
0.0
  0
LINE
  5
210
330
1F
100
AcDbEntity
  8
TRMODEL1
  6
Continuous
 62
     4
100
AcDbLine
 10
15.69323296
 20
7.9090259089
 30
0.0
 11
15.6807788278
 21
7.9076846478
 31
0.0
  0
LINE
  5
211
330
1F
100
AcDbEntity
  8
TRMODEL1
  6
Continuous
 62
     4
100
AcDbLine
 10
15.6807788278
 20
7.9076846478
 30
0.0
 11
15.6713455522
 21
7.9063472702
 31
0.0
  0
LINE
  5
212
330
1F
100
AcDbEntity
  8
TRMODEL1
  6
Continuous
 62
     4
100
AcDbLine
 10
15.6713455522
 20
7.9063472702
 30
0.0
 11
15.6652471255
 21
7.9050017206
 31
0.0
  0
LINE
  5
213
330
1F
100
AcDbEntity
  8
TRMODEL1
  6
Continuous
 62
     4
100
AcDbLine
 10
15.6652471255
 20
7.9050017206
 30
0.0
 11
15.6626088568
 21
7.9036493121
 31
0.0
  0
LINE
  5
214
330
1F
100
AcDbEntity
  8
TRMODEL1
  6
Continuous
 62
     4
100
AcDbLine
 10
15.6626088568
 20
7.9036493121
 30
0.0
 11
15.662834011
 21
7.9033289629
 31
0.0
  0
LINE
  5
215
330
1F
100
AcDbEntity
  8
TRMODEL1
  6
Continuous
 62
     4
100
AcDbLine
 10
15.9113005256
 20
7.8774524646
 30
0.0
 11
15.9100475766
 21
7.8767505568
 31
0.0
  0
LINE
  5
216
330
1F
100
AcDbEntity
  8
TRMODEL1
  6
Continuous
 62
     4
100
AcDbLine
 10
15.9100475766
 20
7.8767505568
 30
0.0
 11
15.9041380492
 21
7.8754112417
 31
0.0
  0
LINE
  5
217
330
1F
100
AcDbEntity
  8
TRMODEL1
  6
Continuous
 62
     4
100
AcDbLine
 10
15.9041380492
 20
7.8754112417
 30
0.0
 11
15.894927782
 21
7.874062795
 31
0.0
  0
LINE
  5
218
330
1F
100
AcDbEntity
  8
TRMODEL1
  6
Continuous
 62
     4
100
AcDbLine
 10
15.894927782
 20
7.874062795
 30
0.0
 11
15.8826346935
 21
7.8727093214
 31
0.0
  0
LINE
  5
219
330
1F
100
AcDbEntity
  8
TRMODEL1
  6
Continuous
 62
     4
100
AcDbLine
 10
15.8826346935
 20
7.8727093214
 30
0.0
 11
15.8676489844
 21
7.8713644155
 31
0.0
  0
LINE
  5
21A
330
1F
100
AcDbEntity
  8
TRMODEL1
  6
Continuous
 62
     4
100
AcDbLine
 10
15.8676489844
 20
7.8713644155
 30
0.0
 11
15.8503621056
 21
7.8700283917
 31
0.0
  0
LINE
  5
21B
330
1F
100
AcDbEntity
  8
TRMODEL1
  6
Continuous
 62
     4
100
AcDbLine
 10
15.8503621056
 20
7.8700283917
 30
0.0
 11
15.8312964842
 21
7.8686863281
 31
0.0
  0
LINE
  5
21C
330
1F
100
AcDbEntity
  8
TRMODEL1
  6
Continuous
 62
     4
100
AcDbLine
 10
15.8312964842
 20
7.8686863281
 30
0.0
 11
15.8109756116
 21
7.8673346055
 31
0.0
  0
LINE
  5
21D
330
1F
100
AcDbEntity
  8
TRMODEL1
  6
Continuous
 62
     4
100
AcDbLine
 10
15.8109756116
 20
7.8673346055
 30
0.0
 11
15.7899905948
 21
7.8659828477
 31
0.0
  0
LINE
  5
21E
330
1F
100
AcDbEntity
  8
TRMODEL1
  6
Continuous
 62
     4
100
AcDbLine
 10
15.7899905948
 20
7.8659828477
 30
0.0
 11
15.7689321295
 21
7.8646423736
 31
0.0
  0
LINE
  5
21F
330
1F
100
AcDbEntity
  8
TRMODEL1
  6
Continuous
 62
     4
100
AcDbLine
 10
15.7689321295
 20
7.8646423736
 30
0.0
 11
15.7483992195
 21
7.8633057083
 31
0.0
  0
LINE
  5
220
330
1F
100
AcDbEntity
  8
TRMODEL1
  6
Continuous
 62
     4
100
AcDbLine
 10
15.7483992195
 20
7.8633057083
 30
0.0
 11
15.7289908154
 21
7.8619580528
 31
0.0
  0
LINE
  5
221
330
1F
100
AcDbEntity
  8
TRMODEL1
  6
Continuous
 62
     4
100
AcDbLine
 10
15.7289908154
 20
7.8619580528
 30
0.0
 11
15.7112387411
 21
7.8606055503
 31
0.0
  0
LINE
  5
222
330
1F
100
AcDbEntity
  8
TRMODEL1
  6
Continuous
 62
     4
100
AcDbLine
 10
15.7112387411
 20
7.8606055503
 30
0.0
 11
15.6956744614
 21
7.8592602584
 31
0.0
  0
LINE
  5
223
330
1F
100
AcDbEntity
  8
TRMODEL1
  6
Continuous
 62
     4
100
AcDbLine
 10
15.6956744614
 20
7.8592602584
 30
0.0
 11
15.6827091754
 21
7.8579220178
 31
0.0
  0
LINE
  5
224
330
1F
100
AcDbEntity
  8
TRMODEL1
  6
Continuous
 62
     4
100
AcDbLine
 10
15.6827091754
 20
7.8579220178
 30
0.0
 11
15.672752531
 21
7.856579509
 31
0.0
  0
LINE
  5
225
330
1F
100
AcDbEntity
  8
TRMODEL1
  6
Continuous
 62
     4
100
AcDbLine
 10
15.672752531
 20
7.856579509
 30
0.0
 11
15.6660438577
 21
7.8552286446
 31
0.0
  0
LINE
  5
226
330
1F
100
AcDbEntity
  8
TRMODEL1
  6
Continuous
 62
     4
100
AcDbLine
 10
15.6660438577
 20
7.8552286446
 30
0.0
 11
15.6628211681
 21
7.8538774555
 31
0.0
  0
LINE
  5
227
330
1F
100
AcDbEntity
  8
TRMODEL1
  6
Continuous
 62
     4
100
AcDbLine
 10
15.6628211681
 20
7.8538774555
 30
0.0
 11
15.662946887
 21
7.8533267421
 31
0.0
  0
LINE
  5
228
330
1F
100
AcDbEntity
  8
TRMODEL1
  6
Continuous
 62
     4
100
AcDbLine
 10
15.911322179
 20
7.8274442383
 30
0.0
 11
15.9107023932
 21
7.8269849819
 31
0.0
  0
LINE
  5
229
330
1F
100
AcDbEntity
  8
TRMODEL1
  6
Continuous
 62
     4
100
AcDbLine
 10
15.9107023932
 20
7.8269849819
 30
0.0
 11
15.9054102858
 21
7.8256427489
 31
0.0
  0
LINE
  5
22A
330
1F
100
AcDbEntity
  8
TRMODEL1
  6
Continuous
 62
     4
100
AcDbLine
 10
15.9054102858
 20
7.8256427489
 30
0.0
 11
15.8967346625
 21
7.8242914337
 31
0.0
  0
LINE
  5
22B
330
1F
100
AcDbEntity
  8
TRMODEL1
  6
Continuous
 62
     4
100
AcDbLine
 10
15.8967346625
 20
7.8242914337
 30
0.0
 11
15.8849677766
 21
7.8229418748
 31
0.0
  0
LINE
  5
22C
330
1F
100
AcDbEntity
  8
TRMODEL1
  6
Continuous
 62
     4
100
AcDbLine
 10
15.8849677766
 20
7.8229418748
 30
0.0
 11
15.8704024783
 21
7.8216018408
 31
0.0
  0
LINE
  5
22D
330
1F
100
AcDbEntity
  8
TRMODEL1
  6
Continuous
 62
     4
100
AcDbLine
 10
15.8704024783
 20
7.8216018408
 30
0.0
 11
15.8534908094
 21
7.8202626195
 31
0.0
  0
LINE
  5
22E
330
1F
100
AcDbEntity
  8
TRMODEL1
  6
Continuous
 62
     4
100
AcDbLine
 10
15.8534908094
 20
7.8202626195
 30
0.0
 11
15.8346867617
 21
7.8189130105
 31
0.0
  0
LINE
  5
22F
330
1F
100
AcDbEntity
  8
TRMODEL1
  6
Continuous
 62
     4
100
AcDbLine
 10
15.8346867617
 20
7.8189130105
 30
0.0
 11
15.8145475835
 21
7.8175619217
 31
0.0
  0
LINE
  5
230
330
1F
100
AcDbEntity
  8
TRMODEL1
  6
Continuous
 62
     4
100
AcDbLine
 10
15.8145475835
 20
7.8175619217
 30
0.0
 11
15.793630857
 21
7.8162187329
 31
0.0
  0
LINE
  5
231
330
1F
100
AcDbEntity
  8
TRMODEL1
  6
Continuous
 62
     4
100
AcDbLine
 10
15.793630857
 20
7.8162187329
 30
0.0
 11
15.7725405434
 21
7.8148799341
 31
0.0
  0
LINE
  5
232
330
1F
100
AcDbEntity
  8
TRMODEL1
  6
Continuous
 62
     4
100
AcDbLine
 10
15.7725405434
 20
7.8148799341
 30
0.0
 11
15.7518810644
 21
7.8135364388
 31
0.0
  0
LINE
  5
233
330
1F
100
AcDbEntity
  8
TRMODEL1
  6
Continuous
 62
     4
100
AcDbLine
 10
15.7518810644
 20
7.8135364388
 30
0.0
 11
15.7322303577
 21
7.8121845679
 31
0.0
  0
LINE
  5
234
330
1F
100
AcDbEntity
  8
TRMODEL1
  6
Continuous
 62
     4
100
AcDbLine
 10
15.7322303577
 20
7.8121845679
 30
0.0
 11
15.7141653791
 21
7.8108354378
 31
0.0
  0
LINE
  5
235
330
1F
100
AcDbEntity
  8
TRMODEL1
  6
Continuous
 62
     4
100
AcDbLine
 10
15.7141653791
 20
7.8108354378
 30
0.0
 11
15.6981757907
 21
7.8094951722
 31
0.0
  0
LINE
  5
236
330
1F
100
AcDbEntity
  8
TRMODEL1
  6
Continuous
 62
     4
100
AcDbLine
 10
15.6981757907
 20
7.8094951722
 30
0.0
 11
15.6847504605
 21
7.8081559569
 31
0.0
  0
LINE
  5
237
330
1F
100
AcDbEntity
  8
TRMODEL1
  6
Continuous
 62
     4
100
AcDbLine
 10
15.6847504605
 20
7.8081559569
 30
0.0
 11
15.6742337332
 21
7.8068090971
 31
0.0
  0
LINE
  5
238
330
1F
100
AcDbEntity
  8
TRMODEL1
  6
Continuous
 62
     4
100
AcDbLine
 10
15.6742337332
 20
7.8068090971
 30
0.0
 11
15.6669683023
 21
7.8054583009
 31
0.0
  0
LINE
  5
239
330
1F
100
AcDbEntity
  8
TRMODEL1
  6
Continuous
 62
     4
100
AcDbLine
 10
15.6669683023
 20
7.8054583009
 30
0.0
 11
15.6631142528
 21
7.8041126877
 31
0.0
  0
LINE
  5
23A
330
1F
100
AcDbEntity
  8
TRMODEL1
  6
Continuous
 62
     4
100
AcDbLine
 10
15.6631142528
 20
7.8041126877
 30
0.0
 11
15.6629487997
 21
7.8033315408
 31
0.0
  0
LINE
  5
23B
330
1F
100
AcDbEntity
  8
TRMODEL1
  6
Continuous
 62
     4
100
AcDbLine
 10
15.7057437978
 20
7.8304987776
 30
0.0
 11
15.7064625352
 21
7.8311505318
 31
0.0
  0
LINE
  5
23C
330
1F
100
AcDbEntity
  8
TRMODEL1
  6
Continuous
 62
     4
100
AcDbLine
 10
15.7064625352
 20
7.8311505318
 30
0.0
 11
15.714168286
 21
7.833216801
 31
0.0
  0
LINE
  5
23D
330
1F
100
AcDbEntity
  8
TRMODEL1
  6
Continuous
 62
     4
100
AcDbLine
 10
15.714168286
 20
7.833216801
 30
0.0
 11
15.7268185831
 21
7.8352865171
 31
0.0
  0
LINE
  5
23E
330
1F
100
AcDbEntity
  8
TRMODEL1
  6
Continuous
 62
     4
100
AcDbLine
 10
15.7268185831
 20
7.8352865171
 30
0.0
 11
15.7435282789
 21
7.8373533857
 31
0.0
  0
LINE
  5
23F
330
1F
100
AcDbEntity
  8
TRMODEL1
  6
Continuous
 62
     4
100
AcDbLine
 10
15.7435282789
 20
7.8373533857
 30
0.0
 11
15.7631786149
 21
7.8394197477
 31
0.0
  0
LINE
  5
240
330
1F
100
AcDbEntity
  8
TRMODEL1
  6
Continuous
 62
     4
100
AcDbLine
 10
15.7631786149
 20
7.8394197477
 30
0.0
 11
15.7844992393
 21
7.8414895095
 31
0.0
  0
LINE
  5
241
330
1F
100
AcDbEntity
  8
TRMODEL1
  6
Continuous
 62
     4
100
AcDbLine
 10
15.7844992393
 20
7.8414895095
 30
0.0
 11
15.8059890171
 21
7.8435562385
 31
0.0
  0
LINE
  5
242
330
1F
100
AcDbEntity
  8
TRMODEL1
  6
Continuous
 62
     4
100
AcDbLine
 10
15.8059890171
 20
7.8435562385
 30
0.0
 11
15.8262381563
 21
7.8456227046
 31
0.0
  0
LINE
  5
243
330
1F
100
AcDbEntity
  8
TRMODEL1
  6
Continuous
 62
     4
100
AcDbLine
 10
15.8262381563
 20
7.8456227046
 30
0.0
 11
15.8439166774
 21
7.8476924897
 31
0.0
  0
LINE
  5
244
330
1F
100
AcDbEntity
  8
TRMODEL1
  6
Continuous
 62
     4
100
AcDbLine
 10
15.8439166774
 20
7.8476924897
 30
0.0
 11
15.8577779815
 21
7.8497590906
 31
0.0
  0
LINE
  5
245
330
1F
100
AcDbEntity
  8
TRMODEL1
  6
Continuous
 62
     4
100
AcDbLine
 10
15.8577779815
 20
7.8497590906
 30
0.0
 11
15.8669330442
 21
7.8518256723
 31
0.0
  0
LINE
  5
246
330
1F
100
AcDbEntity
  8
TRMODEL1
  6
Continuous
 62
     4
100
AcDbLine
 10
15.8669330442
 20
7.8518256723
 30
0.0
 11
15.8689997996
 21
7.8529434287
 31
0.0
  0
LINE
  5
247
330
1F
100
AcDbEntity
  8
TRMODEL1
  6
Continuous
 62
     4
100
AcDbLine
 10
15.7055591215
 20
7.8806535391
 30
0.0
 11
15.7056320865
 21
7.8807733538
 31
0.0
  0
LINE
  5
248
330
1F
100
AcDbEntity
  8
TRMODEL1
  6
Continuous
 62
     4
100
AcDbLine
 10
15.7056320865
 20
7.8807733538
 30
0.0
 11
15.7123777017
 21
7.8828406877
 31
0.0
  0
LINE
  5
249
330
1F
100
AcDbEntity
  8
TRMODEL1
  6
Continuous
 62
     4
100
AcDbLine
 10
15.7123777017
 20
7.8828406877
 30
0.0
 11
15.7241869922
 21
7.8849101413
 31
0.0
  0
LINE
  5
24A
330
1F
100
AcDbEntity
  8
TRMODEL1
  6
Continuous
 62
     4
100
AcDbLine
 10
15.7241869922
 20
7.8849101413
 30
0.0
 11
15.7402227916
 21
7.8869762102
 31
0.0
  0
LINE
  5
24B
330
1F
100
AcDbEntity
  8
TRMODEL1
  6
Continuous
 62
     4
100
AcDbLine
 10
15.7402227916
 20
7.8869762102
 30
0.0
 11
15.7594400778
 21
7.8890437298
 31
0.0
  0
LINE
  5
24C
330
1F
100
AcDbEntity
  8
TRMODEL1
  6
Continuous
 62
     4
100
AcDbLine
 10
15.7594400778
 20
7.8890437298
 30
0.0
 11
15.7805639092
 21
7.8911130496
 31
0.0
  0
LINE
  5
24D
330
1F
100
AcDbEntity
  8
TRMODEL1
  6
Continuous
 62
     4
100
AcDbLine
 10
15.7805639092
 20
7.8911130496
 30
0.0
 11
15.8021174424
 21
7.8931790691
 31
0.0
  0
LINE
  5
24E
330
1F
100
AcDbEntity
  8
TRMODEL1
  6
Continuous
 62
     4
100
AcDbLine
 10
15.8021174424
 20
7.8931790691
 30
0.0
 11
15.8227108675
 21
7.8952467863
 31
0.0
  0
LINE
  5
24F
330
1F
100
AcDbEntity
  8
TRMODEL1
  6
Continuous
 62
     4
100
AcDbLine
 10
15.8227108675
 20
7.8952467863
 30
0.0
 11
15.8409500048
 21
7.8973159499
 31
0.0
  0
LINE
  5
250
330
1F
100
AcDbEntity
  8
TRMODEL1
  6
Continuous
 62
     4
100
AcDbLine
 10
15.8409500048
 20
7.8973159499
 30
0.0
 11
15.8555761179
 21
7.8993819312
 31
0.0
  0
LINE
  5
251
330
1F
100
AcDbEntity
  8
TRMODEL1
  6
Continuous
 62
     4
100
AcDbLine
 10
15.8555761179
 20
7.8993819312
 30
0.0
 11
15.8656530472
 21
7.9014498579
 31
0.0
  0
LINE
  5
252
330
1F
100
AcDbEntity
  8
TRMODEL1
  6
Continuous
 62
     4
100
AcDbLine
 10
15.8656530472
 20
7.9014498579
 30
0.0
 11
15.8694049906
 21
7.903059382
 31
0.0
  0
LINE
  5
253
330
1F
100
AcDbEntity
  8
TRMODEL1
  6
Continuous
 62
     4
100
AcDbLine
 10
15.7052940332
 20
7.9305071763
 30
0.0
 11
15.7107594205
 21
7.9324653478
 31
0.0
  0
LINE
  5
254
330
1F
100
AcDbEntity
  8
TRMODEL1
  6
Continuous
 62
     4
100
AcDbLine
 10
15.7107594205
 20
7.9324653478
 30
0.0
 11
15.721693172
 21
7.9345332245
 31
0.0
  0
LINE
  5
255
330
1F
100
AcDbEntity
  8
TRMODEL1
  6
Continuous
 62
     4
100
AcDbLine
 10
15.721693172
 20
7.9345332245
 30
0.0
 11
15.7370244156
 21
7.9365992106
 31
0.0
  0
LINE
  5
256
330
1F
100
AcDbEntity
  8
TRMODEL1
  6
Continuous
 62
     4
100
AcDbLine
 10
15.7370244156
 20
7.9365992106
 30
0.0
 11
15.755771667
 21
7.9386684169
 31
0.0
  0
LINE
  5
257
330
1F
100
AcDbEntity
  8
TRMODEL1
  6
Continuous
 62
     4
100
AcDbLine
 10
15.755771667
 20
7.9386684169
 30
0.0
 11
15.7766386863
 21
7.9407360886
 31
0.0
  0
LINE
  5
258
330
1F
100
AcDbEntity
  8
TRMODEL1
  6
Continuous
 62
     4
100
AcDbLine
 10
15.7766386863
 20
7.9407360886
 30
0.0
 11
15.7982155848
 21
7.9428021148
 31
0.0
  0
LINE
  5
259
330
1F
100
AcDbEntity
  8
TRMODEL1
  6
Continuous
 62
     4
100
AcDbLine
 10
15.7982155848
 20
7.9428021148
 30
0.0
 11
15.8191102286
 21
7.9448714714
 31
0.0
  0
LINE
  5
25A
330
1F
100
AcDbEntity
  8
TRMODEL1
  6
Continuous
 62
     4
100
AcDbLine
 10
15.8191102286
 20
7.9448714714
 30
0.0
 11
15.8378600712
 21
7.9469389499
 31
0.0
  0
LINE
  5
25B
330
1F
100
AcDbEntity
  8
TRMODEL1
  6
Continuous
 62
     4
100
AcDbLine
 10
15.8378600712
 20
7.9469389499
 30
0.0
 11
15.8532239301
 21
7.9490050273
 31
0.0
  0
LINE
  5
25C
330
1F
100
AcDbEntity
  8
TRMODEL1
  6
Continuous
 62
     4
100
AcDbLine
 10
15.8532239301
 20
7.9490050273
 30
0.0
 11
15.864198989
 21
7.9510745119
 31
0.0
  0
LINE
  5
25D
330
1F
100
AcDbEntity
  8
TRMODEL1
  6
Continuous
 62
     4
100
AcDbLine
 10
15.864198989
 20
7.9510745119
 30
0.0
 11
15.8694233434
 21
7.9529343338
 31
0.0
  0
LINE
  5
25E
330
1F
100
AcDbEntity
  8
TRMODEL1
  6
Continuous
 62
     4
100
AcDbLine
 10
15.7058946227
 20
7.9806128171
 30
0.0
 11
15.7093117255
 21
7.9820895174
 31
0.0
  0
LINE
  5
25F
330
1F
100
AcDbEntity
  8
TRMODEL1
  6
Continuous
 62
     4
100
AcDbLine
 10
15.7093117255
 20
7.9820895174
 30
0.0
 11
15.7193446968
 21
7.9841560781
 31
0.0
  0
LINE
  5
260
330
1F
100
AcDbEntity
  8
TRMODEL1
  6
Continuous
 62
     4
100
AcDbLine
 10
15.7193446968
 20
7.9841560781
 30
0.0
 11
15.7339430901
 21
7.9862227009
 31
0.0
  0
LINE
  5
261
330
1F
100
AcDbEntity
  8
TRMODEL1
  6
Continuous
 62
     4
100
AcDbLine
 10
15.7339430901
 20
7.9862227009
 30
0.0
 11
15.7521684931
 21
7.9882924821
 31
0.0
  0
LINE
  5
262
330
1F
100
AcDbEntity
  8
TRMODEL1
  6
Continuous
 62
     4
100
AcDbLine
 10
15.7521684931
 20
7.9882924821
 30
0.0
 11
15.7727355615
 21
7.9903589297
 31
0.0
  0
LINE
  5
263
330
1F
100
AcDbEntity
  8
TRMODEL1
  6
Continuous
 62
     4
100
AcDbLine
 10
15.7727355615
 20
7.9903589297
 30
0.0
 11
15.794295407
 21
7.9924256836
 31
0.0
  0
LINE
  5
264
330
1F
100
AcDbEntity
  8
TRMODEL1
  6
Continuous
 62
     4
100
AcDbLine
 10
15.794295407
 20
7.9924256836
 30
0.0
 11
15.8154314969
 21
7.9944954357
 31
0.0
  0
LINE
  5
265
330
1F
100
AcDbEntity
  8
TRMODEL1
  6
Continuous
 62
     4
100
AcDbLine
 10
15.8154314969
 20
7.9944954357
 30
0.0
 11
15.8346563111
 21
7.9965617816
 31
0.0
  0
LINE
  5
266
330
1F
100
AcDbEntity
  8
TRMODEL1
  6
Continuous
 62
     4
100
AcDbLine
 10
15.8346563111
 20
7.9965617816
 30
0.0
 11
15.850728481
 21
7.998628678
 31
0.0
  0
LINE
  5
267
330
1F
100
AcDbEntity
  8
TRMODEL1
  6
Continuous
 62
     4
100
AcDbLine
 10
15.850728481
 20
7.998628678
 30
0.0
 11
15.8625694446
 21
8.0006983786
 31
0.0
  0
LINE
  5
268
330
1F
100
AcDbEntity
  8
TRMODEL1
  6
Continuous
 62
     4
100
AcDbLine
 10
15.8625694446
 20
8.0006983786
 30
0.0
 11
15.8693519922
 21
8.002764634
 31
0.0
  0
LINE
  5
269
330
1F
100
AcDbEntity
  8
TRMODEL1
  6
Continuous
 62
     4
100
AcDbLine
 10
15.8693519922
 20
8.002764634
 30
0.0
 11
15.8695346586
 21
8.0030545599
 31
0.0
  0
LINE
  5
26A
330
1F
100
AcDbEntity
  8
TRMODEL1
  6
Continuous
 62
     4
100
AcDbLine
 10
15.7059202981
 20
8.030557683
 30
0.0
 11
15.708036426
 21
8.031712942
 31
0.0
  0
LINE
  5
26B
330
1F
100
AcDbEntity
  8
TRMODEL1
  6
Continuous
 62
     4
100
AcDbLine
 10
15.708036426
 20
8.031712942
 30
0.0
 11
15.7171481956
 21
8.0337789157
 31
0.0
  0
LINE
  5
26C
330
1F
100
AcDbEntity
  8
TRMODEL1
  6
Continuous
 62
     4
100
AcDbLine
 10
15.7171481956
 20
8.0337789157
 30
0.0
 11
15.7309884374
 21
8.0358470046
 31
0.0
  0
LINE
  5
26D
330
1F
100
AcDbEntity
  8
TRMODEL1
  6
Continuous
 62
     4
100
AcDbLine
 10
15.7309884374
 20
8.0358470046
 30
0.0
 11
15.7486368237
 21
8.0379157439
 31
0.0
  0
LINE
  5
26E
330
1F
100
AcDbEntity
  8
TRMODEL1
  6
Continuous
 62
     4
100
AcDbLine
 10
15.7486368237
 20
8.0379157439
 30
0.0
 11
15.7688632761
 21
8.0399816153
 31
0.0
  0
LINE
  5
26F
330
1F
100
AcDbEntity
  8
TRMODEL1
  6
Continuous
 62
     4
100
AcDbLine
 10
15.7688632761
 20
8.0399816153
 30
0.0
 11
15.7903764509
 21
8.0420508014
 31
0.0
  0
LINE
  5
270
330
1F
100
AcDbEntity
  8
TRMODEL1
  6
Continuous
 62
     4
100
AcDbLine
 10
15.7903764509
 20
8.0420508014
 30
0.0
 11
15.81167996
 21
8.0441181113
 31
0.0
  0
LINE
  5
271
330
1F
100
AcDbEntity
  8
TRMODEL1
  6
Continuous
 62
     4
100
AcDbLine
 10
15.81167996
 20
8.0441181113
 30
0.0
 11
15.8313398963
 21
8.0461841895
 31
0.0
  0
LINE
  5
272
330
1F
100
AcDbEntity
  8
TRMODEL1
  6
Continuous
 62
     4
100
AcDbLine
 10
15.8313398963
 20
8.0461841895
 30
0.0
 11
15.8480970751
 21
8.0482531658
 31
0.0
  0
LINE
  5
273
330
1F
100
AcDbEntity
  8
TRMODEL1
  6
Continuous
 62
     4
100
AcDbLine
 10
15.9119385868
 20
7.7310024493
 30
0.0
 11
15.8908234505
 21
7.743278601
 31
0.0
  0
LINE
  5
274
330
1F
100
AcDbEntity
  8
TRMODEL1
  6
Continuous
 62
     4
100
AcDbLine
 10
15.8908234505
 20
7.743278601
 30
0.0
 11
15.8719710368
 21
7.7542778768
 31
0.0
  0
LINE
  5
275
330
1F
100
AcDbEntity
  8
TRMODEL1
  6
Continuous
 62
     4
100
AcDbLine
 10
15.9116909909
 20
7.6811480104
 30
0.0
 11
15.8906189454
 21
7.6933936441
 31
0.0
  0
LINE
  5
276
330
1F
100
AcDbEntity
  8
TRMODEL1
  6
Continuous
 62
     4
100
AcDbLine
 10
15.8906189454
 20
7.6933936441
 30
0.0
 11
15.871969929
 21
7.7042772895
 31
0.0
  0
LINE
  5
277
330
1F
100
AcDbEntity
  8
TRMODEL1
  6
Continuous
 62
     4
100
AcDbLine
 10
15.8697098135
 20
7.7529574705
 30
0.0
 11
15.8907430062
 21
7.7652394782
 31
0.0
  0
LINE
  5
278
330
1F
100
AcDbEntity
  8
TRMODEL1
  6
Continuous
 62
     4
100
AcDbLine
 10
15.8907430062
 20
7.7652394782
 30
0.0
 11
15.9118540639
 21
7.777521931
 31
0.0
  0
LINE
  5
279
330
1F
100
AcDbEntity
  8
TRMODEL1
  6
Continuous
 62
     4
100
AcDbLine
 10
15.8697508022
 20
7.702981635
 30
0.0
 11
15.890719863
 21
7.7152245854
 31
0.0
  0
LINE
  5
27A
330
1F
100
AcDbEntity
  8
TRMODEL1
  6
Continuous
 62
     4
100
AcDbLine
 10
15.890719863
 20
7.7152245854
 30
0.0
 11
15.9117674614
 21
7.7274685933
 31
0.0
  0
LINE
  5
27B
330
1F
100
AcDbEntity
  8
TRMODEL1
  6
Continuous
 62
     4
100
AcDbLine
 10
15.9006763583
 20
7.6767768488
 30
0.0
 11
15.9024310538
 21
7.6770140251
 31
0.0
  0
LINE
  5
27C
330
1F
100
AcDbEntity
  8
TRMODEL1
  6
Continuous
 62
     4
100
AcDbLine
 10
15.9024310538
 20
7.6770140251
 30
0.0
 11
15.9090716264
 21
7.6783589898
 31
0.0
  0
LINE
  5
27D
330
1F
100
AcDbEntity
  8
TRMODEL1
  6
Continuous
 62
     4
100
AcDbLine
 10
15.9090716264
 20
7.6783589898
 30
0.0
 11
15.912222942
 21
7.6797124126
 31
0.0
  0
LINE
  5
27E
330
1F
100
AcDbEntity
  8
TRMODEL1
  6
Continuous
 62
     4
100
AcDbLine
 10
15.912222942
 20
7.6797124126
 30
0.0
 11
15.9120753325
 21
7.6802389075
 31
0.0
  0
LINE
  5
27F
330
1F
100
AcDbEntity
  8
TRMODEL1
  6
Continuous
 62
     4
100
AcDbLine
 10
15.9120557547
 20
7.6783322947
 30
0.0
 11
15.9120866239
 21
7.6776755104
 31
0.0
  0
LINE
  5
280
330
1F
100
AcDbEntity
  8
TRMODEL1
  6
Continuous
 62
     4
100
AcDbLine
 10
15.9120866239
 20
7.6776755104
 30
0.0
 11
15.9116108
 21
7.6774928762
 31
0.0
  0
LINE
  5
281
330
1F
100
AcDbEntity
  8
TRMODEL1
  6
Continuous
 62
     4
100
AcDbLine
 10
15.7051425372
 20
7.7304999256
 30
0.0
 11
15.6841458169
 21
7.7182532377
 31
0.0
  0
LINE
  5
282
330
1F
100
AcDbEntity
  8
TRMODEL1
  6
Continuous
 62
     4
100
AcDbLine
 10
15.6841458169
 20
7.7182532377
 30
0.0
 11
15.6630801076
 21
7.7060076685
 31
0.0
  0
LINE
  5
283
330
1F
100
AcDbEntity
  8
TRMODEL1
  6
Continuous
 62
     4
100
AcDbLine
 10
15.705421106
 20
7.7806622493
 30
0.0
 11
15.6843953169
 21
7.7683887367
 31
0.0
  0
LINE
  5
284
330
1F
100
AcDbEntity
  8
TRMODEL1
  6
Continuous
 62
     4
100
AcDbLine
 10
15.6843953169
 20
7.7683887367
 30
0.0
 11
15.6632807732
 21
7.7561160233
 31
0.0
  0
LINE
  5
285
330
1F
100
AcDbEntity
  8
TRMODEL1
  6
Continuous
 62
     4
100
AcDbLine
 10
15.6630509263
 20
7.7025832673
 30
0.0
 11
15.6841310679
 21
7.6903180152
 31
0.0
  0
LINE
  5
286
330
1F
100
AcDbEntity
  8
TRMODEL1
  6
Continuous
 62
     4
100
AcDbLine
 10
15.6841310679
 20
7.6903180152
 30
0.0
 11
15.7030466427
 21
7.6792784016
 31
0.0
  0
LINE
  5
287
330
1F
100
AcDbEntity
  8
TRMODEL1
  6
Continuous
 62
     4
100
AcDbLine
 10
15.6633166395
 20
7.7524333679
 30
0.0
 11
15.6844145975
 21
7.7401617157
 31
0.0
  0
LINE
  5
288
330
1F
100
AcDbEntity
  8
TRMODEL1
  6
Continuous
 62
     4
100
AcDbLine
 10
15.6844145975
 20
7.7401617157
 30
0.0
 11
15.7030482322
 21
7.7292783873
 31
0.0
  0
LINE
  5
289
330
1F
100
AcDbEntity
  8
TRMODEL1
  6
Continuous
 62
     4
100
AcDbLine
 10
15.6636113686
 20
7.7060602178
 30
0.0
 11
15.6643854905
 21
7.7066131986
 31
0.0
  0
LINE
  5
28A
330
1F
100
AcDbEntity
  8
TRMODEL1
  6
Continuous
 62
     4
100
AcDbLine
 10
15.6643854905
 20
7.7066131986
 30
0.0
 11
15.6697474652
 21
7.7079499363
 31
0.0
  0
LINE
  5
28B
330
1F
100
AcDbEntity
  8
TRMODEL1
  6
Continuous
 62
     4
100
AcDbLine
 10
15.6697474652
 20
7.7079499363
 30
0.0
 11
15.6784888236
 21
7.7092975254
 31
0.0
  0
LINE
  5
28C
330
1F
100
AcDbEntity
  8
TRMODEL1
  6
Continuous
 62
     4
100
AcDbLine
 10
15.6784888236
 20
7.7092975254
 30
0.0
 11
15.690315351
 21
7.710649873
 31
0.0
  0
LINE
  5
28D
330
1F
100
AcDbEntity
  8
TRMODEL1
  6
Continuous
 62
     4
100
AcDbLine
 10
15.690315351
 20
7.710649873
 30
0.0
 11
15.7049323407
 21
7.7119953643
 31
0.0
  0
LINE
  5
28E
330
1F
100
AcDbEntity
  8
TRMODEL1
  6
Continuous
 62
     4
100
AcDbLine
 10
15.7049323407
 20
7.7119953643
 30
0.0
 11
15.7218869054
 21
7.7133337729
 31
0.0
  0
LINE
  5
28F
330
1F
100
AcDbEntity
  8
TRMODEL1
  6
Continuous
 62
     4
100
AcDbLine
 10
15.7218869054
 20
7.7133337729
 30
0.0
 11
15.7407241126
 21
7.7146758131
 31
0.0
  0
LINE
  5
290
330
1F
100
AcDbEntity
  8
TRMODEL1
  6
Continuous
 62
     4
100
AcDbLine
 10
15.7407241126
 20
7.7146758131
 30
0.0
 11
15.7608848666
 21
7.7160267033
 31
0.0
  0
LINE
  5
291
330
1F
100
AcDbEntity
  8
TRMODEL1
  6
Continuous
 62
     4
100
AcDbLine
 10
15.7608848666
 20
7.7160267033
 30
0.0
 11
15.7818100725
 21
7.717378225
 31
0.0
  0
LINE
  5
292
330
1F
100
AcDbEntity
  8
TRMODEL1
  6
Continuous
 62
     4
100
AcDbLine
 10
15.7818100725
 20
7.717378225
 30
0.0
 11
15.8028971358
 21
7.7187200273
 31
0.0
  0
LINE
  5
293
330
1F
100
AcDbEntity
  8
TRMODEL1
  6
Continuous
 62
     4
100
AcDbLine
 10
15.8028971358
 20
7.7187200273
 30
0.0
 11
15.8235428203
 21
7.7200565911
 31
0.0
  0
LINE
  5
294
330
1F
100
AcDbEntity
  8
TRMODEL1
  6
Continuous
 62
     4
100
AcDbLine
 10
15.8235428203
 20
7.7200565911
 30
0.0
 11
15.8431680594
 21
7.7214019723
 31
0.0
  0
LINE
  5
295
330
1F
100
AcDbEntity
  8
TRMODEL1
  6
Continuous
 62
     4
100
AcDbLine
 10
15.8431680594
 20
7.7214019723
 30
0.0
 11
15.8611948428
 21
7.7227545684
 31
0.0
  0
LINE
  5
296
330
1F
100
AcDbEntity
  8
TRMODEL1
  6
Continuous
 62
     4
100
AcDbLine
 10
15.8611948428
 20
7.7227545684
 30
0.0
 11
15.8771364135
 21
7.7241035114
 31
0.0
  0
LINE
  5
297
330
1F
100
AcDbEntity
  8
TRMODEL1
  6
Continuous
 62
     4
100
AcDbLine
 10
15.8771364135
 20
7.7241035114
 30
0.0
 11
15.8905066807
 21
7.7254422018
 31
0.0
  0
LINE
  5
298
330
1F
100
AcDbEntity
  8
TRMODEL1
  6
Continuous
 62
     4
100
AcDbLine
 10
15.8905066807
 20
7.7254422018
 30
0.0
 11
15.9009615402
 21
7.7267806353
 31
0.0
  0
LINE
  5
299
330
1F
100
AcDbEntity
  8
TRMODEL1
  6
Continuous
 62
     4
100
AcDbLine
 10
15.9009615402
 20
7.7267806353
 30
0.0
 11
15.908159137
 21
7.7281306186
 31
0.0
  0
LINE
  5
29A
330
1F
100
AcDbEntity
  8
TRMODEL1
  6
Continuous
 62
     4
100
AcDbLine
 10
15.908159137
 20
7.7281306186
 30
0.0
 11
15.9119421991
 21
7.7294824196
 31
0.0
  0
LINE
  5
29B
330
1F
100
AcDbEntity
  8
TRMODEL1
  6
Continuous
 62
     4
100
AcDbLine
 10
15.9119421991
 20
7.7294824196
 30
0.0
 11
15.9120614101
 21
7.7302381521
 31
0.0
  0
LINE
  5
29C
330
1F
100
AcDbEntity
  8
TRMODEL1
  6
Continuous
 62
     4
100
AcDbLine
 10
15.6636042049
 20
7.7561657556
 30
0.0
 11
15.6637983001
 21
7.7563755992
 31
0.0
  0
LINE
  5
29D
330
1F
100
AcDbEntity
  8
TRMODEL1
  6
Continuous
 62
     4
100
AcDbLine
 10
15.6637983001
 20
7.7563755992
 30
0.0
 11
15.6685872428
 21
7.7577189894
 31
0.0
  0
LINE
  5
29E
330
1F
100
AcDbEntity
  8
TRMODEL1
  6
Continuous
 62
     4
100
AcDbLine
 10
15.6685872428
 20
7.7577189894
 30
0.0
 11
15.6767416176
 21
7.7590707885
 31
0.0
  0
LINE
  5
29F
330
1F
100
AcDbEntity
  8
TRMODEL1
  6
Continuous
 62
     4
100
AcDbLine
 10
15.6767416176
 20
7.7590707885
 30
0.0
 11
15.6880754802
 21
7.7604197649
 31
0.0
  0
LINE
  5
2A0
330
1F
100
AcDbEntity
  8
TRMODEL1
  6
Continuous
 62
     4
100
AcDbLine
 10
15.6880754802
 20
7.7604197649
 30
0.0
 11
15.7022239292
 21
7.7617601236
 31
0.0
  0
LINE
  5
2A1
330
1F
100
AcDbEntity
  8
TRMODEL1
  6
Continuous
 62
     4
100
AcDbLine
 10
15.7022239292
 20
7.7617601236
 30
0.0
 11
15.7188201851
 21
7.7630996908
 31
0.0
  0
LINE
  5
2A2
330
1F
100
AcDbEntity
  8
TRMODEL1
  6
Continuous
 62
     4
100
AcDbLine
 10
15.7188201851
 20
7.7630996908
 30
0.0
 11
15.7373601311
 21
7.764446422
 31
0.0
  0
LINE
  5
2A3
330
1F
100
AcDbEntity
  8
TRMODEL1
  6
Continuous
 62
     4
100
AcDbLine
 10
15.7373601311
 20
7.764446422
 30
0.0
 11
15.75733893
 21
7.7657971334
 31
0.0
  0
LINE
  5
2A4
330
1F
100
AcDbEntity
  8
TRMODEL1
  6
Continuous
 62
     4
100
AcDbLine
 10
15.75733893
 20
7.7657971334
 30
0.0
 11
15.7781718733
 21
7.7671425824
 31
0.0
  0
LINE
  5
2A5
330
1F
100
AcDbEntity
  8
TRMODEL1
  6
Continuous
 62
     4
100
AcDbLine
 10
15.7781718733
 20
7.7671425824
 30
0.0
 11
15.7992737495
 21
7.7684819065
 31
0.0
  0
LINE
  5
2A6
330
1F
100
AcDbEntity
  8
TRMODEL1
  6
Continuous
 62
     4
100
AcDbLine
 10
15.7992737495
 20
7.7684819065
 30
0.0
 11
15.8200423885
 21
7.7698245901
 31
0.0
  0
LINE
  5
2A7
330
1F
100
AcDbEntity
  8
TRMODEL1
  6
Continuous
 62
     4
100
AcDbLine
 10
15.8200423885
 20
7.7698245901
 30
0.0
 11
15.8398759503
 21
7.7711763814
 31
0.0
  0
LINE
  5
2A8
330
1F
100
AcDbEntity
  8
TRMODEL1
  6
Continuous
 62
     4
100
AcDbLine
 10
15.8398759503
 20
7.7711763814
 30
0.0
 11
15.8582275955
 21
7.7725250316
 31
0.0
  0
LINE
  5
2A9
330
1F
100
AcDbEntity
  8
TRMODEL1
  6
Continuous
 62
     4
100
AcDbLine
 10
15.8582275955
 20
7.7725250316
 30
0.0
 11
15.8745506044
 21
7.7738644103
 31
0.0
  0
LINE
  5
2AA
330
1F
100
AcDbEntity
  8
TRMODEL1
  6
Continuous
 62
     4
100
AcDbLine
 10
15.8745506044
 20
7.7738644103
 30
0.0
 11
15.8884098559
 21
7.7752043999
 31
0.0
  0
LINE
  5
2AB
330
1F
100
AcDbEntity
  8
TRMODEL1
  6
Continuous
 62
     4
100
AcDbLine
 10
15.8884098559
 20
7.7752043999
 30
0.0
 11
15.8993720728
 21
7.7765525058
 31
0.0
  0
LINE
  5
2AC
330
1F
100
AcDbEntity
  8
TRMODEL1
  6
Continuous
 62
     4
100
AcDbLine
 10
15.8993720728
 20
7.7765525058
 30
0.0
 11
15.907168338
 21
7.7779050511
 31
0.0
  0
LINE
  5
2AD
330
1F
100
AcDbEntity
  8
TRMODEL1
  6
Continuous
 62
     4
100
AcDbLine
 10
15.907168338
 20
7.7779050511
 30
0.0
 11
15.9115306329
 21
7.7792496868
 31
0.0
  0
LINE
  5
2AE
330
1F
100
AcDbEntity
  8
TRMODEL1
  6
Continuous
 62
     4
100
AcDbLine
 10
15.9115306329
 20
7.7792496868
 30
0.0
 11
15.9123825479
 21
7.7805873439
 31
0.0
  0
LINE
  5
2AF
330
1F
100
AcDbEntity
  8
TRMODEL1
  6
Continuous
 62
     4
100
AcDbLine
 10
15.9123825479
 20
7.7805873439
 30
0.0
 11
15.911229888
 21
7.7811538041
 31
0.0
  0
LINE
  5
2B0
330
1F
100
AcDbEntity
  8
TRMODEL1
  6
Continuous
 62
     4
100
AcDbLine
 10
15.9114996987
 20
7.7774761416
 30
0.0
 11
15.9112773386
 21
7.7772201651
 31
0.0
  0
LINE
  5
2B1
330
1F
100
AcDbEntity
  8
TRMODEL1
  6
Continuous
 62
     4
100
AcDbLine
 10
15.9112773386
 20
7.7772201651
 30
0.0
 11
15.906558744
 21
7.7758681524
 31
0.0
  0
LINE
  5
2B2
330
1F
100
AcDbEntity
  8
TRMODEL1
  6
Continuous
 62
     4
100
AcDbLine
 10
15.906558744
 20
7.7758681524
 30
0.0
 11
15.8984708903
 21
7.7745176008
 31
0.0
  0
LINE
  5
2B3
330
1F
100
AcDbEntity
  8
TRMODEL1
  6
Continuous
 62
     4
100
AcDbLine
 10
15.8984708903
 20
7.7745176008
 30
0.0
 11
15.887197291
 21
7.7731776139
 31
0.0
  0
LINE
  5
2B4
330
1F
100
AcDbEntity
  8
TRMODEL1
  6
Continuous
 62
     4
100
AcDbLine
 10
15.887197291
 20
7.7731776139
 30
0.0
 11
15.8731018736
 21
7.7718397141
 31
0.0
  0
LINE
  5
2B5
330
1F
100
AcDbEntity
  8
TRMODEL1
  6
Continuous
 62
     4
100
AcDbLine
 10
15.8731018736
 20
7.7718397141
 30
0.0
 11
15.8565509916
 21
7.7704931398
 31
0.0
  0
LINE
  5
2B6
330
1F
100
AcDbEntity
  8
TRMODEL1
  6
Continuous
 62
     4
100
AcDbLine
 10
15.8565509916
 20
7.7704931398
 30
0.0
 11
15.8380464659
 21
7.7691403402
 31
0.0
  0
LINE
  5
2B7
330
1F
100
AcDbEntity
  8
TRMODEL1
  6
Continuous
 62
     4
100
AcDbLine
 10
15.8380464659
 20
7.7691403402
 30
0.0
 11
15.8180899851
 21
7.7677946293
 31
0.0
  0
LINE
  5
2B8
330
1F
100
AcDbEntity
  8
TRMODEL1
  6
Continuous
 62
     4
100
AcDbLine
 10
15.8180899851
 20
7.7677946293
 30
0.0
 11
15.7972674484
 21
7.7664563061
 31
0.0
  0
LINE
  5
2B9
330
1F
100
AcDbEntity
  8
TRMODEL1
  6
Continuous
 62
     4
100
AcDbLine
 10
15.7972674484
 20
7.7664563061
 30
0.0
 11
15.7761657794
 21
7.7651135306
 31
0.0
  0
LINE
  5
2BA
330
1F
100
AcDbEntity
  8
TRMODEL1
  6
Continuous
 62
     4
100
AcDbLine
 10
15.7761657794
 20
7.7651135306
 30
0.0
 11
15.7553855119
 21
7.763764192
 31
0.0
  0
LINE
  5
2BB
330
1F
100
AcDbEntity
  8
TRMODEL1
  6
Continuous
 62
     4
100
AcDbLine
 10
15.7553855119
 20
7.763764192
 30
0.0
 11
15.7355269215
 21
7.7624141081
 31
0.0
  0
LINE
  5
2BC
330
1F
100
AcDbEntity
  8
TRMODEL1
  6
Continuous
 62
     4
100
AcDbLine
 10
15.7355269215
 20
7.7624141081
 30
0.0
 11
15.7171390993
 21
7.7610718584
 31
0.0
  0
LINE
  5
2BD
330
1F
100
AcDbEntity
  8
TRMODEL1
  6
Continuous
 62
     4
100
AcDbLine
 10
15.7171390993
 20
7.7610718584
 30
0.0
 11
15.700770876
 21
7.7597336892
 31
0.0
  0
LINE
  5
2BE
330
1F
100
AcDbEntity
  8
TRMODEL1
  6
Continuous
 62
     4
100
AcDbLine
 10
15.700770876
 20
7.7597336892
 30
0.0
 11
15.6868579404
 21
7.7583875735
 31
0.0
  0
LINE
  5
2BF
330
1F
100
AcDbEntity
  8
TRMODEL1
  6
Continuous
 62
     4
100
AcDbLine
 10
15.6868579404
 20
7.7583875735
 30
0.0
 11
15.6758342568
 21
7.7570339127
 31
0.0
  0
LINE
  5
2C0
330
1F
100
AcDbEntity
  8
TRMODEL1
  6
Continuous
 62
     4
100
AcDbLine
 10
15.6758342568
 20
7.7570339127
 30
0.0
 11
15.6679708988
 21
7.7556865861
 31
0.0
  0
LINE
  5
2C1
330
1F
100
AcDbEntity
  8
TRMODEL1
  6
Continuous
 62
     4
100
AcDbLine
 10
15.6679708988
 20
7.7556865861
 30
0.0
 11
15.663538134
 21
7.7543496535
 31
0.0
  0
LINE
  5
2C2
330
1F
100
AcDbEntity
  8
TRMODEL1
  6
Continuous
 62
     4
100
AcDbLine
 10
15.663538134
 20
7.7543496535
 30
0.0
 11
15.6626143478
 21
7.7530096434
 31
0.0
  0
LINE
  5
2C3
330
1F
100
AcDbEntity
  8
TRMODEL1
  6
Continuous
 62
     4
100
AcDbLine
 10
15.6626143478
 20
7.7530096434
 30
0.0
 11
15.6638434343
 21
7.7523860414
 31
0.0
  0
LINE
  5
2C4
330
1F
100
AcDbEntity
  8
TRMODEL1
  6
Continuous
 62
     4
100
AcDbLine
 10
15.9121020663
 20
7.7283373368
 30
0.0
 11
15.9117222162
 21
7.7274495233
 31
0.0
  0
LINE
  5
2C5
330
1F
100
AcDbEntity
  8
TRMODEL1
  6
Continuous
 62
     4
100
AcDbLine
 10
15.9117222162
 20
7.7274495233
 30
0.0
 11
15.9076299893
 21
7.7260968792
 31
0.0
  0
LINE
  5
2C6
330
1F
100
AcDbEntity
  8
TRMODEL1
  6
Continuous
 62
     4
100
AcDbLine
 10
15.9076299893
 20
7.7260968792
 30
0.0
 11
15.9000896138
 21
7.7247525347
 31
0.0
  0
LINE
  5
2C7
330
1F
100
AcDbEntity
  8
TRMODEL1
  6
Continuous
 62
     4
100
AcDbLine
 10
15.9000896138
 20
7.7247525347
 30
0.0
 11
15.8893624666
 21
7.7234146837
 31
0.0
  0
LINE
  5
2C8
330
1F
100
AcDbEntity
  8
TRMODEL1
  6
Continuous
 62
     4
100
AcDbLine
 10
15.8893624666
 20
7.7234146837
 30
0.0
 11
15.8757125289
 21
7.7220709117
 31
0.0
  0
LINE
  5
2C9
330
1F
100
AcDbEntity
  8
TRMODEL1
  6
Continuous
 62
     4
100
AcDbLine
 10
15.8757125289
 20
7.7220709117
 30
0.0
 11
15.8595665827
 21
7.7207197165
 31
0.0
  0
LINE
  5
2CA
330
1F
100
AcDbEntity
  8
TRMODEL1
  6
Continuous
 62
     4
100
AcDbLine
 10
15.8595665827
 20
7.7207197165
 30
0.0
 11
15.8413519708
 21
7.7193696523
 31
0.0
  0
LINE
  5
2CB
330
1F
100
AcDbEntity
  8
TRMODEL1
  6
Continuous
 62
     4
100
AcDbLine
 10
15.8413519708
 20
7.7193696523
 30
0.0
 11
15.8216128702
 21
7.7180287649
 31
0.0
  0
LINE
  5
2CC
330
1F
100
AcDbEntity
  8
TRMODEL1
  6
Continuous
 62
     4
100
AcDbLine
 10
15.8216128702
 20
7.7180287649
 30
0.0
 11
15.8008948337
 21
7.7166914984
 31
0.0
  0
LINE
  5
2CD
330
1F
100
AcDbEntity
  8
TRMODEL1
  6
Continuous
 62
     4
100
AcDbLine
 10
15.8008948337
 20
7.7166914984
 30
0.0
 11
15.7797984994
 21
7.7153444575
 31
0.0
  0
LINE
  5
2CE
330
1F
100
AcDbEntity
  8
TRMODEL1
  6
Continuous
 62
     4
100
AcDbLine
 10
15.7797984994
 20
7.7153444575
 30
0.0
 11
15.7589241484
 21
7.7139914317
 31
0.0
  0
LINE
  5
2CF
330
1F
100
AcDbEntity
  8
TRMODEL1
  6
Continuous
 62
     4
100
AcDbLine
 10
15.7589241484
 20
7.7139914317
 30
0.0
 11
15.738858404
 21
7.7126439524
 31
0.0
  0
LINE
  5
2D0
330
1F
100
AcDbEntity
  8
TRMODEL1
  6
Continuous
 62
     4
100
AcDbLine
 10
15.738858404
 20
7.7126439524
 30
0.0
 11
15.7201875304
 21
7.7113062623
 31
0.0
  0
LINE
  5
2D1
330
1F
100
AcDbEntity
  8
TRMODEL1
  6
Continuous
 62
     4
100
AcDbLine
 10
15.7201875304
 20
7.7113062623
 30
0.0
 11
15.7034222498
 21
7.7099668138
 31
0.0
  0
LINE
  5
2D2
330
1F
100
AcDbEntity
  8
TRMODEL1
  6
Continuous
 62
     4
100
AcDbLine
 10
15.7034222498
 20
7.7099668138
 30
0.0
 11
15.6890718505
 21
7.7086161909
 31
0.0
  0
LINE
  5
2D3
330
1F
100
AcDbEntity
  8
TRMODEL1
  6
Continuous
 62
     4
100
AcDbLine
 10
15.6890718505
 20
7.7086161909
 30
0.0
 11
15.6775072622
 21
7.7072645857
 31
0.0
  0
LINE
  5
2D4
330
1F
100
AcDbEntity
  8
TRMODEL1
  6
Continuous
 62
     4
100
AcDbLine
 10
15.6775072622
 20
7.7072645857
 30
0.0
 11
15.6690989885
 21
7.7059230938
 31
0.0
  0
LINE
  5
2D5
330
1F
100
AcDbEntity
  8
TRMODEL1
  6
Continuous
 62
     4
100
AcDbLine
 10
15.6690989885
 20
7.7059230938
 30
0.0
 11
15.6640422071
 21
7.704585241
 31
0.0
  0
LINE
  5
2D6
330
1F
100
AcDbEntity
  8
TRMODEL1
  6
Continuous
 62
     4
100
AcDbLine
 10
15.6640422071
 20
7.704585241
 30
0.0
 11
15.6625294996
 21
7.7032378789
 31
0.0
  0
LINE
  5
2D7
330
1F
100
AcDbEntity
  8
TRMODEL1
  6
Continuous
 62
     4
100
AcDbLine
 10
15.6625294996
 20
7.7032378789
 30
0.0
 11
15.6635822282
 21
7.7025348969
 31
0.0
  0
LINE
  5
2D8
330
1F
100
AcDbEntity
  8
TRMODEL1
  6
Continuous
 62
     4
100
AcDbLine
 10
15.7057707804
 20
7.6806164052
 30
0.0
 11
15.7100250255
 21
7.6822804127
 31
0.0
  0
LINE
  5
2D9
330
1F
100
AcDbEntity
  8
TRMODEL1
  6
Continuous
 62
     4
100
AcDbLine
 10
15.7100250255
 20
7.6822804127
 30
0.0
 11
15.7205199797
 21
7.6843478293
 31
0.0
  0
LINE
  5
2DA
330
1F
100
AcDbEntity
  8
TRMODEL1
  6
Continuous
 62
     4
100
AcDbLine
 10
15.7205199797
 20
7.6843478293
 30
0.0
 11
15.7354937454
 21
7.6864139263
 31
0.0
  0
LINE
  5
2DB
330
1F
100
AcDbEntity
  8
TRMODEL1
  6
Continuous
 62
     4
100
AcDbLine
 10
15.7354937454
 20
7.6864139263
 30
0.0
 11
15.7539892396
 21
7.6884834485
 31
0.0
  0
LINE
  5
2DC
330
1F
100
AcDbEntity
  8
TRMODEL1
  6
Continuous
 62
     4
100
AcDbLine
 10
15.7539892396
 20
7.6884834485
 30
0.0
 11
15.7747165187
 21
7.6905506873
 31
0.0
  0
LINE
  5
2DD
330
1F
100
AcDbEntity
  8
TRMODEL1
  6
Continuous
 62
     4
100
AcDbLine
 10
15.7747165187
 20
7.6905506873
 30
0.0
 11
15.7962885984
 21
7.6926168505
 31
0.0
  0
LINE
  5
2DE
330
1F
100
AcDbEntity
  8
TRMODEL1
  6
Continuous
 62
     4
100
AcDbLine
 10
15.7962885984
 20
7.6926168505
 30
0.0
 11
15.8173088028
 21
7.6946864708
 31
0.0
  0
LINE
  5
2DF
330
1F
100
AcDbEntity
  8
TRMODEL1
  6
Continuous
 62
     4
100
AcDbLine
 10
15.8173088028
 20
7.6946864708
 30
0.0
 11
15.8362989079
 21
7.6967535433
 31
0.0
  0
LINE
  5
2E0
330
1F
100
AcDbEntity
  8
TRMODEL1
  6
Continuous
 62
     4
100
AcDbLine
 10
15.8362989079
 20
7.6967535433
 30
0.0
 11
15.8520133402
 21
7.6988197841
 31
0.0
  0
LINE
  5
2E1
330
1F
100
AcDbEntity
  8
TRMODEL1
  6
Continuous
 62
     4
100
AcDbLine
 10
15.8520133402
 20
7.6988197841
 30
0.0
 11
15.8634189436
 21
7.70088948
 31
0.0
  0
LINE
  5
2E2
330
1F
100
AcDbEntity
  8
TRMODEL1
  6
Continuous
 62
     4
100
AcDbLine
 10
15.8634189436
 20
7.70088948
 30
0.0
 11
15.8697075632
 21
7.7029563977
 31
0.0
  0
LINE
  5
2E3
330
1F
100
AcDbEntity
  8
TRMODEL1
  6
Continuous
 62
     4
100
AcDbLine
 10
15.8697075632
 20
7.7029563977
 30
0.0
 11
15.8697184598
 21
7.7029851866
 31
0.0
  0
LINE
  5
2E4
330
1F
100
AcDbEntity
  8
TRMODEL1
  6
Continuous
 62
     4
100
AcDbLine
 10
15.7057181076
 20
7.730486858
 30
0.0
 11
15.7086621952
 21
7.7319043441
 31
0.0
  0
LINE
  5
2E5
330
1F
100
AcDbEntity
  8
TRMODEL1
  6
Continuous
 62
     4
100
AcDbLine
 10
15.7086621952
 20
7.7319043441
 30
0.0
 11
15.7182456734
 21
7.7339706585
 31
0.0
  0
LINE
  5
2E6
330
1F
100
AcDbEntity
  8
TRMODEL1
  6
Continuous
 62
     4
100
AcDbLine
 10
15.7182456734
 20
7.7339706585
 30
0.0
 11
15.7324721078
 21
7.7360376051
 31
0.0
  0
LINE
  5
2E7
330
1F
100
AcDbEntity
  8
TRMODEL1
  6
Continuous
 62
     4
100
AcDbLine
 10
15.7324721078
 20
7.7360376051
 30
0.0
 11
15.7504217691
 21
7.7381072836
 31
0.0
  0
LINE
  5
2E8
330
1F
100
AcDbEntity
  8
TRMODEL1
  6
Continuous
 62
     4
100
AcDbLine
 10
15.7504217691
 20
7.7381072836
 30
0.0
 11
15.7708283698
 21
7.7401735112
 31
0.0
  0
LINE
  5
2E9
330
1F
100
AcDbEntity
  8
TRMODEL1
  6
Continuous
 62
     4
100
AcDbLine
 10
15.7708283698
 20
7.7401735112
 30
0.0
 11
15.7923619371
 21
7.742240616
 31
0.0
  0
LINE
  5
2EA
330
1F
100
AcDbEntity
  8
TRMODEL1
  6
Continuous
 62
     4
100
AcDbLine
 10
15.7923619371
 20
7.742240616
 30
0.0
 11
15.8135960621
 21
7.7443102131
 31
0.0
  0
LINE
  5
2EB
330
1F
100
AcDbEntity
  8
TRMODEL1
  6
Continuous
 62
     4
100
AcDbLine
 10
15.8135960621
 20
7.7443102131
 30
0.0
 11
15.8330423033
 21
7.7463763652
 31
0.0
  0
LINE
  5
2EC
330
1F
100
AcDbEntity
  8
TRMODEL1
  6
Continuous
 62
     4
100
AcDbLine
 10
15.8330423033
 20
7.7463763652
 30
0.0
 11
15.8494489533
 21
7.7484436399
 31
0.0
  0
LINE
  5
2ED
330
1F
100
AcDbEntity
  8
TRMODEL1
  6
Continuous
 62
     4
100
AcDbLine
 10
15.8494489533
 20
7.7484436399
 30
0.0
 11
15.8617052928
 21
7.7505131331
 31
0.0
  0
LINE
  5
2EE
330
1F
100
AcDbEntity
  8
TRMODEL1
  6
Continuous
 62
     4
100
AcDbLine
 10
15.8617052928
 20
7.7505131331
 30
0.0
 11
15.868963186
 21
7.7525792209
 31
0.0
  0
LINE
  5
2EF
330
1F
100
AcDbEntity
  8
TRMODEL1
  6
Continuous
 62
     4
100
AcDbLine
 10
15.868963186
 20
7.7525792209
 30
0.0
 11
15.8692986083
 21
7.7529636154
 31
0.0
  0
LINE
  5
2F0
330
1F
100
AcDbEntity
  8
TRMODEL1
  6
Continuous
 62
     4
100
AcDbLine
 10
15.9117536521
 20
7.7811021547
 30
0.0
 11
15.8907015705
 21
7.7933435586
 31
0.0
  0
LINE
  5
2F1
330
1F
100
AcDbEntity
  8
TRMODEL1
  6
Continuous
 62
     4
100
AcDbLine
 10
15.8907015705
 20
7.7933435586
 30
0.0
 11
15.8719704248
 21
7.8042771399
 31
0.0
  0
LINE
  5
2F2
330
1F
100
AcDbEntity
  8
TRMODEL1
  6
Continuous
 62
     4
100
AcDbLine
 10
15.6630520452
 20
7.8025869424
 30
0.0
 11
15.6841356218
 21
7.7903180935
 31
0.0
  0
LINE
  5
2F3
330
1F
100
AcDbEntity
  8
TRMODEL1
  6
Continuous
 62
     4
100
AcDbLine
 10
15.6841356218
 20
7.7903180935
 30
0.0
 11
15.703048189
 21
7.7792770919
 31
0.0
  0
LINE
  5
2F4
330
1F
100
AcDbEntity
  8
TRMODEL1
  6
Continuous
 62
     4
100
AcDbLine
 10
15.7060818311
 20
7.7806536445
 30
0.0
 11
15.7074735309
 21
7.7815276133
 31
0.0
  0
LINE
  5
2F5
330
1F
100
AcDbEntity
  8
TRMODEL1
  6
Continuous
 62
     4
100
AcDbLine
 10
15.7074735309
 20
7.7815276133
 30
0.0
 11
15.7161262489
 21
7.7835935471
 31
0.0
  0
LINE
  5
2F6
330
1F
100
AcDbEntity
  8
TRMODEL1
  6
Continuous
 62
     4
100
AcDbLine
 10
15.7161262489
 20
7.7835935471
 30
0.0
 11
15.7295803812
 21
7.78566209
 31
0.0
  0
LINE
  5
2F7
330
1F
100
AcDbEntity
  8
TRMODEL1
  6
Continuous
 62
     4
100
AcDbLine
 10
15.7295803812
 20
7.78566209
 30
0.0
 11
15.7469312141
 21
7.7877304906
 31
0.0
  0
LINE
  5
2F8
330
1F
100
AcDbEntity
  8
TRMODEL1
  6
Continuous
 62
     4
100
AcDbLine
 10
15.7469312141
 20
7.7877304906
 30
0.0
 11
15.7669784323
 21
7.7897964271
 31
0.0
  0
LINE
  5
2F9
330
1F
100
AcDbEntity
  8
TRMODEL1
  6
Continuous
 62
     4
100
AcDbLine
 10
15.7669784323
 20
7.7897964271
 30
0.0
 11
15.7884330333
 21
7.7918651952
 31
0.0
  0
LINE
  5
2FA
330
1F
100
AcDbEntity
  8
TRMODEL1
  6
Continuous
 62
     4
100
AcDbLine
 10
15.7884330333
 20
7.7918651952
 30
0.0
 11
15.8098188954
 21
7.7939333634
 31
0.0
  0
LINE
  5
2FB
330
1F
100
AcDbEntity
  8
TRMODEL1
  6
Continuous
 62
     4
100
AcDbLine
 10
15.8098188954
 20
7.7939333634
 30
0.0
 11
15.829685274
 21
7.7959993137
 31
0.0
  0
LINE
  5
2FC
330
1F
100
AcDbEntity
  8
TRMODEL1
  6
Continuous
 62
     4
100
AcDbLine
 10
15.829685274
 20
7.7959993137
 30
0.0
 11
15.8467510872
 21
7.7980682845
 31
0.0
  0
LINE
  5
2FD
330
1F
100
AcDbEntity
  8
TRMODEL1
  6
Continuous
 62
     4
100
AcDbLine
 10
15.8467510872
 20
7.7980682845
 30
0.0
 11
15.8598229978
 21
7.8001362321
 31
0.0
  0
LINE
  5
2FE
330
1F
100
AcDbEntity
  8
TRMODEL1
  6
Continuous
 62
     4
100
AcDbLine
 10
15.8598229978
 20
7.8001362321
 30
0.0
 11
15.8680374273
 21
7.8022022075
 31
0.0
  0
LINE
  5
2FF
330
1F
100
AcDbEntity
  8
TRMODEL1
  6
Continuous
 62
     4
100
AcDbLine
 10
15.8680374273
 20
7.8022022075
 30
0.0
 11
15.8691522433
 21
7.8030202055
 31
0.0
  0
LINE
  5
300
330
1F
100
AcDbEntity
  8
TRMODEL1
  6
Continuous
 62
     4
100
AcDbLine
 10
16.0375076157
 20
9.1767768263
 30
0.0
 11
15.5375076157
 21
9.1767768263
 31
0.0
  0
LINE
  5
301
330
1F
100
AcDbEntity
  8
TRMODEL1
  6
Continuous
 62
     4
100
AcDbLine
 10
16.0375076157
 20
9.1742768263
 30
0.0
 11
15.5375076157
 21
9.1742768263
 31
0.0
  0
LINE
  5
302
330
1F
100
AcDbEntity
  8
TRMODEL1
  6
Continuous
 62
     4
100
AcDbLine
 10
16.0375076157
 20
9.0517768263
 30
0.0
 11
15.5375076157
 21
9.0517768263
 31
0.0
  0
LINE
  5
303
330
1F
100
AcDbEntity
  8
TRMODEL1
  6
Continuous
 62
     4
100
AcDbLine
 10
15.7735941684
 20
7.5957768488
 30
0.0
 11
15.5621330025
 21
7.5957768488
 31
0.0
  0
LINE
  5
304
330
1F
100
AcDbEntity
  8
TRMODEL1
  6
Continuous
 62
     4
100
AcDbLine
 10
16.1000076157
 20
7.6117768488
 30
0.0
 11
15.4750076157
 21
7.6117768488
 31
0.0
  0
LINE
  5
305
330
1F
100
AcDbEntity
  8
TRMODEL1
  6
Continuous
 62
     4
100
AcDbLine
 10
16.1000076157
 20
7.6767768488
 30
0.0
 11
15.4750076157
 21
7.6767768488
 31
0.0
  0
LINE
  5
306
330
1F
100
AcDbEntity
  8
TRMODEL1
  6
Continuous
 62
     4
100
AcDbLine
 10
15.0732465632
 20
9.5517768563
 30
0.0
 11
15.5375076157
 21
9.5517768563
 31
0.0
  0
LINE
  5
307
330
1F
100
AcDbEntity
  8
TRMODEL1
  6
Continuous
 62
     2
100
AcDbLine
 10
15.0732465632
 20
9.5065724722
 30
0.0
 11
15.1184509473
 21
9.5517768563
 31
0.0
  0
LINE
  5
308
330
1F
100
AcDbEntity
  8
TRMODEL1
  6
Continuous
 62
     4
100
AcDbLine
 10
16.0375076157
 20
9.6142768263
 30
0.0
 11
15.5375076157
 21
9.6142768263
 31
0.0
  0
LINE
  5
309
330
1F
100
AcDbEntity
  8
TRMODEL1
  6
Continuous
 62
     4
100
AcDbLine
 10
16.0375076157
 20
9.4917768263
 30
0.0
 11
15.5375076157
 21
9.4917768263
 31
0.0
  0
LINE
  5
30A
330
1F
100
AcDbEntity
  8
TRMODEL1
  6
Continuous
 62
     4
100
AcDbLine
 10
15.5375076157
 20
9.4917768263
 30
0.0
 11
15.5375076157
 21
9.6142768263
 31
0.0
  0
LINE
  5
30B
330
1F
100
AcDbEntity
  8
TRMODEL1
  6
Continuous
 62
     4
100
AcDbLine
 10
16.0375076157
 20
9.4917768263
 30
0.0
 11
16.0375076157
 21
9.6142768263
 31
0.0
  0
LINE
  5
30C
330
1F
100
AcDbEntity
  8
TRMODEL1
  6
Continuous
 62
     2
100
AcDbLine
 10
17.0098835108
 20
0.0522817926
 30
0.0
 11
17.2434946852
 21
0.285892967
 31
0.0
  0
LINE
  5
30D
330
1F
100
AcDbEntity
  8
TRMODEL1
  6
Continuous
 62
     4
100
AcDbLine
 10
19.0402292517
 20
9.5517768563
 30
0.0
 11
20.9482465512
 21
9.5517768563
 31
0.0
  0
LINE
  5
30E
330
1F
100
AcDbEntity
  8
TRMODEL1
  6
Continuous
 62
     2
100
AcDbLine
 10
18.8017573188
 20
9.169219236
 30
0.0
 11
19.0357524396
 21
9.4032143568
 31
0.0
  0
LINE
  5
30F
330
1F
100
AcDbEntity
  8
TRMODEL1
  6
Continuous
 62
     4
100
AcDbLine
 10
18.7902292479
 20
9.5517768563
 30
0.0
 11
18.8141213791
 21
8.7589194123
 31
0.0
  0
LINE
  5
310
330
1F
100
AcDbEntity
  8
TRMODEL1
  6
Continuous
 62
     4
100
AcDbLine
 10
19.0402292517
 20
9.5517768563
 30
0.0
 11
19.0163371217
 21
8.7589194123
 31
0.0
  0
LINE
  5
311
330
1F
100
AcDbEntity
  8
TRMODEL1
  6
Continuous
 62
     2
100
AcDbLine
 10
18.9217875811
 20
8.7589194123
 30
0.0
 11
19.0192748226
 21
8.8564066538
 31
0.0
  0
LINE
  5
312
330
1F
100
AcDbEntity
  8
TRMODEL1
  6
Continuous
 62
     2
100
AcDbLine
 10
18.8120997105
 20
8.826008237
 30
0.0
 11
19.0247673616
 21
9.0386758882
 31
0.0
  0
LINE
  5
313
330
1F
100
AcDbEntity
  8
TRMODEL1
  6
Continuous
 62
     2
100
AcDbLine
 10
18.8069285146
 20
8.9976137365
 30
0.0
 11
19.0302599006
 21
9.2209451225
 31
0.0
  0
LINE
  5
314
330
1F
100
AcDbEntity
  8
TRMODEL1
  6
Continuous
 62
     4
100
AcDbLine
 10
18.8141213791
 20
8.7589194123
 30
0.0
 11
19.0163371217
 21
8.7589194123
 31
0.0
  0
LINE
  5
315
330
1F
100
AcDbEntity
  8
TRMODEL1
  6
Continuous
 62
     2
100
AcDbLine
 10
18.796586123
 20
9.3408247355
 30
0.0
 11
18.9675221866
 21
9.511760799
 31
0.0
  0
LINE
  5
316
330
1F
100
AcDbEntity
  8
TRMODEL1
  6
Continuous
 62
     2
100
AcDbLine
 10
18.7914149272
 20
9.5124302349
 30
0.0
 11
18.8132916628
 21
9.5343069705
 31
0.0
  0
LINE
  5
317
330
1F
100
AcDbEntity
  8
TRMODEL1
  6
Continuous
 62
     2
370
    60
100
AcDbLine
 10
0.015
 20
10.512485033
 30
0.0
 11
8.3633897459
 21
10.512485033
 31
0.0
  0
LINE
  5
318
330
1F
100
AcDbEntity
  8
TRMODEL1
  6
Continuous
 62
     2
370
    60
100
AcDbLine
 10
8.3633897459
 20
10.512485033
 30
0.0
 11
8.3633897459
 21
3.1342537921
 31
0.0
  0
LINE
  5
319
330
1F
100
AcDbEntity
  8
TRMODEL1
  6
Continuous
 62
     2
370
    60
100
AcDbLine
 10
8.3633897459
 20
3.1342537921
 30
0.0
 11
0.015
 21
3.1342537921
 31
0.0
  0
LINE
  5
31A
330
1F
100
AcDbEntity
  8
TRMODEL1
  6
Continuous
 62
     2
370
    60
100
AcDbLine
 10
0.015
 20
3.1342537921
 30
0.0
 11
0.015
 21
10.512485033
 31
0.0
  0
LINE
  5
31B
330
1F
100
AcDbEntity
  8
TRMODEL1
  6
Continuous
 62
     2
100
AcDbLine
 10
15.7699977728
 20
6.9527143788
 30
0.0
 11
15.7699977728
 21
5.9600704678
 31
0.0
  0
LINE
  5
31C
330
1F
100
AcDbEntity
  8
TRMODEL1
  6
Continuous
 62
     2
100
AcDbLine
 10
15.7699977728
 20
5.9600704678
 30
0.0
 11
8.3633897459
 21
5.9600704678
 31
0.0
  0
LINE
  5
31D
330
1F
100
AcDbEntity
  8
TRMODEL1
  6
Continuous
 62
     2
370
    60
100
AcDbLine
 10
23.8448582326
 20
11.0243309645
 30
0.0
 11
36.5430933227
 21
11.0243309645
 31
0.0
  0
LINE
  5
31E
330
1F
100
AcDbEntity
  8
TRMODEL1
  6
Continuous
 62
     2
370
    60
100
AcDbLine
 10
36.5430933227
 20
11.0243309645
 30
0.0
 11
36.5430933227
 21
3.1492537876
 31
0.0
  0
LINE
  5
31F
330
1F
100
AcDbEntity
  8
TRMODEL1
  6
Continuous
 62
     2
370
    60
100
AcDbLine
 10
36.5430933227
 20
3.1492537876
 30
0.0
 11
23.8448582326
 21
3.1492537876
 31
0.0
  0
LINE
  5
320
330
1F
100
AcDbEntity
  8
TRMODEL1
  6
Continuous
 62
     2
370
    60
100
AcDbLine
 10
23.8448582326
 20
3.1492537876
 30
0.0
 11
23.8448582326
 21
11.0243309645
 31
0.0
  0
LINE
  5
321
330
1F
100
AcDbEntity
  8
TRMODEL1
  6
Continuous
 62
     2
100
AcDbLine
 10
26.1308301392
 20
3.8580649914
 30
0.0
 11
27.9284439806
 21
3.8580649914
 31
0.0
  0
LINE
  5
322
330
1F
100
AcDbEntity
  8
TRMODEL1
  6
Continuous
 62
     4
100
AcDbLine
 10
25.1406533791
 20
3.6628709252
 30
0.0
 11
25.106077421
 21
3.7093001213
 31
0.0
  0
LINE
  5
323
330
1F
100
AcDbEntity
  8
TRMODEL1
  6
Continuous
 62
     4
100
AcDbLine
 10
25.106077421
 20
3.7093001213
 30
0.0
 11
25.0700156381
 21
3.7750425463
 31
0.0
  0
LINE
  5
324
330
1F
100
AcDbEntity
  8
TRMODEL1
  6
Continuous
 62
     4
100
AcDbLine
 10
25.0700156381
 20
3.7750425463
 30
0.0
 11
25.044236649
 21
3.8325853495
 31
0.0
  0
LINE
  5
325
330
1F
100
AcDbEntity
  8
TRMODEL1
  6
Continuous
 62
     4
100
AcDbLine
 10
25.6498518246
 20
3.7592772084
 30
0.0
 11
25.5758380964
 21
3.697128484
 31
0.0
  0
LINE
  5
326
330
1F
100
AcDbEntity
  8
TRMODEL1
  6
Continuous
 62
     4
100
AcDbLine
 10
25.5758380964
 20
3.697128484
 30
0.0
 11
25.4986437931
 21
3.6496270944
 31
0.0
  0
LINE
  5
327
330
1F
100
AcDbEntity
  8
TRMODEL1
  6
Continuous
 62
     4
100
AcDbLine
 10
25.4986437931
 20
3.6496270944
 30
0.0
 11
25.4434609669
 21
3.6262168547
 31
0.0
  0
LINE
  5
328
330
1F
100
AcDbEntity
  8
TRMODEL1
  6
Continuous
 62
     4
100
AcDbLine
 10
25.4434609669
 20
3.6262168547
 30
0.0
 11
25.4434609669
 21
3.8174023293
 31
0.0
  0
LINE
  5
329
330
1F
100
AcDbEntity
  8
TRMODEL1
  6
Continuous
 62
     4
100
AcDbLine
 10
25.1406533791
 20
3.6628709252
 30
0.0
 11
25.1406533791
 21
3.8540563999
 31
0.0
  0
LINE
  5
32A
330
1F
100
AcDbEntity
  8
TRMODEL1
  6
Continuous
 62
     4
100
AcDbLine
 10
25.4434609669
 20
3.6262168547
 30
0.0
 11
25.3834339154
 21
3.6237163496
 31
0.0
  0
LINE
  5
32B
330
1F
100
AcDbEntity
  8
TRMODEL1
  6
Continuous
 62
     4
100
AcDbLine
 10
25.3834339154
 20
3.6237163496
 30
0.0
 11
25.28264362
 21
3.6299663236
 31
0.0
  0
LINE
  5
32C
330
1F
100
AcDbEntity
  8
TRMODEL1
  6
Continuous
 62
     4
100
AcDbLine
 10
25.28264362
 20
3.6299663236
 30
0.0
 11
25.1791046059
 21
3.6514949936
 31
0.0
  0
LINE
  5
32D
330
1F
100
AcDbEntity
  8
TRMODEL1
  6
Continuous
 62
     4
100
AcDbLine
 10
25.1791046059
 20
3.6514949936
 30
0.0
 11
25.1406533791
 21
3.6628709252
 31
0.0
  0
LINE
  5
32E
330
1F
100
AcDbEntity
  8
TRMODEL1
  6
Continuous
 62
     4
100
AcDbLine
 10
25.1110290797
 20
4.0316883752
 30
0.0
 11
25.133132961
 21
4.0673884043
 31
0.0
  0
LINE
  5
32F
330
1F
100
AcDbEntity
  8
TRMODEL1
  6
Continuous
 62
     4
100
AcDbLine
 10
25.133132961
 20
4.0673884043
 30
0.0
 11
25.171101663
 21
4.098321892
 31
0.0
  0
LINE
  5
330
330
1F
100
AcDbEntity
  8
TRMODEL1
  6
Continuous
 62
     4
100
AcDbLine
 10
25.171101663
 20
4.098321892
 30
0.0
 11
25.2221192209
 21
4.122194643
 31
0.0
  0
LINE
  5
331
330
1F
100
AcDbEntity
  8
TRMODEL1
  6
Continuous
 62
     4
100
AcDbLine
 10
25.2221192209
 20
4.122194643
 30
0.0
 11
25.2824018957
 21
4.1372361246
 31
0.0
  0
LINE
  5
332
330
1F
100
AcDbEntity
  8
TRMODEL1
  6
Continuous
 62
     4
100
AcDbLine
 10
25.2824018957
 20
4.1372361246
 30
0.0
 11
25.3474787972
 21
4.1423307789
 31
0.0
  0
LINE
  5
333
330
1F
100
AcDbEntity
  8
TRMODEL1
  6
Continuous
 62
     4
100
AcDbLine
 10
25.3474787972
 20
4.1423307789
 30
0.0
 11
25.4125234693
 21
4.1371007587
 31
0.0
  0
LINE
  5
334
330
1F
100
AcDbEntity
  8
TRMODEL1
  6
Continuous
 62
     4
100
AcDbLine
 10
25.4125234693
 20
4.1371007587
 30
0.0
 11
25.4727118464
 21
4.1219339507
 31
0.0
  0
LINE
  5
335
330
1F
100
AcDbEntity
  8
TRMODEL1
  6
Continuous
 62
     4
100
AcDbLine
 10
25.4727118464
 20
4.1219339507
 30
0.0
 11
25.5235800317
 21
4.0979552076
 31
0.0
  0
LINE
  5
336
330
1F
100
AcDbEntity
  8
TRMODEL1
  6
Continuous
 62
     4
100
AcDbLine
 10
25.5235800317
 20
4.0979552076
 30
0.0
 11
25.5613553647
 21
4.0669429232
 31
0.0
  0
LINE
  5
337
330
1F
100
AcDbEntity
  8
TRMODEL1
  6
Continuous
 62
     4
100
AcDbLine
 10
25.5613553647
 20
4.0669429232
 30
0.0
 11
25.5832362218
 21
4.0311971367
 31
0.0
  0
LINE
  5
338
330
1F
100
AcDbEntity
  8
TRMODEL1
  6
Continuous
 62
     4
100
AcDbLine
 10
25.5832362218
 20
4.0311971367
 30
0.0
 11
25.5875997998
 21
3.9933689495
 31
0.0
  0
LINE
  5
339
330
1F
100
AcDbEntity
  8
TRMODEL1
  6
Continuous
 62
     4
100
AcDbLine
 10
25.5875997998
 20
3.9933689495
 30
0.0
 11
25.5741224722
 21
3.9562639052
 31
0.0
  0
LINE
  5
33A
330
1F
100
AcDbEntity
  8
TRMODEL1
  6
Continuous
 62
     4
100
AcDbLine
 10
25.5741224722
 20
3.9562639052
 30
0.0
 11
25.5438037907
 21
3.9226339153
 31
0.0
  0
LINE
  5
33B
330
1F
100
AcDbEntity
  8
TRMODEL1
  6
Continuous
 62
     4
100
AcDbLine
 10
25.5438037907
 20
3.9226339153
 30
0.0
 11
25.4988923532
 21
3.8949731622
 31
0.0
  0
LINE
  5
33C
330
1F
100
AcDbEntity
  8
TRMODEL1
  6
Continuous
 62
     4
100
AcDbLine
 10
25.4988923532
 20
3.8949731622
 30
0.0
 11
25.4427190356
 21
3.8753331175
 31
0.0
  0
LINE
  5
33D
330
1F
100
AcDbEntity
  8
TRMODEL1
  6
Continuous
 62
     4
100
AcDbLine
 10
25.4427190356
 20
3.8753331175
 30
0.0
 11
25.3794499558
 21
3.8651703934
 31
0.0
  0
LINE
  5
33E
330
1F
100
AcDbEntity
  8
TRMODEL1
  6
Continuous
 62
     4
100
AcDbLine
 10
25.3794499558
 20
3.8651703934
 30
0.0
 11
25.3137774921
 21
3.8652387126
 31
0.0
  0
LINE
  5
33F
330
1F
100
AcDbEntity
  8
TRMODEL1
  6
Continuous
 62
     4
100
AcDbLine
 10
25.3137774921
 20
3.8652387126
 30
0.0
 11
25.2505722706
 21
3.8755330084
 31
0.0
  0
LINE
  5
340
330
1F
100
AcDbEntity
  8
TRMODEL1
  6
Continuous
 62
     4
100
AcDbLine
 10
25.2505722706
 20
3.8755330084
 30
0.0
 11
25.1945219336
 21
3.8952897997
 31
0.0
  0
LINE
  5
341
330
1F
100
AcDbEntity
  8
TRMODEL1
  6
Continuous
 62
     4
100
AcDbLine
 10
25.1945219336
 20
3.8952897997
 30
0.0
 11
25.149783478
 21
3.9230438159
 31
0.0
  0
LINE
  5
342
330
1F
100
AcDbEntity
  8
TRMODEL1
  6
Continuous
 62
     4
100
AcDbLine
 10
25.149783478
 20
3.9230438159
 30
0.0
 11
25.1196749505
 21
3.9567366684
 31
0.0
  0
LINE
  5
343
330
1F
100
AcDbEntity
  8
TRMODEL1
  6
Continuous
 62
     4
100
AcDbLine
 10
25.1196749505
 20
3.9567366684
 30
0.0
 11
25.1064293629
 21
3.9938695126
 31
0.0
  0
LINE
  5
344
330
1F
100
AcDbEntity
  8
TRMODEL1
  6
Continuous
 62
     4
100
AcDbLine
 10
25.1064293629
 20
3.9938695126
 30
0.0
 11
25.1110290797
 21
4.0316883752
 31
0.0
  0
LINE
  5
345
330
1F
100
AcDbEntity
  8
TRMODEL1
  6
Continuous
 62
     4
100
AcDbLine
 10
25.588192017
 20
3.9871167536
 30
0.0
 11
25.5875997998
 21
3.9773663485
 31
0.0
  0
LINE
  5
346
330
1F
100
AcDbEntity
  8
TRMODEL1
  6
Continuous
 62
     4
100
AcDbLine
 10
25.5875997998
 20
3.9773663485
 30
0.0
 11
25.5741224722
 21
3.9402613042
 31
0.0
  0
LINE
  5
347
330
1F
100
AcDbEntity
  8
TRMODEL1
  6
Continuous
 62
     4
100
AcDbLine
 10
25.5741224722
 20
3.9402613042
 30
0.0
 11
25.5438037907
 21
3.9066313143
 31
0.0
  0
LINE
  5
348
330
1F
100
AcDbEntity
  8
TRMODEL1
  6
Continuous
 62
     4
100
AcDbLine
 10
25.5438037907
 20
3.9066313143
 30
0.0
 11
25.4988923532
 21
3.8789705612
 31
0.0
  0
LINE
  5
349
330
1F
100
AcDbEntity
  8
TRMODEL1
  6
Continuous
 62
     4
100
AcDbLine
 10
25.4988923532
 20
3.8789705612
 30
0.0
 11
25.4427190356
 21
3.8593305165
 31
0.0
  0
LINE
  5
34A
330
1F
100
AcDbEntity
  8
TRMODEL1
  6
Continuous
 62
     4
100
AcDbLine
 10
25.4427190356
 20
3.8593305165
 30
0.0
 11
25.3794499558
 21
3.8491677924
 31
0.0
  0
LINE
  5
34B
330
1F
100
AcDbEntity
  8
TRMODEL1
  6
Continuous
 62
     4
100
AcDbLine
 10
25.3794499558
 20
3.8491677924
 30
0.0
 11
25.3137774921
 21
3.8492361117
 31
0.0
  0
LINE
  5
34C
330
1F
100
AcDbEntity
  8
TRMODEL1
  6
Continuous
 62
     4
100
AcDbLine
 10
25.3137774921
 20
3.8492361117
 30
0.0
 11
25.2505722706
 21
3.8595304074
 31
0.0
  0
LINE
  5
34D
330
1F
100
AcDbEntity
  8
TRMODEL1
  6
Continuous
 62
     4
100
AcDbLine
 10
25.2505722706
 20
3.8595304074
 30
0.0
 11
25.1945219336
 21
3.8792871987
 31
0.0
  0
LINE
  5
34E
330
1F
100
AcDbEntity
  8
TRMODEL1
  6
Continuous
 62
     4
100
AcDbLine
 10
25.1945219336
 20
3.8792871987
 30
0.0
 11
25.149783478
 21
3.9070412149
 31
0.0
  0
LINE
  5
34F
330
1F
100
AcDbEntity
  8
TRMODEL1
  6
Continuous
 62
     4
100
AcDbLine
 10
25.149783478
 20
3.9070412149
 30
0.0
 11
25.1196749505
 21
3.9407340674
 31
0.0
  0
LINE
  5
350
330
1F
100
AcDbEntity
  8
TRMODEL1
  6
Continuous
 62
     4
100
AcDbLine
 10
25.1196749505
 20
3.9407340674
 30
0.0
 11
25.1064293629
 21
3.9778669116
 31
0.0
  0
LINE
  5
351
330
1F
100
AcDbEntity
  8
TRMODEL1
  6
Continuous
 62
     4
100
AcDbLine
 10
25.1064293629
 20
3.9778669116
 30
0.0
 11
25.1058964565
 21
3.9871167536
 31
0.0
  0
LINE
  5
352
330
1F
100
AcDbEntity
  8
TRMODEL1
  6
Continuous
 62
     4
100
AcDbLine
 10
25.5534350945
 20
4.1201771073
 30
0.0
 11
25.4089204981
 21
4.1376702231
 31
0.0
  0
LINE
  5
353
330
1F
100
AcDbEntity
  8
TRMODEL1
  6
Continuous
 62
     4
100
AcDbLine
 10
25.4434609669
 20
3.8174023293
 30
0.0
 11
25.6498518246
 21
3.950462683
 31
0.0
  0
LINE
  5
354
330
1F
100
AcDbEntity
  8
TRMODEL1
  6
Continuous
 62
     4
100
AcDbLine
 10
25.2265641185
 20
4.0177031594
 30
0.0
 11
25.2454027107
 21
4.0432093135
 31
0.0
  0
LINE
  5
355
330
1F
100
AcDbEntity
  8
TRMODEL1
  6
Continuous
 62
     4
100
AcDbLine
 10
25.2454027107
 20
4.0432093135
 30
0.0
 11
25.2797153038
 21
4.0626121348
 31
0.0
  0
LINE
  5
356
330
1F
100
AcDbEntity
  8
TRMODEL1
  6
Continuous
 62
     4
100
AcDbLine
 10
25.2797153038
 20
4.0626121348
 30
0.0
 11
25.3242781167
 21
4.0729577196
 31
0.0
  0
LINE
  5
357
330
1F
100
AcDbEntity
  8
TRMODEL1
  6
Continuous
 62
     4
100
AcDbLine
 10
25.3242781167
 20
4.0729577196
 30
0.0
 11
25.372306865
 21
4.0726710464
 31
0.0
  0
LINE
  5
358
330
1F
100
AcDbEntity
  8
TRMODEL1
  6
Continuous
 62
     4
100
AcDbLine
 10
25.372306865
 20
4.0726710464
 30
0.0
 11
25.4164896071
 21
4.0617957586
 31
0.0
  0
LINE
  5
359
330
1F
100
AcDbEntity
  8
TRMODEL1
  6
Continuous
 62
     4
100
AcDbLine
 10
25.4164896071
 20
4.0617957586
 30
0.0
 11
25.4500999211
 21
4.0419875202
 31
0.0
  0
LINE
  5
35A
330
1F
100
AcDbEntity
  8
TRMODEL1
  6
Continuous
 62
     4
100
AcDbLine
 10
25.4500999211
 20
4.0419875202
 30
0.0
 11
25.4680209414
 21
4.016261956
 31
0.0
  0
LINE
  5
35B
330
1F
100
AcDbEntity
  8
TRMODEL1
  6
Continuous
 62
     4
100
AcDbLine
 10
25.4680209414
 20
4.016261956
 30
0.0
 11
25.4675243551
 21
3.9885355498
 31
0.0
  0
LINE
  5
35C
330
1F
100
AcDbEntity
  8
TRMODEL1
  6
Continuous
 62
     4
100
AcDbLine
 10
25.4675243551
 20
3.9885355498
 30
0.0
 11
25.4486857629
 21
3.9630293956
 31
0.0
  0
LINE
  5
35D
330
1F
100
AcDbEntity
  8
TRMODEL1
  6
Continuous
 62
     4
100
AcDbLine
 10
25.4486857629
 20
3.9630293956
 30
0.0
 11
25.4143731697
 21
3.9436265743
 31
0.0
  0
LINE
  5
35E
330
1F
100
AcDbEntity
  8
TRMODEL1
  6
Continuous
 62
     4
100
AcDbLine
 10
25.4143731697
 20
3.9436265743
 30
0.0
 11
25.3698103569
 21
3.9332809895
 31
0.0
  0
LINE
  5
35F
330
1F
100
AcDbEntity
  8
TRMODEL1
  6
Continuous
 62
     4
100
AcDbLine
 10
25.3698103569
 20
3.9332809895
 30
0.0
 11
25.3217816086
 21
3.9335676627
 31
0.0
  0
LINE
  5
360
330
1F
100
AcDbEntity
  8
TRMODEL1
  6
Continuous
 62
     4
100
AcDbLine
 10
25.3217816086
 20
3.9335676627
 30
0.0
 11
25.2775988665
 21
3.9444429505
 31
0.0
  0
LINE
  5
361
330
1F
100
AcDbEntity
  8
TRMODEL1
  6
Continuous
 62
     4
100
AcDbLine
 10
25.2775988665
 20
3.9444429505
 30
0.0
 11
25.2439885524
 21
3.9642511889
 31
0.0
  0
LINE
  5
362
330
1F
100
AcDbEntity
  8
TRMODEL1
  6
Continuous
 62
     4
100
AcDbLine
 10
25.2439885524
 20
3.9642511889
 30
0.0
 11
25.2260675322
 21
3.9899767532
 31
0.0
  0
LINE
  5
363
330
1F
100
AcDbEntity
  8
TRMODEL1
  6
Continuous
 62
     4
100
AcDbLine
 10
25.2260675322
 20
3.9899767532
 30
0.0
 11
25.2265641185
 21
4.0177031594
 31
0.0
  0
LINE
  5
364
330
1F
100
AcDbEntity
  8
TRMODEL1
  6
Continuous
 62
     4
100
AcDbLine
 10
25.044236649
 20
4.0237708242
 30
0.0
 11
25.1406533791
 21
3.8540563999
 31
0.0
  0
LINE
  5
365
330
1F
100
AcDbEntity
  8
TRMODEL1
  6
Continuous
 62
     4
100
AcDbLine
 10
25.044236649
 20
3.8325853495
 30
0.0
 11
25.044236649
 21
4.0237708242
 31
0.0
  0
LINE
  5
366
330
1F
100
AcDbEntity
  8
TRMODEL1
  6
Continuous
 62
     4
100
AcDbLine
 10
25.1406533791
 20
3.8540563999
 30
0.0
 11
25.4434609669
 21
3.8174023293
 31
0.0
  0
LINE
  5
367
330
1F
100
AcDbEntity
  8
TRMODEL1
  6
Continuous
 62
     4
100
AcDbLine
 10
25.384006733
 20
4.1406859696
 30
0.0
 11
25.2506275067
 21
4.1568311779
 31
0.0
  0
LINE
  5
368
330
1F
100
AcDbEntity
  8
TRMODEL1
  6
Continuous
 62
     4
100
AcDbLine
 10
25.1058964565
 20
3.9871167536
 30
0.0
 11
25.1058964565
 21
4.0031193546
 31
0.0
  0
LINE
  5
369
330
1F
100
AcDbEntity
  8
TRMODEL1
  6
Continuous
 62
     4
100
AcDbLine
 10
25.2506275067
 20
4.1568311779
 30
0.0
 11
25.044236649
 21
4.0237708242
 31
0.0
  0
LINE
  5
36A
330
1F
100
AcDbEntity
  8
TRMODEL1
  6
Continuous
 62
     2
100
AcDbLine
 10
26.1308301392
 20
3.7994712414
 30
0.0
 11
25.7792676392
 21
3.8580649914
 31
0.0
  0
LINE
  5
36B
330
1F
100
AcDbEntity
  8
TRMODEL1
  6
Continuous
 62
     2
100
AcDbLine
 10
25.7792676392
 20
3.8580649914
 30
0.0
 11
26.1308301392
 21
3.9166587414
 31
0.0
  0
LINE
  5
36C
330
1F
100
AcDbEntity
  8
TRMODEL1
  6
Continuous
 62
     2
100
AcDbLine
 10
26.1308301392
 20
3.9166587414
 30
0.0
 11
26.1308301392
 21
3.7994712414
 31
0.0
  0
LINE
  5
36D
330
1F
100
AcDbEntity
  8
TRMODEL1
  6
Continuous
 62
     4
100
AcDbLine
 10
25.6498518246
 20
3.7592772084
 30
0.0
 11
25.6498518246
 21
3.950462683
 31
0.0
  0
LINE
  5
36E
330
1F
100
AcDbEntity
  8
TRMODEL1
  6
Continuous
 62
     4
100
AcDbLine
 10
25.588192017
 20
4.0031193546
 30
0.0
 11
25.588192017
 21
3.9871167536
 31
0.0
  0
LINE
  5
36F
330
1F
100
AcDbEntity
  8
TRMODEL1
  6
Continuous
 62
     4
100
AcDbLine
 10
25.6498518246
 20
3.950462683
 30
0.0
 11
25.5534350945
 21
4.1201771073
 31
0.0
  0
LINE
  5
370
330
1F
100
AcDbEntity
  8
TRMODEL1
  6
Continuous
 62
     2
100
AcDbLine
 10
25.4912959613
 20
8.6563995057
 30
0.0
 11
25.4998061873
 21
8.6378995048
 31
0.0
  0
LINE
  5
371
330
1F
100
AcDbEntity
  8
TRMODEL1
  6
Continuous
 62
     2
100
AcDbLine
 10
25.4998061873
 20
8.6378995048
 30
0.0
 11
25.4945810876
 21
8.6110152842
 31
0.0
  0
LINE
  5
372
330
1F
100
AcDbEntity
  8
TRMODEL1
  6
Continuous
 62
     2
100
AcDbLine
 10
25.4945810876
 20
8.6110152842
 30
0.0
 11
25.4726545334
 21
8.5867905113
 31
0.0
  0
LINE
  5
373
330
1F
100
AcDbEntity
  8
TRMODEL1
  6
Continuous
 62
     2
100
AcDbLine
 10
25.4726545334
 20
8.5867905113
 30
0.0
 11
25.436510218
 21
8.5682935545
 31
0.0
  0
LINE
  5
374
330
1F
100
AcDbEntity
  8
TRMODEL1
  6
Continuous
 62
     2
100
AcDbLine
 10
25.436510218
 20
8.5682935545
 30
0.0
 11
25.3902385815
 21
8.5579199676
 31
0.0
  0
LINE
  5
375
330
1F
100
AcDbEntity
  8
TRMODEL1
  6
Continuous
 62
     2
100
AcDbLine
 10
25.3902385815
 20
8.5579199676
 30
0.0
 11
25.3390757685
 21
8.5571302368
 31
0.0
  0
LINE
  5
376
330
1F
100
AcDbEntity
  8
TRMODEL1
  6
Continuous
 62
     2
100
AcDbLine
 10
25.3390757685
 20
8.5571302368
 30
0.0
 11
25.2888184252
 21
8.5663539386
 31
0.0
  0
LINE
  5
377
330
1F
100
AcDbEntity
  8
TRMODEL1
  6
Continuous
 62
     2
100
AcDbLine
 10
25.2888184252
 20
8.5663539386
 30
0.0
 11
25.2451475726
 21
8.5848073174
 31
0.0
  0
LINE
  5
378
330
1F
100
AcDbEntity
  8
TRMODEL1
  6
Continuous
 62
     2
100
AcDbLine
 10
25.2451475726
 20
8.5848073174
 30
0.0
 11
25.2130149686
 21
8.6107509674
 31
0.0
  0
LINE
  5
379
330
1F
100
AcDbEntity
  8
TRMODEL1
  6
Continuous
 62
     2
100
AcDbLine
 10
25.2130149686
 20
8.6107509674
 30
0.0
 11
25.1960520212
 21
8.6415135198
 31
0.0
  0
LINE
  5
37A
330
1F
100
AcDbEntity
  8
TRMODEL1
  6
Continuous
 62
     2
100
AcDbLine
 10
25.1960520212
 20
8.6415135198
 30
0.0
 11
25.1961817369
 21
8.6739476343
 31
0.0
  0
LINE
  5
37B
330
1F
100
AcDbEntity
  8
TRMODEL1
  6
Continuous
 62
     2
100
AcDbLine
 10
25.1961817369
 20
8.6739476343
 30
0.0
 11
25.2001131054
 21
8.6809663126
 31
0.0
  0
LINE
  5
37C
330
1F
100
AcDbEntity
  8
TRMODEL1
  6
Continuous
 62
     2
100
AcDbLine
 10
25.1959747138
 20
8.7056495129
 30
0.0
 11
25.1973551522
 21
8.6853294938
 31
0.0
  0
LINE
  5
37D
330
1F
100
AcDbEntity
  8
TRMODEL1
  6
Continuous
 62
     2
100
AcDbLine
 10
25.1973551522
 20
8.6853294938
 30
0.0
 11
25.2165017044
 21
8.6550389594
 31
0.0
  0
LINE
  5
37E
330
1F
100
AcDbEntity
  8
TRMODEL1
  6
Continuous
 62
     2
100
AcDbLine
 10
25.2165017044
 20
8.6550389594
 30
0.0
 11
25.2504234286
 21
8.629957618
 31
0.0
  0
LINE
  5
37F
330
1F
100
AcDbEntity
  8
TRMODEL1
  6
Continuous
 62
     2
100
AcDbLine
 10
25.2504234286
 20
8.629957618
 30
0.0
 11
25.2952858632
 21
8.6126609895
 31
0.0
  0
LINE
  5
380
330
1F
100
AcDbEntity
  8
TRMODEL1
  6
Continuous
 62
     2
100
AcDbLine
 10
25.2952858632
 20
8.6126609895
 30
0.0
 11
25.3460028054
 21
8.6047584571
 31
0.0
  0
LINE
  5
381
330
1F
100
AcDbEntity
  8
TRMODEL1
  6
Continuous
 62
     2
100
AcDbLine
 10
25.3460028054
 20
8.6047584571
 30
0.0
 11
25.3968418859
 21
8.6068790892
 31
0.0
  0
LINE
  5
382
330
1F
100
AcDbEntity
  8
TRMODEL1
  6
Continuous
 62
     2
100
AcDbLine
 10
25.3968418859
 20
8.6068790892
 30
0.0
 11
25.442041112
 21
8.6184495966
 31
0.0
  0
LINE
  5
383
330
1F
100
AcDbEntity
  8
TRMODEL1
  6
Continuous
 62
     2
100
AcDbLine
 10
25.442041112
 20
8.6184495966
 30
0.0
 11
25.4764881088
 21
8.6378699728
 31
0.0
  0
LINE
  5
384
330
1F
100
AcDbEntity
  8
TRMODEL1
  6
Continuous
 62
     2
100
AcDbLine
 10
25.4764881088
 20
8.6378699728
 30
0.0
 11
25.4962822094
 21
8.6626389553
 31
0.0
  0
LINE
  5
385
330
1F
100
AcDbEntity
  8
TRMODEL1
  6
Continuous
 62
     2
100
AcDbLine
 10
25.4962822094
 20
8.6626389553
 30
0.0
 11
25.498218081
 21
8.6806513801
 31
0.0
  0
LINE
  5
386
330
1F
100
AcDbEntity
  8
TRMODEL1
  6
Continuous
 62
     2
100
AcDbLine
 10
25.1953880433
 20
8.7555217003
 30
0.0
 11
25.1943301643
 21
8.7486835352
 31
0.0
  0
LINE
  5
387
330
1F
100
AcDbEntity
  8
TRMODEL1
  6
Continuous
 62
     2
100
AcDbLine
 10
25.1943301643
 20
8.7486835352
 30
0.0
 11
25.2066214781
 21
8.7171093743
 31
0.0
  0
LINE
  5
388
330
1F
100
AcDbEntity
  8
TRMODEL1
  6
Continuous
 62
     2
100
AcDbLine
 10
25.2066214781
 20
8.7171093743
 30
0.0
 11
25.2348092786
 21
8.6895358539
 31
0.0
  0
LINE
  5
389
330
1F
100
AcDbEntity
  8
TRMODEL1
  6
Continuous
 62
     2
100
AcDbLine
 10
25.2348092786
 20
8.6895358539
 30
0.0
 11
25.2756994786
 21
8.6687500351
 31
0.0
  0
LINE
  5
38A
330
1F
100
AcDbEntity
  8
TRMODEL1
  6
Continuous
 62
     2
100
AcDbLine
 10
25.2756994786
 20
8.6687500351
 30
0.0
 11
25.3246693746
 21
8.656836796
 31
0.0
  0
LINE
  5
38B
330
1F
100
AcDbEntity
  8
TRMODEL1
  6
Continuous
 62
     2
100
AcDbLine
 10
25.3246693746
 20
8.656836796
 30
0.0
 11
25.3761679456
 21
8.6548003072
 31
0.0
  0
LINE
  5
38C
330
1F
100
AcDbEntity
  8
TRMODEL1
  6
Continuous
 62
     2
100
AcDbLine
 10
25.3761679456
 20
8.6548003072
 30
0.0
 11
25.424373542
 21
8.6626066743
 31
0.0
  0
LINE
  5
38D
330
1F
100
AcDbEntity
  8
TRMODEL1
  6
Continuous
 62
     2
100
AcDbLine
 10
25.424373542
 20
8.6626066743
 30
0.0
 11
25.4638225864
 21
8.6790315606
 31
0.0
  0
LINE
  5
38E
330
1F
100
AcDbEntity
  8
TRMODEL1
  6
Continuous
 62
     2
100
AcDbLine
 10
25.4638225864
 20
8.6790315606
 30
0.0
 11
25.4900545203
 21
8.7019380398
 31
0.0
  0
LINE
  5
38F
330
1F
100
AcDbEntity
  8
TRMODEL1
  6
Continuous
 62
     2
100
AcDbLine
 10
25.4900545203
 20
8.7019380398
 30
0.0
 11
25.5000973652
 21
8.728417086
 31
0.0
  0
LINE
  5
390
330
1F
100
AcDbEntity
  8
TRMODEL1
  6
Continuous
 62
     2
100
AcDbLine
 10
25.5000973652
 20
8.728417086
 30
0.0
 11
25.4995160703
 21
8.7305518962
 31
0.0
  0
LINE
  5
391
330
1F
100
AcDbEntity
  8
TRMODEL1
  6
Continuous
 62
     2
100
AcDbLine
 10
25.4919019758
 20
8.7068090559
 30
0.0
 11
25.4947853007
 21
8.7035802881
 31
0.0
  0
LINE
  5
392
330
1F
100
AcDbEntity
  8
TRMODEL1
  6
Continuous
 62
     2
100
AcDbLine
 10
25.4947853007
 20
8.7035802881
 30
0.0
 11
25.4997522699
 21
8.6766751907
 31
0.0
  0
LINE
  5
393
330
1F
100
AcDbEntity
  8
TRMODEL1
  6
Continuous
 62
     2
100
AcDbLine
 10
25.4997522699
 20
8.6766751907
 30
0.0
 11
25.4874333224
 21
8.6504915363
 31
0.0
  0
LINE
  5
394
330
1F
100
AcDbEntity
  8
TRMODEL1
  6
Continuous
 62
     2
100
AcDbLine
 10
25.4874333224
 20
8.6504915363
 30
0.0
 11
25.459222195
 21
8.6282939274
 31
0.0
  0
LINE
  5
395
330
1F
100
AcDbEntity
  8
TRMODEL1
  6
Continuous
 62
     2
100
AcDbLine
 10
25.459222195
 20
8.6282939274
 30
0.0
 11
25.4183142419
 21
8.6129193246
 31
0.0
  0
LINE
  5
396
330
1F
100
AcDbEntity
  8
TRMODEL1
  6
Continuous
 62
     2
100
AcDbLine
 10
25.4183142419
 20
8.6129193246
 30
0.0
 11
25.3693361289
 21
8.6063831668
 31
0.0
  0
LINE
  5
397
330
1F
100
AcDbEntity
  8
TRMODEL1
  6
Continuous
 62
     2
100
AcDbLine
 10
25.3693361289
 20
8.6063831668
 30
0.0
 11
25.3178380288
 21
8.6097656982
 31
0.0
  0
LINE
  5
398
330
1F
100
AcDbEntity
  8
TRMODEL1
  6
Continuous
 62
     2
100
AcDbLine
 10
25.3178380288
 20
8.6097656982
 30
0.0
 11
25.2696423
 21
8.6229488811
 31
0.0
  0
LINE
  5
399
330
1F
100
AcDbEntity
  8
TRMODEL1
  6
Continuous
 62
     2
100
AcDbLine
 10
25.2696423
 20
8.6229488811
 30
0.0
 11
25.2302117257
 21
8.6447835452
 31
0.0
  0
LINE
  5
39A
330
1F
100
AcDbEntity
  8
TRMODEL1
  6
Continuous
 62
     2
100
AcDbLine
 10
25.2302117257
 20
8.6447835452
 30
0.0
 11
25.2040038047
 21
8.673070901
 31
0.0
  0
LINE
  5
39B
330
1F
100
AcDbEntity
  8
TRMODEL1
  6
Continuous
 62
     2
100
AcDbLine
 10
25.2040038047
 20
8.673070901
 30
0.0
 11
25.1939888533
 21
8.7049332229
 31
0.0
  0
LINE
  5
39C
330
1F
100
AcDbEntity
  8
TRMODEL1
  6
Continuous
 62
     2
100
AcDbLine
 10
25.1939888533
 20
8.7049332229
 30
0.0
 11
25.2003971675
 21
8.733098502
 31
0.0
  0
LINE
  5
39D
330
1F
100
AcDbEntity
  8
TRMODEL1
  6
Continuous
 62
     4
100
AcDbLine
 10
24.2963870095
 20
7.6599577236
 30
0.0
 11
24.729446643
 21
7.9099577286
 31
0.0
  0
LINE
  5
39E
330
1F
100
AcDbEntity
  8
TRMODEL1
  6
Continuous
 62
     4
100
AcDbLine
 10
24.2963870095
 20
7.6599577236
 30
0.0
 11
24.625512331
 21
7.4699577198
 31
0.0
  0
LINE
  5
39F
330
1F
100
AcDbEntity
  8
TRMODEL1
  6
Continuous
 62
     4
100
AcDbLine
 10
24.2963870095
 20
7.5974475636
 30
0.0
 11
24.625512331
 21
7.4074475598
 31
0.0
  0
LINE
  5
3A0
330
1F
100
AcDbEntity
  8
TRMODEL1
  6
Continuous
 62
     4
100
AcDbLine
 10
24.6544289861
 20
7.9173862882
 30
0.0
 11
24.2213693527
 21
7.6673862832
 31
0.0
  0
LINE
  5
3A1
330
1F
100
AcDbEntity
  8
TRMODEL1
  6
Continuous
 62
     4
100
AcDbLine
 10
24.1902873993
 20
7.5986878111
 30
0.0
 11
24.1923260736
 21
7.6214133589
 31
0.0
  0
LINE
  5
3A2
330
1F
100
AcDbEntity
  8
TRMODEL1
  6
Continuous
 62
     4
100
AcDbLine
 10
24.1923260736
 20
7.6214133589
 30
0.0
 11
24.1983637513
 21
7.6409117735
 31
0.0
  0
LINE
  5
3A3
330
1F
100
AcDbEntity
  8
TRMODEL1
  6
Continuous
 62
     4
100
AcDbLine
 10
24.1983637513
 20
7.6409117735
 30
0.0
 11
24.2081684078
 21
7.6564337417
 31
0.0
  0
LINE
  5
3A4
330
1F
100
AcDbEntity
  8
TRMODEL1
  6
Continuous
 62
     4
100
AcDbLine
 10
24.2081684078
 20
7.6564337417
 30
0.0
 11
24.2213632557
 21
7.6673827629
 31
0.0
  0
LINE
  5
3A5
330
1F
100
AcDbEntity
  8
TRMODEL1
  6
Continuous
 62
     4
100
AcDbLine
 10
24.2213632557
 20
7.6673827629
 30
0.0
 11
24.2374412244
 21
7.6733380725
 31
0.0
  0
LINE
  5
3A6
330
1F
100
AcDbEntity
  8
TRMODEL1
  6
Continuous
 62
     4
100
AcDbLine
 10
24.2374412244
 20
7.6733380725
 30
0.0
 11
24.2557844465
 21
7.6740708112
 31
0.0
  0
LINE
  5
3A7
330
1F
100
AcDbEntity
  8
TRMODEL1
  6
Continuous
 62
     4
100
AcDbLine
 10
24.2557844465
 20
7.6740708112
 30
0.0
 11
24.2756880024
 21
7.6695528203
 31
0.0
  0
LINE
  5
3A8
330
1F
100
AcDbEntity
  8
TRMODEL1
  6
Continuous
 62
     4
100
AcDbLine
 10
24.2756880024
 20
7.6695528203
 30
0.0
 11
24.2963870095
 21
7.6599577236
 31
0.0
  0
LINE
  5
3A9
330
1F
100
AcDbEntity
  8
TRMODEL1
  6
Continuous
 62
     4
100
AcDbLine
 10
24.2444198535
 20
7.2523866036
 30
0.0
 11
24.2444198535
 21
7.5674378105
 31
0.0
  0
LINE
  5
3AA
330
1F
100
AcDbEntity
  8
TRMODEL1
  6
Continuous
 62
     4
100
AcDbLine
 10
24.5692673712
 20
7.4399170839
 30
0.0
 11
24.2444198535
 21
7.2523866036
 31
0.0
  0
LINE
  5
3AB
330
1F
100
AcDbEntity
  8
TRMODEL1
  6
Continuous
 62
     4
100
AcDbLine
 10
24.1902873993
 20
7.2836366043
 30
0.0
 11
24.1902873993
 21
7.5986878111
 31
0.0
  0
LINE
  5
3AC
330
1F
100
AcDbEntity
  8
TRMODEL1
  6
Continuous
 62
     4
100
AcDbLine
 10
24.2444198535
 20
7.2523866036
 30
0.0
 11
24.1902873993
 21
7.2836366043
 31
0.0
  0
LINE
  5
3AD
330
1F
100
AcDbEntity
  8
TRMODEL1
  6
Continuous
 62
     4
100
AcDbLine
 10
24.2444198535
 20
7.5674378105
 30
0.0
 11
24.2454183879
 21
7.578568691
 31
0.0
  0
LINE
  5
3AE
330
1F
100
AcDbEntity
  8
TRMODEL1
  6
Continuous
 62
     4
100
AcDbLine
 10
24.2454183879
 20
7.578568691
 30
0.0
 11
24.2483756177
 21
7.5881189349
 31
0.0
  0
LINE
  5
3AF
330
1F
100
AcDbEntity
  8
TRMODEL1
  6
Continuous
 62
     4
100
AcDbLine
 10
24.2483756177
 20
7.5881189349
 30
0.0
 11
24.2531778985
 21
7.5957215316
 31
0.0
  0
LINE
  5
3B0
330
1F
100
AcDbEntity
  8
TRMODEL1
  6
Continuous
 62
     4
100
AcDbLine
 10
24.2531778985
 20
7.5957215316
 30
0.0
 11
24.2596406811
 21
7.6010843175
 31
0.0
  0
LINE
  5
3B1
330
1F
100
AcDbEntity
  8
TRMODEL1
  6
Continuous
 62
     4
100
AcDbLine
 10
24.2596406811
 20
7.6010843175
 30
0.0
 11
24.2675156046
 21
7.6040012038
 31
0.0
  0
LINE
  5
3B2
330
1F
100
AcDbEntity
  8
TRMODEL1
  6
Continuous
 62
     4
100
AcDbLine
 10
24.2675156046
 20
7.6040012038
 30
0.0
 11
24.2765000399
 21
7.6043600962
 31
0.0
  0
LINE
  5
3B3
330
1F
100
AcDbEntity
  8
TRMODEL1
  6
Continuous
 62
     4
100
AcDbLine
 10
24.2765000399
 20
7.6043600962
 30
0.0
 11
24.2862487203
 21
7.6021472027
 31
0.0
  0
LINE
  5
3B4
330
1F
100
AcDbEntity
  8
TRMODEL1
  6
Continuous
 62
     4
100
AcDbLine
 10
24.2862487203
 20
7.6021472027
 30
0.0
 11
24.2963870095
 21
7.5974475636
 31
0.0
  0
LINE
  5
3B5
330
1F
100
AcDbEntity
  8
TRMODEL1
  6
Continuous
 62
     4
100
AcDbLine
 10
24.2444198535
 20
7.5674378105
 30
0.0
 11
24.2963870095
 21
7.5974475636
 31
0.0
  0
LINE
  5
3B6
330
1F
100
AcDbEntity
  8
TRMODEL1
  6
Continuous
 62
     4
100
AcDbLine
 10
26.463850475
 20
6.7861877948
 30
0.0
 11
26.463850475
 21
6.471136588
 31
0.0
  0
LINE
  5
3B7
330
1F
100
AcDbEntity
  8
TRMODEL1
  6
Continuous
 62
     4
100
AcDbLine
 10
26.0307908416
 20
6.5361877898
 30
0.0
 11
26.463850475
 21
6.7861877948
 31
0.0
  0
LINE
  5
3B8
330
1F
100
AcDbEntity
  8
TRMODEL1
  6
Continuous
 62
     2
100
AcDbLine
 10
26.9440543736
 20
6.6174327741
 30
0.0
 11
26.5924918736
 21
6.6760265241
 31
0.0
  0
LINE
  5
3B9
330
1F
100
AcDbEntity
  8
TRMODEL1
  6
Continuous
 62
     2
100
AcDbLine
 10
26.5924918736
 20
6.6760265241
 30
0.0
 11
26.9440543736
 21
6.7346202741
 31
0.0
  0
LINE
  5
3BA
330
1F
100
AcDbEntity
  8
TRMODEL1
  6
Continuous
 62
     2
100
AcDbLine
 10
26.9440543736
 20
6.7346202741
 30
0.0
 11
26.9440543736
 21
6.6174327741
 31
0.0
  0
LINE
  5
3BB
330
1F
100
AcDbEntity
  8
TRMODEL1
  6
Continuous
 62
     4
100
AcDbLine
 10
24.7835790972
 20
6.8786264373
 30
0.0
 11
25.4374991437
 21
6.5011264298
 31
0.0
  0
LINE
  5
3BC
330
1F
100
AcDbEntity
  8
TRMODEL1
  6
Continuous
 62
     4
100
AcDbLine
 10
24.7835790972
 20
6.8161162773
 30
0.0
 11
25.4374991437
 21
6.4386162697
 31
0.0
  0
LINE
  5
3BD
330
1F
100
AcDbEntity
  8
TRMODEL1
  6
Continuous
 62
     4
100
AcDbLine
 10
25.4894662997
 20
6.5311361829
 30
0.0
 11
25.4894662997
 21
6.8486877961
 31
0.0
  0
LINE
  5
3BE
330
1F
100
AcDbEntity
  8
TRMODEL1
  6
Continuous
 62
     4
100
AcDbLine
 10
25.5435987539
 20
6.4998861822
 30
0.0
 11
25.5435987539
 21
6.8174377955
 31
0.0
  0
LINE
  5
3BF
330
1F
100
AcDbEntity
  8
TRMODEL1
  6
Continuous
 62
     4
100
AcDbLine
 10
25.8706119217
 20
6.6886668657
 30
0.0
 11
25.5435987539
 21
6.4998861822
 31
0.0
  0
LINE
  5
3C0
330
1F
100
AcDbEntity
  8
TRMODEL1
  6
Continuous
 62
     4
100
AcDbLine
 10
25.5955659099
 20
6.8474475486
 30
0.0
 11
25.9246912314
 21
6.6574475448
 31
0.0
  0
LINE
  5
3C1
330
1F
100
AcDbEntity
  8
TRMODEL1
  6
Continuous
 62
     4
100
AcDbLine
 10
25.9246912314
 20
6.7199577048
 30
0.0
 11
25.9453902385
 21
6.7056542366
 31
0.0
  0
LINE
  5
3C2
330
1F
100
AcDbEntity
  8
TRMODEL1
  6
Continuous
 62
     4
100
AcDbLine
 10
25.9453902385
 20
6.7056542366
 30
0.0
 11
25.9652937944
 21
6.687192071
 31
0.0
  0
LINE
  5
3C3
330
1F
100
AcDbEntity
  8
TRMODEL1
  6
Continuous
 62
     4
100
AcDbLine
 10
25.9652937944
 20
6.687192071
 30
0.0
 11
25.9836370165
 21
6.6652806988
 31
0.0
  0
LINE
  5
3C4
330
1F
100
AcDbEntity
  8
TRMODEL1
  6
Continuous
 62
     4
100
AcDbLine
 10
25.9836370165
 20
6.6652806988
 30
0.0
 11
25.9997149852
 21
6.6407621617
 31
0.0
  0
LINE
  5
3C5
330
1F
100
AcDbEntity
  8
TRMODEL1
  6
Continuous
 62
     4
100
AcDbLine
 10
25.9997149852
 20
6.6407621617
 30
0.0
 11
26.0129098331
 21
6.6145786933
 31
0.0
  0
LINE
  5
3C6
330
1F
100
AcDbEntity
  8
TRMODEL1
  6
Continuous
 62
     4
100
AcDbLine
 10
26.0129098331
 20
6.6145786933
 30
0.0
 11
26.0227144896
 21
6.5877365097
 31
0.0
  0
LINE
  5
3C7
330
1F
100
AcDbEntity
  8
TRMODEL1
  6
Continuous
 62
     4
100
AcDbLine
 10
26.0227144896
 20
6.5877365097
 30
0.0
 11
26.0287521673
 21
6.5612671409
 31
0.0
  0
LINE
  5
3C8
330
1F
100
AcDbEntity
  8
TRMODEL1
  6
Continuous
 62
     4
100
AcDbLine
 10
26.0287521673
 20
6.5612671409
 30
0.0
 11
26.0307908416
 21
6.5361877898
 31
0.0
  0
LINE
  5
3C9
330
1F
100
AcDbEntity
  8
TRMODEL1
  6
Continuous
 62
     4
100
AcDbLine
 10
26.0307908416
 20
6.221136583
 30
0.0
 11
26.463850475
 21
6.471136588
 31
0.0
  0
LINE
  5
3CA
330
1F
100
AcDbEntity
  8
TRMODEL1
  6
Continuous
 62
     2
100
AcDbLine
 10
26.252811569
 20
5.3631924776
 30
0.0
 11
27.9284439806
 21
5.3631924776
 31
0.0
  0
LINE
  5
3CB
330
1F
100
AcDbEntity
  8
TRMODEL1
  6
Continuous
 62
     4
100
AcDbLine
 10
25.5096675026
 20
5.3601399103
 30
0.0
 11
25.507366689
 21
5.3637486004
 31
0.0
  0
LINE
  5
3CC
330
1F
100
AcDbEntity
  8
TRMODEL1
  6
Continuous
 62
     4
100
AcDbLine
 10
25.507366689
 20
5.3637486004
 30
0.0
 11
25.4783674221
 21
5.3918434899
 31
0.0
  0
LINE
  5
3CD
330
1F
100
AcDbEntity
  8
TRMODEL1
  6
Continuous
 62
     4
100
AcDbLine
 10
25.4783674221
 20
5.3918434899
 30
0.0
 11
25.4351372503
 21
5.4129803529
 31
0.0
  0
LINE
  5
3CE
330
1F
100
AcDbEntity
  8
TRMODEL1
  6
Continuous
 62
     4
100
AcDbLine
 10
25.4351372503
 20
5.4129803529
 30
0.0
 11
25.3823608336
 21
5.4248686822
 31
0.0
  0
LINE
  5
3CF
330
1F
100
AcDbEntity
  8
TRMODEL1
  6
Continuous
 62
     4
100
AcDbLine
 10
25.3823608336
 20
5.4248686822
 30
0.0
 11
25.3257573157
 21
5.4262201928
 31
0.0
  0
LINE
  5
3D0
330
1F
100
AcDbEntity
  8
TRMODEL1
  6
Continuous
 62
     4
100
AcDbLine
 10
25.3257573157
 20
5.4262201928
 30
0.0
 11
25.271460566
 21
5.4168884277
 31
0.0
  0
LINE
  5
3D1
330
1F
100
AcDbEntity
  8
TRMODEL1
  6
Continuous
 62
     4
100
AcDbLine
 10
25.271460566
 20
5.4168884277
 30
0.0
 11
25.2253544798
 21
5.3978846284
 31
0.0
  0
LINE
  5
3D2
330
1F
100
AcDbEntity
  8
TRMODEL1
  6
Continuous
 62
     4
100
AcDbLine
 10
25.2253544798
 20
5.4628951949
 30
0.0
 11
25.192435367
 21
5.4362787179
 31
0.0
  0
LINE
  5
3D3
330
1F
100
AcDbEntity
  8
TRMODEL1
  6
Continuous
 62
     4
100
AcDbLine
 10
25.192435367
 20
5.4362787179
 30
0.0
 11
25.1762705242
 21
5.4049338715
 31
0.0
  0
LINE
  5
3D4
330
1F
100
AcDbEntity
  8
TRMODEL1
  6
Continuous
 62
     4
100
AcDbLine
 10
25.1762705242
 20
5.4049338715
 30
0.0
 11
25.178611663
 21
5.3722573561
 31
0.0
  0
LINE
  5
3D5
330
1F
100
AcDbEntity
  8
TRMODEL1
  6
Continuous
 62
     4
100
AcDbLine
 10
25.178611663
 20
5.3722573561
 30
0.0
 11
25.1992050847
 21
5.3417901793
 31
0.0
  0
LINE
  5
3D6
330
1F
100
AcDbEntity
  8
TRMODEL1
  6
Continuous
 62
     4
100
AcDbLine
 10
25.1992050847
 20
5.3417901793
 30
0.0
 11
25.2358191725
 21
5.3168339323
 31
0.0
  0
LINE
  5
3D7
330
1F
100
AcDbEntity
  8
TRMODEL1
  6
Continuous
 62
     4
100
AcDbLine
 10
25.2358191725
 20
5.3168339323
 30
0.0
 11
25.2844862218
 21
5.3000930119
 31
0.0
  0
LINE
  5
3D8
330
1F
100
AcDbEntity
  8
TRMODEL1
  6
Continuous
 62
     4
100
AcDbLine
 10
25.2844862218
 20
5.3000930119
 30
0.0
 11
25.3399324028
 21
5.2933815564
 31
0.0
  0
LINE
  5
3D9
330
1F
100
AcDbEntity
  8
TRMODEL1
  6
Continuous
 62
     4
100
AcDbLine
 10
25.3399324028
 20
5.2933815564
 30
0.0
 11
25.3961492613
 21
5.2974268562
 31
0.0
  0
LINE
  5
3DA
330
1F
100
AcDbEntity
  8
TRMODEL1
  6
Continuous
 62
     4
100
AcDbLine
 10
25.3961492613
 20
5.2974268562
 30
0.0
 11
25.4470448284
 21
5.3117905404
 31
0.0
  0
LINE
  5
3DB
330
1F
100
AcDbEntity
  8
TRMODEL1
  6
Continuous
 62
     4
100
AcDbLine
 10
25.4470448284
 20
5.3117905404
 30
0.0
 11
25.4871037798
 21
5.3349160808
 31
0.0
  0
LINE
  5
3DC
330
1F
100
AcDbEntity
  8
TRMODEL1
  6
Continuous
 62
     4
100
AcDbLine
 10
25.4871037798
 20
5.3349160808
 30
0.0
 11
25.5119851065
 21
5.3642974663
 31
0.0
  0
LINE
  5
3DD
330
1F
100
AcDbEntity
  8
TRMODEL1
  6
Continuous
 62
     4
100
AcDbLine
 10
25.5119851065
 20
5.3642974663
 30
0.0
 11
25.5189925306
 21
5.3967507679
 31
0.0
  0
LINE
  5
3DE
330
1F
100
AcDbEntity
  8
TRMODEL1
  6
Continuous
 62
     4
100
AcDbLine
 10
25.5189925306
 20
5.3967507679
 30
0.0
 11
25.507366689
 21
5.4287591668
 31
0.0
  0
LINE
  5
3DF
330
1F
100
AcDbEntity
  8
TRMODEL1
  6
Continuous
 62
     4
100
AcDbLine
 10
25.507366689
 20
5.4287591668
 30
0.0
 11
25.4783674221
 21
5.4568540564
 31
0.0
  0
LINE
  5
3E0
330
1F
100
AcDbEntity
  8
TRMODEL1
  6
Continuous
 62
     4
100
AcDbLine
 10
25.4783674221
 20
5.4568540564
 30
0.0
 11
25.4351372503
 21
5.4779909194
 31
0.0
  0
LINE
  5
3E1
330
1F
100
AcDbEntity
  8
TRMODEL1
  6
Continuous
 62
     4
100
AcDbLine
 10
25.4351372503
 20
5.4779909194
 30
0.0
 11
25.3823608336
 21
5.4898792487
 31
0.0
  0
LINE
  5
3E2
330
1F
100
AcDbEntity
  8
TRMODEL1
  6
Continuous
 62
     4
100
AcDbLine
 10
25.3823608336
 20
5.4898792487
 30
0.0
 11
25.3257573157
 21
5.4912307593
 31
0.0
  0
LINE
  5
3E3
330
1F
100
AcDbEntity
  8
TRMODEL1
  6
Continuous
 62
     4
100
AcDbLine
 10
25.3257573157
 20
5.4912307593
 30
0.0
 11
25.271460566
 21
5.4818989942
 31
0.0
  0
LINE
  5
3E4
330
1F
100
AcDbEntity
  8
TRMODEL1
  6
Continuous
 62
     4
100
AcDbLine
 10
25.271460566
 20
5.4818989942
 30
0.0
 11
25.2253544798
 21
5.4628951949
 31
0.0
  0
LINE
  5
3E5
330
1F
100
AcDbEntity
  8
TRMODEL1
  6
Continuous
 62
     4
100
AcDbLine
 10
24.9642699824
 20
5.327634627
 30
0.0
 11
24.9655326821
 21
5.3097009125
 31
0.0
  0
LINE
  5
3E6
330
1F
100
AcDbEntity
  8
TRMODEL1
  6
Continuous
 62
     4
100
AcDbLine
 10
24.9655326821
 20
5.3097009125
 30
0.0
 11
24.9811303682
 21
5.2627746876
 31
0.0
  0
LINE
  5
3E7
330
1F
100
AcDbEntity
  8
TRMODEL1
  6
Continuous
 62
     4
100
AcDbLine
 10
24.9811303682
 20
5.2627746876
 30
0.0
 11
25.01383778
 21
5.2188812414
 31
0.0
  0
LINE
  5
3E8
330
1F
100
AcDbEntity
  8
TRMODEL1
  6
Continuous
 62
     4
100
AcDbLine
 10
25.01383778
 20
5.2188812414
 30
0.0
 11
25.0621255555
 21
5.1800729826
 31
0.0
  0
LINE
  5
3E9
330
1F
100
AcDbEntity
  8
TRMODEL1
  6
Continuous
 62
     4
100
AcDbLine
 10
25.0621255555
 20
5.1800729826
 30
0.0
 11
25.1237358118
 21
5.1481645423
 31
0.0
  0
LINE
  5
3EA
330
1F
100
AcDbEntity
  8
TRMODEL1
  6
Continuous
 62
     4
100
AcDbLine
 10
25.1237358118
 20
5.1481645423
 30
0.0
 11
25.1957877219
 21
5.1246479237
 31
0.0
  0
LINE
  5
3EB
330
1F
100
AcDbEntity
  8
TRMODEL1
  6
Continuous
 62
     4
100
AcDbLine
 10
25.1957877219
 20
5.1246479237
 30
0.0
 11
25.2749122185
 21
5.1106227378
 31
0.0
  0
LINE
  5
3EC
330
1F
100
AcDbEntity
  8
TRMODEL1
  6
Continuous
 62
     4
100
AcDbLine
 10
25.2749122185
 20
5.1106227378
 30
0.0
 11
25.3574095281
 21
5.1067447865
 31
0.0
  0
LINE
  5
3ED
330
1F
100
AcDbEntity
  8
TRMODEL1
  6
Continuous
 62
     4
100
AcDbLine
 10
25.3574095281
 20
5.1067447865
 30
0.0
 11
25.4394221682
 21
5.1131953988
 31
0.0
  0
LINE
  5
3EE
330
1F
100
AcDbEntity
  8
TRMODEL1
  6
Continuous
 62
     4
100
AcDbLine
 10
25.4394221682
 20
5.1131953988
 30
0.0
 11
25.5171153189
 21
5.129672951
 31
0.0
  0
LINE
  5
3EF
330
1F
100
AcDbEntity
  8
TRMODEL1
  6
Continuous
 62
     4
100
AcDbLine
 10
25.5171153189
 20
5.129672951
 30
0.0
 11
25.5868561348
 21
5.1554069711
 31
0.0
  0
LINE
  5
3F0
330
1F
100
AcDbEntity
  8
TRMODEL1
  6
Continuous
 62
     4
100
AcDbLine
 10
25.5868561348
 20
5.1554069711
 30
0.0
 11
25.6453836129
 21
5.1891941651
 31
0.0
  0
LINE
  5
3F1
330
1F
100
AcDbEntity
  8
TRMODEL1
  6
Continuous
 62
     4
100
AcDbLine
 10
25.6453836129
 20
5.1891941651
 30
0.0
 11
25.6899610734
 21
5.2294546811
 31
0.0
  0
LINE
  5
3F2
330
1F
100
AcDbEntity
  8
TRMODEL1
  6
Continuous
 62
     4
100
AcDbLine
 10
25.6899610734
 20
5.2294546811
 30
0.0
 11
25.7185041237
 21
5.2743059824
 31
0.0
  0
LINE
  5
3F3
330
1F
100
AcDbEntity
  8
TRMODEL1
  6
Continuous
 62
     4
100
AcDbLine
 10
25.7185041237
 20
5.2743059824
 30
0.0
 11
25.7296781225
 21
5.3216508717
 31
0.0
  0
LINE
  5
3F4
330
1F
100
AcDbEntity
  8
TRMODEL1
  6
Continuous
 62
     4
100
AcDbLine
 10
25.7296781225
 20
5.3216508717
 30
0.0
 11
25.7298184911
 21
5.327634627
 31
0.0
  0
LINE
  5
3F5
330
1F
100
AcDbEntity
  8
TRMODEL1
  6
Continuous
 62
     4
100
AcDbLine
 10
25.0763819659
 20
5.5488951966
 30
0.0
 11
25.0245255118
 21
5.5116530264
 31
0.0
  0
LINE
  5
3F6
330
1F
100
AcDbEntity
  8
TRMODEL1
  6
Continuous
 62
     4
100
AcDbLine
 10
25.0245255118
 20
5.5116530264
 30
0.0
 11
24.9877496749
 21
5.4688461822
 31
0.0
  0
LINE
  5
3F7
330
1F
100
AcDbEntity
  8
TRMODEL1
  6
Continuous
 62
     4
100
AcDbLine
 10
24.9877496749
 20
5.4688461822
 30
0.0
 11
24.9677740524
 21
5.4224762645
 31
0.0
  0
LINE
  5
3F8
330
1F
100
AcDbEntity
  8
TRMODEL1
  6
Continuous
 62
     4
100
AcDbLine
 10
24.9677740524
 20
5.4224762645
 30
0.0
 11
24.9655326821
 21
5.374711479
 31
0.0
  0
LINE
  5
3F9
330
1F
100
AcDbEntity
  8
TRMODEL1
  6
Continuous
 62
     4
100
AcDbLine
 10
24.9655326821
 20
5.374711479
 30
0.0
 11
24.9811303682
 21
5.3277852541
 31
0.0
  0
LINE
  5
3FA
330
1F
100
AcDbEntity
  8
TRMODEL1
  6
Continuous
 62
     4
100
AcDbLine
 10
24.9811303682
 20
5.3277852541
 30
0.0
 11
25.01383778
 21
5.2838918079
 31
0.0
  0
LINE
  5
3FB
330
1F
100
AcDbEntity
  8
TRMODEL1
  6
Continuous
 62
     4
100
AcDbLine
 10
25.01383778
 20
5.2838918079
 30
0.0
 11
25.0621255555
 21
5.2450835491
 31
0.0
  0
LINE
  5
3FC
330
1F
100
AcDbEntity
  8
TRMODEL1
  6
Continuous
 62
     4
100
AcDbLine
 10
25.0621255555
 20
5.2450835491
 30
0.0
 11
25.1237358118
 21
5.2131751088
 31
0.0
  0
LINE
  5
3FD
330
1F
100
AcDbEntity
  8
TRMODEL1
  6
Continuous
 62
     4
100
AcDbLine
 10
25.1237358118
 20
5.2131751088
 30
0.0
 11
25.1957877219
 21
5.1896584902
 31
0.0
  0
LINE
  5
3FE
330
1F
100
AcDbEntity
  8
TRMODEL1
  6
Continuous
 62
     4
100
AcDbLine
 10
25.1957877219
 20
5.1896584902
 30
0.0
 11
25.2749122185
 21
5.1756333042
 31
0.0
  0
LINE
  5
3FF
330
1F
100
AcDbEntity
  8
TRMODEL1
  6
Continuous
 62
     4
100
AcDbLine
 10
25.2749122185
 20
5.1756333042
 30
0.0
 11
25.3574095281
 21
5.171755353
 31
0.0
  0
LINE
  5
400
330
1F
100
AcDbEntity
  8
TRMODEL1
  6
Continuous
 62
     4
100
AcDbLine
 10
25.3574095281
 20
5.171755353
 30
0.0
 11
25.4394221682
 21
5.1782059653
 31
0.0
  0
LINE
  5
401
330
1F
100
AcDbEntity
  8
TRMODEL1
  6
Continuous
 62
     4
100
AcDbLine
 10
25.4394221682
 20
5.1782059653
 30
0.0
 11
25.5171153189
 21
5.1946835175
 31
0.0
  0
LINE
  5
402
330
1F
100
AcDbEntity
  8
TRMODEL1
  6
Continuous
 62
     4
100
AcDbLine
 10
25.5171153189
 20
5.1946835175
 30
0.0
 11
25.5868561348
 21
5.2204175376
 31
0.0
  0
LINE
  5
403
330
1F
100
AcDbEntity
  8
TRMODEL1
  6
Continuous
 62
     4
100
AcDbLine
 10
25.5868561348
 20
5.2204175376
 30
0.0
 11
25.6453836129
 21
5.2542047316
 31
0.0
  0
LINE
  5
404
330
1F
100
AcDbEntity
  8
TRMODEL1
  6
Continuous
 62
     4
100
AcDbLine
 10
25.6453836129
 20
5.2542047316
 30
0.0
 11
25.6899610734
 21
5.2944652476
 31
0.0
  0
LINE
  5
405
330
1F
100
AcDbEntity
  8
TRMODEL1
  6
Continuous
 62
     4
100
AcDbLine
 10
25.6899610734
 20
5.2944652476
 30
0.0
 11
25.7185041237
 21
5.3393165488
 31
0.0
  0
LINE
  5
406
330
1F
100
AcDbEntity
  8
TRMODEL1
  6
Continuous
 62
     4
100
AcDbLine
 10
25.7185041237
 20
5.3393165488
 30
0.0
 11
25.7296781225
 21
5.3866614382
 31
0.0
  0
LINE
  5
407
330
1F
100
AcDbEntity
  8
TRMODEL1
  6
Continuous
 62
     4
100
AcDbLine
 10
25.7296781225
 20
5.3866614382
 30
0.0
 11
25.7229605862
 21
5.4342861213
 31
0.0
  0
LINE
  5
408
330
1F
100
AcDbEntity
  8
TRMODEL1
  6
Continuous
 62
     4
100
AcDbLine
 10
25.7229605862
 20
5.4342861213
 30
0.0
 11
25.6986656191
 21
5.479963721
 31
0.0
  0
LINE
  5
409
330
1F
100
AcDbEntity
  8
TRMODEL1
  6
Continuous
 62
     4
100
AcDbLine
 10
25.6986656191
 20
5.479963721
 30
0.0
 11
25.657929227
 21
5.5215584033
 31
0.0
  0
LINE
  5
40A
330
1F
100
AcDbEntity
  8
TRMODEL1
  6
Continuous
 62
     4
100
AcDbLine
 10
25.657929227
 20
5.5215584033
 30
0.0
 11
25.6026561982
 21
5.5571252472
 31
0.0
  0
LINE
  5
40B
330
1F
100
AcDbEntity
  8
TRMODEL1
  6
Continuous
 62
     4
100
AcDbLine
 10
25.6026561982
 20
5.5571252472
 30
0.0
 11
25.5354310383
 21
5.5850011866
 31
0.0
  0
LINE
  5
40C
330
1F
100
AcDbEntity
  8
TRMODEL1
  6
Continuous
 62
     4
100
AcDbLine
 10
25.5354310383
 20
5.5850011866
 30
0.0
 11
25.4593971208
 21
5.6038827735
 31
0.0
  0
LINE
  5
40D
330
1F
100
AcDbEntity
  8
TRMODEL1
  6
Continuous
 62
     4
100
AcDbLine
 10
25.4593971208
 20
5.6038827735
 30
0.0
 11
25.3781097074
 21
5.612887126
 31
0.0
  0
LINE
  5
40E
330
1F
100
AcDbEntity
  8
TRMODEL1
  6
Continuous
 62
     4
100
AcDbLine
 10
25.3781097074
 20
5.612887126
 30
0.0
 11
25.2953697071
 21
5.6115932105
 31
0.0
  0
LINE
  5
40F
330
1F
100
AcDbEntity
  8
TRMODEL1
  6
Continuous
 62
     4
100
AcDbLine
 10
25.2953697071
 20
5.6115932105
 30
0.0
 11
25.2150459504
 21
5.6000615291
 31
0.0
  0
LINE
  5
410
330
1F
100
AcDbEntity
  8
TRMODEL1
  6
Continuous
 62
     4
100
AcDbLine
 10
25.2150459504
 20
5.6000615291
 30
0.0
 11
25.1408942869
 21
5.5788312903
 31
0.0
  0
LINE
  5
411
330
1F
100
AcDbEntity
  8
TRMODEL1
  6
Continuous
 62
     4
100
AcDbLine
 10
25.1408942869
 20
5.5788312903
 30
0.0
 11
25.0763819659
 21
5.5488951966
 31
0.0
  0
LINE
  5
412
330
1F
100
AcDbEntity
  8
TRMODEL1
  6
Continuous
 62
     4
100
AcDbLine
 10
24.9642699824
 20
5.327634627
 30
0.0
 11
24.9642699824
 21
5.3926451935
 31
0.0
  0
LINE
  5
413
330
1F
100
AcDbEntity
  8
TRMODEL1
  6
Continuous
 62
     4
100
AcDbLine
 10
25.2253544798
 20
5.3978846284
 30
0.0
 11
25.192435367
 21
5.3712681514
 31
0.0
  0
LINE
  5
414
330
1F
100
AcDbEntity
  8
TRMODEL1
  6
Continuous
 62
     4
100
AcDbLine
 10
25.192435367
 20
5.3712681514
 30
0.0
 11
25.184420971
 21
5.3601399103
 31
0.0
  0
LINE
  5
415
330
1F
100
AcDbEntity
  8
TRMODEL1
  6
Continuous
 62
     2
100
AcDbLine
 10
26.252811569
 20
5.3045987276
 30
0.0
 11
25.901249069
 21
5.3631924776
 31
0.0
  0
LINE
  5
416
330
1F
100
AcDbEntity
  8
TRMODEL1
  6
Continuous
 62
     2
100
AcDbLine
 10
25.901249069
 20
5.3631924776
 30
0.0
 11
26.252811569
 21
5.4217862276
 31
0.0
  0
LINE
  5
417
330
1F
100
AcDbEntity
  8
TRMODEL1
  6
Continuous
 62
     2
100
AcDbLine
 10
26.252811569
 20
5.4217862276
 30
0.0
 11
26.252811569
 21
5.3045987276
 31
0.0
  0
LINE
  5
418
330
1F
100
AcDbEntity
  8
TRMODEL1
  6
Continuous
 62
     4
100
AcDbLine
 10
25.7298184911
 20
5.3926451935
 30
0.0
 11
25.7298184911
 21
5.327634627
 31
0.0
  0
LINE
  5
419
330
1F
100
AcDbEntity
  8
TRMODEL1
  6
Continuous
 62
     4
100
AcDbLine
 10
25.4374991437
 20
6.4386162697
 30
0.0
 11
25.4581981508
 21
6.429021173
 31
0.0
  0
LINE
  5
41A
330
1F
100
AcDbEntity
  8
TRMODEL1
  6
Continuous
 62
     4
100
AcDbLine
 10
25.4581981508
 20
6.429021173
 30
0.0
 11
25.4781017067
 21
6.4245031821
 31
0.0
  0
LINE
  5
41B
330
1F
100
AcDbEntity
  8
TRMODEL1
  6
Continuous
 62
     4
100
AcDbLine
 10
25.4781017067
 20
6.4245031821
 30
0.0
 11
25.4964449289
 21
6.4252359208
 31
0.0
  0
LINE
  5
41C
330
1F
100
AcDbEntity
  8
TRMODEL1
  6
Continuous
 62
     4
100
AcDbLine
 10
25.4964449289
 20
6.4252359208
 30
0.0
 11
25.5125228976
 21
6.4311912304
 31
0.0
  0
LINE
  5
41D
330
1F
100
AcDbEntity
  8
TRMODEL1
  6
Continuous
 62
     4
100
AcDbLine
 10
25.5125228976
 20
6.4311912304
 30
0.0
 11
25.5257177455
 21
6.4421402517
 31
0.0
  0
LINE
  5
41E
330
1F
100
AcDbEntity
  8
TRMODEL1
  6
Continuous
 62
     4
100
AcDbLine
 10
25.5257177455
 20
6.4421402517
 30
0.0
 11
25.535522402
 21
6.4576622198
 31
0.0
  0
LINE
  5
41F
330
1F
100
AcDbEntity
  8
TRMODEL1
  6
Continuous
 62
     4
100
AcDbLine
 10
25.535522402
 20
6.4576622198
 30
0.0
 11
25.5415600797
 21
6.4771606344
 31
0.0
  0
LINE
  5
420
330
1F
100
AcDbEntity
  8
TRMODEL1
  6
Continuous
 62
     4
100
AcDbLine
 10
25.5415600797
 20
6.4771606344
 30
0.0
 11
25.5435987539
 21
6.4998861822
 31
0.0
  0
LINE
  5
421
330
1F
100
AcDbEntity
  8
TRMODEL1
  6
Continuous
 62
     4
100
AcDbLine
 10
25.4374991437
 20
6.5011264298
 30
0.0
 11
25.4476374329
 21
6.4964267906
 31
0.0
  0
LINE
  5
422
330
1F
100
AcDbEntity
  8
TRMODEL1
  6
Continuous
 62
     4
100
AcDbLine
 10
25.4476374329
 20
6.4964267906
 30
0.0
 11
25.4573861134
 21
6.4942138971
 31
0.0
  0
LINE
  5
423
330
1F
100
AcDbEntity
  8
TRMODEL1
  6
Continuous
 62
     4
100
AcDbLine
 10
25.4573861134
 20
6.4942138971
 30
0.0
 11
25.4663705487
 21
6.4945727895
 31
0.0
  0
LINE
  5
424
330
1F
100
AcDbEntity
  8
TRMODEL1
  6
Continuous
 62
     4
100
AcDbLine
 10
25.4663705487
 20
6.4945727895
 30
0.0
 11
25.4742454721
 21
6.4974896758
 31
0.0
  0
LINE
  5
425
330
1F
100
AcDbEntity
  8
TRMODEL1
  6
Continuous
 62
     4
100
AcDbLine
 10
25.4742454721
 20
6.4974896758
 30
0.0
 11
25.4807082548
 21
6.5028524618
 31
0.0
  0
LINE
  5
426
330
1F
100
AcDbEntity
  8
TRMODEL1
  6
Continuous
 62
     4
100
AcDbLine
 10
25.4807082548
 20
6.5028524618
 30
0.0
 11
25.4855105355
 21
6.5104550584
 31
0.0
  0
LINE
  5
427
330
1F
100
AcDbEntity
  8
TRMODEL1
  6
Continuous
 62
     4
100
AcDbLine
 10
25.4855105355
 20
6.5104550584
 30
0.0
 11
25.4884677654
 21
6.5200053023
 31
0.0
  0
LINE
  5
428
330
1F
100
AcDbEntity
  8
TRMODEL1
  6
Continuous
 62
     4
100
AcDbLine
 10
25.4884677654
 20
6.5200053023
 30
0.0
 11
25.4894662997
 21
6.5311361829
 31
0.0
  0
LINE
  5
429
330
1F
100
AcDbEntity
  8
TRMODEL1
  6
Continuous
 62
     4
100
AcDbLine
 10
25.4894662991
 20
6.53112643
 30
0.0
 11
25.4374991437
 21
6.5011264298
 31
0.0
  0
LINE
  5
42A
330
1F
100
AcDbEntity
  8
TRMODEL1
  6
Continuous
 62
     4
100
AcDbLine
 10
25.9246912314
 20
6.6574475448
 30
0.0
 11
25.9348295206
 21
6.6504417644
 31
0.0
  0
LINE
  5
42B
330
1F
100
AcDbEntity
  8
TRMODEL1
  6
Continuous
 62
     4
100
AcDbLine
 10
25.9348295206
 20
6.6504417644
 30
0.0
 11
25.944578201
 21
6.641399071
 31
0.0
  0
LINE
  5
42C
330
1F
100
AcDbEntity
  8
TRMODEL1
  6
Continuous
 62
     4
100
AcDbLine
 10
25.944578201
 20
6.641399071
 30
0.0
 11
25.9535626363
 21
6.6306669704
 31
0.0
  0
LINE
  5
42D
330
1F
100
AcDbEntity
  8
TRMODEL1
  6
Continuous
 62
     4
100
AcDbLine
 10
25.9535626363
 20
6.6306669704
 30
0.0
 11
25.9614375598
 21
6.618657891
 31
0.0
  0
LINE
  5
42E
330
1F
100
AcDbEntity
  8
TRMODEL1
  6
Continuous
 62
     4
100
AcDbLine
 10
25.9614375598
 20
6.618657891
 30
0.0
 11
25.9679003424
 21
6.605833335
 31
0.0
  0
LINE
  5
42F
330
1F
100
AcDbEntity
  8
TRMODEL1
  6
Continuous
 62
     4
100
AcDbLine
 10
25.9679003424
 20
6.605833335
 30
0.0
 11
25.9727026232
 21
6.5926861431
 31
0.0
  0
LINE
  5
430
330
1F
100
AcDbEntity
  8
TRMODEL1
  6
Continuous
 62
     4
100
AcDbLine
 10
25.9727026232
 20
6.5926861431
 30
0.0
 11
25.9756598531
 21
6.5797215542
 31
0.0
  0
LINE
  5
431
330
1F
100
AcDbEntity
  8
TRMODEL1
  6
Continuous
 62
     4
100
AcDbLine
 10
25.9756598531
 20
6.5797215542
 30
0.0
 11
25.9766583874
 21
6.5674377905
 31
0.0
  0
LINE
  5
432
330
1F
100
AcDbEntity
  8
TRMODEL1
  6
Continuous
 62
     4
100
AcDbLine
 10
25.9145720142
 20
6.6632892445
 30
0.0
 11
25.5125168006
 21
6.4311877101
 31
0.0
  0
LINE
  5
433
330
1F
100
AcDbEntity
  8
TRMODEL1
  6
Continuous
 62
     4
100
AcDbLine
 10
25.9766583874
 20
6.5674377905
 30
0.0
 11
25.9766583874
 21
6.2523865836
 31
0.0
  0
LINE
  5
434
330
1F
100
AcDbEntity
  8
TRMODEL1
  6
Continuous
 62
     4
100
AcDbLine
 10
26.0307908416
 20
6.5361877898
 30
0.0
 11
26.0307908416
 21
6.221136583
 31
0.0
  0
LINE
  5
435
330
1F
100
AcDbEntity
  8
TRMODEL1
  6
Continuous
 62
     4
100
AcDbLine
 10
26.0307908416
 20
6.221136583
 30
0.0
 11
25.9766583874
 21
6.2523865836
 31
0.0
  0
LINE
  5
436
330
1F
100
AcDbEntity
  8
TRMODEL1
  6
Continuous
 62
     4
100
AcDbLine
 10
26.3577508648
 20
6.9699577098
 30
0.0
 11
26.378449872
 21
6.9556542416
 31
0.0
  0
LINE
  5
437
330
1F
100
AcDbEntity
  8
TRMODEL1
  6
Continuous
 62
     4
100
AcDbLine
 10
26.378449872
 20
6.9556542416
 30
0.0
 11
26.3983534278
 21
6.937192076
 31
0.0
  0
LINE
  5
438
330
1F
100
AcDbEntity
  8
TRMODEL1
  6
Continuous
 62
     4
100
AcDbLine
 10
26.3983534278
 20
6.937192076
 30
0.0
 11
26.41669665
 21
6.9152807038
 31
0.0
  0
LINE
  5
439
330
1F
100
AcDbEntity
  8
TRMODEL1
  6
Continuous
 62
     4
100
AcDbLine
 10
26.41669665
 20
6.9152807038
 30
0.0
 11
26.4327746187
 21
6.8907621667
 31
0.0
  0
LINE
  5
43A
330
1F
100
AcDbEntity
  8
TRMODEL1
  6
Continuous
 62
     4
100
AcDbLine
 10
26.4327746187
 20
6.8907621667
 30
0.0
 11
26.4459694666
 21
6.8645786983
 31
0.0
  0
LINE
  5
43B
330
1F
100
AcDbEntity
  8
TRMODEL1
  6
Continuous
 62
     4
100
AcDbLine
 10
26.4459694666
 20
6.8645786983
 30
0.0
 11
26.4557741231
 21
6.8377365147
 31
0.0
  0
LINE
  5
43C
330
1F
100
AcDbEntity
  8
TRMODEL1
  6
Continuous
 62
     4
100
AcDbLine
 10
26.4557741231
 20
6.8377365147
 30
0.0
 11
26.4618118008
 21
6.8112671459
 31
0.0
  0
LINE
  5
43D
330
1F
100
AcDbEntity
  8
TRMODEL1
  6
Continuous
 62
     4
100
AcDbLine
 10
26.4618118008
 20
6.8112671459
 30
0.0
 11
26.463850475
 21
6.7861877948
 31
0.0
  0
LINE
  5
43E
330
1F
100
AcDbEntity
  8
TRMODEL1
  6
Continuous
 62
     4
100
AcDbLine
 10
25.0585719644
 20
7.7199577248
 30
0.0
 11
25.0792709716
 21
7.7056542566
 31
0.0
  0
LINE
  5
43F
330
1F
100
AcDbEntity
  8
TRMODEL1
  6
Continuous
 62
     4
100
AcDbLine
 10
25.0792709716
 20
7.7056542566
 30
0.0
 11
25.0991745274
 21
7.687192091
 31
0.0
  0
LINE
  5
440
330
1F
100
AcDbEntity
  8
TRMODEL1
  6
Continuous
 62
     4
100
AcDbLine
 10
25.0991745274
 20
7.687192091
 30
0.0
 11
25.1175177496
 21
7.6652807188
 31
0.0
  0
LINE
  5
441
330
1F
100
AcDbEntity
  8
TRMODEL1
  6
Continuous
 62
     4
100
AcDbLine
 10
25.1175177496
 20
7.6652807188
 30
0.0
 11
25.1335957183
 21
7.6407621817
 31
0.0
  0
LINE
  5
442
330
1F
100
AcDbEntity
  8
TRMODEL1
  6
Continuous
 62
     4
100
AcDbLine
 10
25.1335957183
 20
7.6407621817
 30
0.0
 11
25.1467905662
 21
7.6145787133
 31
0.0
  0
LINE
  5
443
330
1F
100
AcDbEntity
  8
TRMODEL1
  6
Continuous
 62
     4
100
AcDbLine
 10
25.1467905662
 20
7.6145787133
 30
0.0
 11
25.1565952227
 21
7.5877365297
 31
0.0
  0
LINE
  5
444
330
1F
100
AcDbEntity
  8
TRMODEL1
  6
Continuous
 62
     4
100
AcDbLine
 10
25.1565952227
 20
7.5877365297
 30
0.0
 11
25.1626329004
 21
7.5612671609
 31
0.0
  0
LINE
  5
445
330
1F
100
AcDbEntity
  8
TRMODEL1
  6
Continuous
 62
     4
100
AcDbLine
 10
25.1626329004
 20
7.5612671609
 30
0.0
 11
25.1646715746
 21
7.5361878098
 31
0.0
  0
LINE
  5
446
330
1F
100
AcDbEntity
  8
TRMODEL1
  6
Continuous
 62
     4
100
AcDbLine
 10
24.625512331
 20
7.4699577198
 30
0.0
 11
25.0585719644
 21
7.7199577248
 31
0.0
  0
LINE
  5
447
330
1F
100
AcDbEntity
  8
TRMODEL1
  6
Continuous
 62
     4
100
AcDbLine
 10
25.4894662997
 20
6.8486877961
 30
0.0
 11
25.491504974
 21
6.8714133439
 31
0.0
  0
LINE
  5
448
330
1F
100
AcDbEntity
  8
TRMODEL1
  6
Continuous
 62
     4
100
AcDbLine
 10
25.491504974
 20
6.8714133439
 30
0.0
 11
25.4975426517
 21
6.8909117585
 31
0.0
  0
LINE
  5
449
330
1F
100
AcDbEntity
  8
TRMODEL1
  6
Continuous
 62
     4
100
AcDbLine
 10
25.4975426517
 20
6.8909117585
 30
0.0
 11
25.5073473082
 21
6.9064337267
 31
0.0
  0
LINE
  5
44A
330
1F
100
AcDbEntity
  8
TRMODEL1
  6
Continuous
 62
     4
100
AcDbLine
 10
25.5073473082
 20
6.9064337267
 30
0.0
 11
25.5205421561
 21
6.9173827479
 31
0.0
  0
LINE
  5
44B
330
1F
100
AcDbEntity
  8
TRMODEL1
  6
Continuous
 62
     4
100
AcDbLine
 10
25.5205421561
 20
6.9173827479
 30
0.0
 11
25.5366201248
 21
6.9233380575
 31
0.0
  0
LINE
  5
44C
330
1F
100
AcDbEntity
  8
TRMODEL1
  6
Continuous
 62
     4
100
AcDbLine
 10
25.5366201248
 20
6.9233380575
 30
0.0
 11
25.5549633469
 21
6.9240707962
 31
0.0
  0
LINE
  5
44D
330
1F
100
AcDbEntity
  8
TRMODEL1
  6
Continuous
 62
     4
100
AcDbLine
 10
25.5549633469
 20
6.9240707962
 30
0.0
 11
25.5748669028
 21
6.9195528053
 31
0.0
  0
LINE
  5
44E
330
1F
100
AcDbEntity
  8
TRMODEL1
  6
Continuous
 62
     4
100
AcDbLine
 10
25.5748669028
 20
6.9195528053
 30
0.0
 11
25.5955659099
 21
6.9099577086
 31
0.0
  0
LINE
  5
44F
330
1F
100
AcDbEntity
  8
TRMODEL1
  6
Continuous
 62
     4
100
AcDbLine
 10
25.2166387307
 20
7.1286264423
 30
0.0
 11
25.551552673
 21
6.9352847388
 31
0.0
  0
LINE
  5
450
330
1F
100
AcDbEntity
  8
TRMODEL1
  6
Continuous
 62
     4
100
AcDbLine
 10
25.1646715746
 20
7.2186361966
 30
0.0
 11
25.165670109
 21
7.2063524329
 31
0.0
  0
LINE
  5
451
330
1F
100
AcDbEntity
  8
TRMODEL1
  6
Continuous
 62
     4
100
AcDbLine
 10
25.165670109
 20
7.2063524329
 30
0.0
 11
25.1686273388
 21
7.193387844
 31
0.0
  0
LINE
  5
452
330
1F
100
AcDbEntity
  8
TRMODEL1
  6
Continuous
 62
     4
100
AcDbLine
 10
25.1686273388
 20
7.193387844
 30
0.0
 11
25.1734296196
 21
7.1802406521
 31
0.0
  0
LINE
  5
453
330
1F
100
AcDbEntity
  8
TRMODEL1
  6
Continuous
 62
     4
100
AcDbLine
 10
25.1734296196
 20
7.1802406521
 30
0.0
 11
25.1798924022
 21
7.1674160961
 31
0.0
  0
LINE
  5
454
330
1F
100
AcDbEntity
  8
TRMODEL1
  6
Continuous
 62
     4
100
AcDbLine
 10
25.1798924022
 20
7.1674160961
 30
0.0
 11
25.1877673257
 21
7.1554070167
 31
0.0
  0
LINE
  5
455
330
1F
100
AcDbEntity
  8
TRMODEL1
  6
Continuous
 62
     4
100
AcDbLine
 10
25.1877673257
 20
7.1554070167
 30
0.0
 11
25.196751761
 21
7.144674916
 31
0.0
  0
LINE
  5
456
330
1F
100
AcDbEntity
  8
TRMODEL1
  6
Continuous
 62
     4
100
AcDbLine
 10
25.196751761
 20
7.144674916
 30
0.0
 11
25.2065004415
 21
7.1356322227
 31
0.0
  0
LINE
  5
457
330
1F
100
AcDbEntity
  8
TRMODEL1
  6
Continuous
 62
     4
100
AcDbLine
 10
25.2065004415
 20
7.1356322227
 30
0.0
 11
25.2166387307
 21
7.1286264423
 31
0.0
  0
LINE
  5
458
330
1F
100
AcDbEntity
  8
TRMODEL1
  6
Continuous
 62
     4
100
AcDbLine
 10
24.7316119412
 20
7.2861878048
 30
0.0
 11
24.7316119412
 21
6.9686361916
 31
0.0
  0
LINE
  5
459
330
1F
100
AcDbEntity
  8
TRMODEL1
  6
Continuous
 62
     4
100
AcDbLine
 10
24.677479487
 20
7.3174378055
 30
0.0
 11
24.677479487
 21
6.9692870366
 31
0.0
  0
LINE
  5
45A
330
1F
100
AcDbEntity
  8
TRMODEL1
  6
Continuous
 62
     4
100
AcDbLine
 10
24.7316119412
 20
6.9686361916
 30
0.0
 11
25.1646715746
 21
7.2186361966
 31
0.0
  0
LINE
  5
45B
330
1F
100
AcDbEntity
  8
TRMODEL1
  6
Continuous
 62
     4
100
AcDbLine
 10
24.7835790972
 20
6.8786264373
 30
0.0
 11
25.2166387307
 21
7.1286264423
 31
0.0
  0
LINE
  5
45C
330
1F
100
AcDbEntity
  8
TRMODEL1
  6
Continuous
 62
     4
100
AcDbLine
 10
24.7316119412
 20
6.9686361916
 30
0.0
 11
24.7326104755
 21
6.9563524279
 31
0.0
  0
LINE
  5
45D
330
1F
100
AcDbEntity
  8
TRMODEL1
  6
Continuous
 62
     4
100
AcDbLine
 10
24.7326104755
 20
6.9563524279
 30
0.0
 11
24.7355677054
 21
6.943387839
 31
0.0
  0
LINE
  5
45E
330
1F
100
AcDbEntity
  8
TRMODEL1
  6
Continuous
 62
     4
100
AcDbLine
 10
24.7355677054
 20
6.943387839
 30
0.0
 11
24.7403699861
 21
6.9302406471
 31
0.0
  0
LINE
  5
45F
330
1F
100
AcDbEntity
  8
TRMODEL1
  6
Continuous
 62
     4
100
AcDbLine
 10
24.7403699861
 20
6.9302406471
 30
0.0
 11
24.7468327688
 21
6.9174160911
 31
0.0
  0
LINE
  5
460
330
1F
100
AcDbEntity
  8
TRMODEL1
  6
Continuous
 62
     4
100
AcDbLine
 10
24.7468327688
 20
6.9174160911
 30
0.0
 11
24.7547076922
 21
6.9054070117
 31
0.0
  0
LINE
  5
461
330
1F
100
AcDbEntity
  8
TRMODEL1
  6
Continuous
 62
     4
100
AcDbLine
 10
24.7547076922
 20
6.9054070117
 30
0.0
 11
24.7636921276
 21
6.894674911
 31
0.0
  0
LINE
  5
462
330
1F
100
AcDbEntity
  8
TRMODEL1
  6
Continuous
 62
     4
100
AcDbLine
 10
24.7636921276
 20
6.894674911
 30
0.0
 11
24.773440808
 21
6.8856322177
 31
0.0
  0
LINE
  5
463
330
1F
100
AcDbEntity
  8
TRMODEL1
  6
Continuous
 62
     4
100
AcDbLine
 10
24.773440808
 20
6.8856322177
 30
0.0
 11
24.7835790972
 21
6.8786264373
 31
0.0
  0
LINE
  5
464
330
1F
100
AcDbEntity
  8
TRMODEL1
  6
Continuous
 62
     4
100
AcDbLine
 10
24.677479487
 20
6.9998861922
 30
0.0
 11
24.6795181612
 21
6.9748068412
 31
0.0
  0
LINE
  5
465
330
1F
100
AcDbEntity
  8
TRMODEL1
  6
Continuous
 62
     4
100
AcDbLine
 10
24.6795181612
 20
6.9748068412
 30
0.0
 11
24.6855558389
 21
6.9483374724
 31
0.0
  0
LINE
  5
466
330
1F
100
AcDbEntity
  8
TRMODEL1
  6
Continuous
 62
     4
100
AcDbLine
 10
24.6855558389
 20
6.9483374724
 30
0.0
 11
24.6953604954
 21
6.9214952888
 31
0.0
  0
LINE
  5
467
330
1F
100
AcDbEntity
  8
TRMODEL1
  6
Continuous
 62
     4
100
AcDbLine
 10
24.6953604954
 20
6.9214952888
 30
0.0
 11
24.7085553433
 21
6.8953118204
 31
0.0
  0
LINE
  5
468
330
1F
100
AcDbEntity
  8
TRMODEL1
  6
Continuous
 62
     4
100
AcDbLine
 10
24.7085553433
 20
6.8953118204
 30
0.0
 11
24.724633312
 21
6.8707932833
 31
0.0
  0
LINE
  5
469
330
1F
100
AcDbEntity
  8
TRMODEL1
  6
Continuous
 62
     4
100
AcDbLine
 10
24.724633312
 20
6.8707932833
 30
0.0
 11
24.7429765342
 21
6.8488819111
 31
0.0
  0
LINE
  5
46A
330
1F
100
AcDbEntity
  8
TRMODEL1
  6
Continuous
 62
     4
100
AcDbLine
 10
24.7429765342
 20
6.8488819111
 30
0.0
 11
24.7628800901
 21
6.8304197455
 31
0.0
  0
LINE
  5
46B
330
1F
100
AcDbEntity
  8
TRMODEL1
  6
Continuous
 62
     4
100
AcDbLine
 10
24.7628800901
 20
6.8304197455
 30
0.0
 11
24.7835790972
 21
6.8161162773
 31
0.0
  0
LINE
  5
46C
330
1F
100
AcDbEntity
  8
TRMODEL1
  6
Continuous
 62
     4
100
AcDbLine
 10
25.2112254852
 20
6.7255014343
 30
0.0
 11
25.2571274203
 21
6.7059445604
 31
0.0
  0
LINE
  5
46D
330
1F
100
AcDbEntity
  8
TRMODEL1
  6
Continuous
 62
     4
100
AcDbLine
 10
25.2571274203
 20
6.7059445604
 30
0.0
 11
25.3109755323
 21
6.6950671499
 31
0.0
  0
LINE
  5
46E
330
1F
100
AcDbEntity
  8
TRMODEL1
  6
Continuous
 62
     4
100
AcDbLine
 10
25.3109755323
 20
6.6950671499
 30
0.0
 11
25.3537128139
 21
6.6941439997
 31
0.0
  0
LINE
  5
46F
330
1F
100
AcDbEntity
  8
TRMODEL1
  6
Continuous
 62
     4
100
AcDbLine
 10
25.4894662997
 20
6.8146062851
 30
0.0
 11
25.4602061601
 21
6.8300126129
 31
0.0
  0
LINE
  5
470
330
1F
100
AcDbEntity
  8
TRMODEL1
  6
Continuous
 62
     4
100
AcDbLine
 10
25.4602061601
 20
6.8300126129
 30
0.0
 11
25.4097677815
 21
6.8454016378
 31
0.0
  0
LINE
  5
471
330
1F
100
AcDbEntity
  8
TRMODEL1
  6
Continuous
 62
     4
100
AcDbLine
 10
25.4097677815
 20
6.8454016378
 30
0.0
 11
25.3537128139
 21
6.8515244506
 31
0.0
  0
LINE
  5
472
330
1F
100
AcDbEntity
  8
TRMODEL1
  6
Continuous
 62
     4
100
AcDbLine
 10
25.3537128139
 20
6.8515244506
 30
0.0
 11
25.2970219872
 21
6.8478370126
 31
0.0
  0
LINE
  5
473
330
1F
100
AcDbEntity
  8
TRMODEL1
  6
Continuous
 62
     4
100
AcDbLine
 10
25.2970219872
 20
6.8478370126
 30
0.0
 11
25.24473253
 21
6.8346669687
 31
0.0
  0
LINE
  5
474
330
1F
100
AcDbEntity
  8
TRMODEL1
  6
Continuous
 62
     4
100
AcDbLine
 10
25.24473253
 20
6.8346669687
 30
0.0
 11
25.2014905901
 21
6.8131845353
 31
0.0
  0
LINE
  5
475
330
1F
100
AcDbEntity
  8
TRMODEL1
  6
Continuous
 62
     4
100
AcDbLine
 10
25.2014905901
 20
6.8131845353
 30
0.0
 11
25.1711384037
 21
6.7852985207
 31
0.0
  0
LINE
  5
476
330
1F
100
AcDbEntity
  8
TRMODEL1
  6
Continuous
 62
     4
100
AcDbLine
 10
25.1711384037
 20
6.7852985207
 30
0.0
 11
25.162987132
 21
6.7723713558
 31
0.0
  0
LINE
  5
477
330
1F
100
AcDbEntity
  8
TRMODEL1
  6
Continuous
 62
     4
100
AcDbLine
 10
25.4923118071
 20
6.875229798
 30
0.0
 11
25.4602061601
 21
6.892522773
 31
0.0
  0
LINE
  5
478
330
1F
100
AcDbEntity
  8
TRMODEL1
  6
Continuous
 62
     4
100
AcDbLine
 10
25.4602061601
 20
6.892522773
 30
0.0
 11
25.4097677815
 21
6.9079117979
 31
0.0
  0
LINE
  5
479
330
1F
100
AcDbEntity
  8
TRMODEL1
  6
Continuous
 62
     4
100
AcDbLine
 10
25.4097677815
 20
6.9079117979
 30
0.0
 11
25.3537128139
 21
6.9140346107
 31
0.0
  0
LINE
  5
47A
330
1F
100
AcDbEntity
  8
TRMODEL1
  6
Continuous
 62
     4
100
AcDbLine
 10
25.3537128139
 20
6.9140346107
 30
0.0
 11
25.2970219872
 21
6.9103471726
 31
0.0
  0
LINE
  5
47B
330
1F
100
AcDbEntity
  8
TRMODEL1
  6
Continuous
 62
     4
100
AcDbLine
 10
25.2970219872
 20
6.9103471726
 30
0.0
 11
25.24473253
 21
6.8971771288
 31
0.0
  0
LINE
  5
47C
330
1F
100
AcDbEntity
  8
TRMODEL1
  6
Continuous
 62
     4
100
AcDbLine
 10
25.24473253
 20
6.8971771288
 30
0.0
 11
25.2014905901
 21
6.8756946954
 31
0.0
  0
LINE
  5
47D
330
1F
100
AcDbEntity
  8
TRMODEL1
  6
Continuous
 62
     4
100
AcDbLine
 10
25.2014905901
 20
6.8756946954
 30
0.0
 11
25.1711384037
 21
6.8478086808
 31
0.0
  0
LINE
  5
47E
330
1F
100
AcDbEntity
  8
TRMODEL1
  6
Continuous
 62
     4
100
AcDbLine
 10
25.1711384037
 20
6.8478086808
 30
0.0
 11
25.1563728956
 21
6.8159968799
 31
0.0
  0
LINE
  5
47F
330
1F
100
AcDbEntity
  8
TRMODEL1
  6
Continuous
 62
     4
100
AcDbLine
 10
25.1563728956
 20
6.8159968799
 30
0.0
 11
25.1585060461
 21
6.7830859107
 31
0.0
  0
LINE
  5
480
330
1F
100
AcDbEntity
  8
TRMODEL1
  6
Continuous
 62
     4
100
AcDbLine
 10
25.1585060461
 20
6.7830859107
 30
0.0
 11
25.1773483154
 21
6.7520000574
 31
0.0
  0
LINE
  5
481
330
1F
100
AcDbEntity
  8
TRMODEL1
  6
Continuous
 62
     4
100
AcDbLine
 10
25.1773483154
 20
6.7520000574
 30
0.0
 11
25.2112254852
 21
6.7255014343
 31
0.0
  0
LINE
  5
482
330
1F
100
AcDbEntity
  8
TRMODEL1
  6
Continuous
 62
     4
100
AcDbLine
 10
24.7316119412
 20
7.2861878048
 30
0.0
 11
25.1646715746
 21
7.5361878098
 31
0.0
  0
LINE
  5
483
330
1F
100
AcDbEntity
  8
TRMODEL1
  6
Continuous
 62
     4
100
AcDbLine
 10
24.625512331
 20
7.4699577198
 30
0.0
 11
24.6462113381
 21
7.4556542516
 31
0.0
  0
LINE
  5
484
330
1F
100
AcDbEntity
  8
TRMODEL1
  6
Continuous
 62
     4
100
AcDbLine
 10
24.6462113381
 20
7.4556542516
 30
0.0
 11
24.666114894
 21
7.437192086
 31
0.0
  0
LINE
  5
485
330
1F
100
AcDbEntity
  8
TRMODEL1
  6
Continuous
 62
     4
100
AcDbLine
 10
24.666114894
 20
7.437192086
 30
0.0
 11
24.6844581161
 21
7.4152807138
 31
0.0
  0
LINE
  5
486
330
1F
100
AcDbEntity
  8
TRMODEL1
  6
Continuous
 62
     4
100
AcDbLine
 10
24.6844581161
 20
7.4152807138
 30
0.0
 11
24.7005360848
 21
7.3907621767
 31
0.0
  0
LINE
  5
487
330
1F
100
AcDbEntity
  8
TRMODEL1
  6
Continuous
 62
     4
100
AcDbLine
 10
24.7005360848
 20
7.3907621767
 30
0.0
 11
24.7137309327
 21
7.3645787083
 31
0.0
  0
LINE
  5
488
330
1F
100
AcDbEntity
  8
TRMODEL1
  6
Continuous
 62
     4
100
AcDbLine
 10
24.7137309327
 20
7.3645787083
 30
0.0
 11
24.7235355892
 21
7.3377365247
 31
0.0
  0
LINE
  5
489
330
1F
100
AcDbEntity
  8
TRMODEL1
  6
Continuous
 62
     4
100
AcDbLine
 10
24.7235355892
 20
7.3377365247
 30
0.0
 11
24.7295732669
 21
7.3112671559
 31
0.0
  0
LINE
  5
48A
330
1F
100
AcDbEntity
  8
TRMODEL1
  6
Continuous
 62
     4
100
AcDbLine
 10
24.7295732669
 20
7.3112671559
 30
0.0
 11
24.7316119412
 21
7.2861878048
 31
0.0
  0
LINE
  5
48B
330
1F
100
AcDbEntity
  8
TRMODEL1
  6
Continuous
 62
     4
100
AcDbLine
 10
24.625512331
 20
7.4074475598
 30
0.0
 11
24.6356506202
 21
7.4004417794
 31
0.0
  0
LINE
  5
48C
330
1F
100
AcDbEntity
  8
TRMODEL1
  6
Continuous
 62
     4
100
AcDbLine
 10
24.6356506202
 20
7.4004417794
 30
0.0
 11
24.6453993006
 21
7.391399086
 31
0.0
  0
LINE
  5
48D
330
1F
100
AcDbEntity
  8
TRMODEL1
  6
Continuous
 62
     4
100
AcDbLine
 10
24.6453993006
 20
7.391399086
 30
0.0
 11
24.6543837359
 21
7.3806669854
 31
0.0
  0
LINE
  5
48E
330
1F
100
AcDbEntity
  8
TRMODEL1
  6
Continuous
 62
     4
100
AcDbLine
 10
24.6543837359
 20
7.3806669854
 30
0.0
 11
24.6622586594
 21
7.368657906
 31
0.0
  0
LINE
  5
48F
330
1F
100
AcDbEntity
  8
TRMODEL1
  6
Continuous
 62
     4
100
AcDbLine
 10
24.6622586594
 20
7.368657906
 30
0.0
 11
24.668721442
 21
7.35583335
 31
0.0
  0
LINE
  5
490
330
1F
100
AcDbEntity
  8
TRMODEL1
  6
Continuous
 62
     4
100
AcDbLine
 10
24.668721442
 20
7.35583335
 30
0.0
 11
24.6735237228
 21
7.3426861581
 31
0.0
  0
LINE
  5
491
330
1F
100
AcDbEntity
  8
TRMODEL1
  6
Continuous
 62
     4
100
AcDbLine
 10
24.6735237228
 20
7.3426861581
 30
0.0
 11
24.6764809527
 21
7.3297215692
 31
0.0
  0
LINE
  5
492
330
1F
100
AcDbEntity
  8
TRMODEL1
  6
Continuous
 62
     4
100
AcDbLine
 10
24.6764809527
 20
7.3297215692
 30
0.0
 11
24.677479487
 21
7.3174378055
 31
0.0
  0
LINE
  5
493
330
1F
100
AcDbEntity
  8
TRMODEL1
  6
Continuous
 62
     4
100
AcDbLine
 10
25.1646715746
 20
7.5361878098
 30
0.0
 11
25.1646715746
 21
7.2186361966
 31
0.0
  0
LINE
  5
494
330
1F
100
AcDbEntity
  8
TRMODEL1
  6
Continuous
 62
     4
100
AcDbLine
 10
25.9536078865
 20
7.1673862732
 30
0.0
 11
25.9696797582
 21
7.1733380625
 31
0.0
  0
LINE
  5
495
330
1F
100
AcDbEntity
  8
TRMODEL1
  6
Continuous
 62
     4
100
AcDbLine
 10
25.9696797582
 20
7.1733380625
 30
0.0
 11
25.9880229804
 21
7.1740708012
 31
0.0
  0
LINE
  5
496
330
1F
100
AcDbEntity
  8
TRMODEL1
  6
Continuous
 62
     4
100
AcDbLine
 10
25.9880229804
 20
7.1740708012
 30
0.0
 11
26.0079265363
 21
7.1695528103
 31
0.0
  0
LINE
  5
497
330
1F
100
AcDbEntity
  8
TRMODEL1
  6
Continuous
 62
     4
100
AcDbLine
 10
26.0079265363
 20
7.1695528103
 30
0.0
 11
26.0286255434
 21
7.1599577136
 31
0.0
  0
LINE
  5
498
330
1F
100
AcDbEntity
  8
TRMODEL1
  6
Continuous
 62
     4
100
AcDbLine
 10
25.9536078865
 20
7.1673862732
 30
0.0
 11
25.5205482531
 21
6.9173862682
 31
0.0
  0
LINE
  5
499
330
1F
100
AcDbEntity
  8
TRMODEL1
  6
Continuous
 62
     4
100
AcDbLine
 10
25.5955659099
 20
6.9099577086
 30
0.0
 11
26.0286255434
 21
7.1599577136
 31
0.0
  0
LINE
  5
49A
330
1F
100
AcDbEntity
  8
TRMODEL1
  6
Continuous
 62
     4
100
AcDbLine
 10
25.9246912314
 20
6.7199577048
 30
0.0
 11
26.3577508648
 21
6.9699577098
 31
0.0
  0
LINE
  5
49B
330
1F
100
AcDbEntity
  8
TRMODEL1
  6
Continuous
 62
     4
100
AcDbLine
 10
25.5955659099
 20
6.9099577086
 30
0.0
 11
25.9246912314
 21
6.7199577048
 31
0.0
  0
LINE
  5
49C
330
1F
100
AcDbEntity
  8
TRMODEL1
  6
Continuous
 62
     4
100
AcDbLine
 10
25.5435987539
 20
6.8174377955
 30
0.0
 11
25.5445972883
 21
6.828568676
 31
0.0
  0
LINE
  5
49D
330
1F
100
AcDbEntity
  8
TRMODEL1
  6
Continuous
 62
     4
100
AcDbLine
 10
25.5445972883
 20
6.828568676
 30
0.0
 11
25.5475545181
 21
6.8381189199
 31
0.0
  0
LINE
  5
49E
330
1F
100
AcDbEntity
  8
TRMODEL1
  6
Continuous
 62
     4
100
AcDbLine
 10
25.5475545181
 20
6.8381189199
 30
0.0
 11
25.5523567989
 21
6.8457215166
 31
0.0
  0
LINE
  5
49F
330
1F
100
AcDbEntity
  8
TRMODEL1
  6
Continuous
 62
     4
100
AcDbLine
 10
25.5523567989
 20
6.8457215166
 30
0.0
 11
25.5588195815
 21
6.8510843025
 31
0.0
  0
LINE
  5
4A0
330
1F
100
AcDbEntity
  8
TRMODEL1
  6
Continuous
 62
     4
100
AcDbLine
 10
25.5588195815
 20
6.8510843025
 30
0.0
 11
25.566694505
 21
6.8540011888
 31
0.0
  0
LINE
  5
4A1
330
1F
100
AcDbEntity
  8
TRMODEL1
  6
Continuous
 62
     4
100
AcDbLine
 10
25.566694505
 20
6.8540011888
 30
0.0
 11
25.5756789403
 21
6.8543600812
 31
0.0
  0
LINE
  5
4A2
330
1F
100
AcDbEntity
  8
TRMODEL1
  6
Continuous
 62
     4
100
AcDbLine
 10
25.5756789403
 20
6.8543600812
 30
0.0
 11
25.5854276207
 21
6.8521471877
 31
0.0
  0
LINE
  5
4A3
330
1F
100
AcDbEntity
  8
TRMODEL1
  6
Continuous
 62
     4
100
AcDbLine
 10
25.5854276207
 20
6.8521471877
 30
0.0
 11
25.5955659099
 21
6.8474475486
 31
0.0
  0
LINE
  5
4A4
330
1F
100
AcDbEntity
  8
TRMODEL1
  6
Continuous
 62
     4
100
AcDbLine
 10
25.5435987539
 20
6.8174377955
 30
0.0
 11
25.5955659099
 21
6.8474475486
 31
0.0
  0
LINE
  5
4A5
330
1F
100
AcDbEntity
  8
TRMODEL1
  6
Continuous
 62
     4
100
AcDbLine
 10
26.0286255434
 20
7.1599577136
 30
0.0
 11
26.3577508648
 21
6.9699577098
 31
0.0
  0
LINE
  5
4A6
330
1F
100
AcDbEntity
  8
TRMODEL1
  6
Continuous
 62
     2
100
AcDbLine
 10
25.4911026035
 20
8.6066377883
 30
0.0
 11
25.4968759528
 21
8.599026847
 31
0.0
  0
LINE
  5
4A7
330
1F
100
AcDbEntity
  8
TRMODEL1
  6
Continuous
 62
     2
100
AcDbLine
 10
25.4968759528
 20
8.599026847
 30
0.0
 11
25.4988466434
 21
8.5719886365
 31
0.0
  0
LINE
  5
4A8
330
1F
100
AcDbEntity
  8
TRMODEL1
  6
Continuous
 62
     2
100
AcDbLine
 10
25.4988466434
 20
8.5719886365
 30
0.0
 11
25.4836344104
 21
8.5462809411
 31
0.0
  0
LINE
  5
4A9
330
1F
100
AcDbEntity
  8
TRMODEL1
  6
Continuous
 62
     2
100
AcDbLine
 10
25.4836344104
 20
8.5462809411
 30
0.0
 11
25.4529583614
 21
8.5250689504
 31
0.0
  0
LINE
  5
4AA
330
1F
100
AcDbEntity
  8
TRMODEL1
  6
Continuous
 62
     2
100
AcDbLine
 10
25.4529583614
 20
8.5250689504
 30
0.0
 11
25.4102957817
 21
8.5111004486
 31
0.0
  0
LINE
  5
4AB
330
1F
100
AcDbEntity
  8
TRMODEL1
  6
Continuous
 62
     2
100
AcDbLine
 10
25.4102957817
 20
8.5111004486
 30
0.0
 11
25.3604711208
 21
8.5062339616
 31
0.0
  0
LINE
  5
4AC
330
1F
100
AcDbEntity
  8
TRMODEL1
  6
Continuous
 62
     2
100
AcDbLine
 10
25.3604711208
 20
8.5062339616
 30
0.0
 11
25.3091275795
 21
8.511336231
 31
0.0
  0
LINE
  5
4AD
330
1F
100
AcDbEntity
  8
TRMODEL1
  6
Continuous
 62
     2
100
AcDbLine
 10
25.3091275795
 20
8.511336231
 30
0.0
 11
25.2620765014
 21
8.5261386376
 31
0.0
  0
LINE
  5
4AE
330
1F
100
AcDbEntity
  8
TRMODEL1
  6
Continuous
 62
     2
100
AcDbLine
 10
25.2620765014
 20
8.5261386376
 30
0.0
 11
25.2246421822
 21
8.5492500501
 31
0.0
  0
LINE
  5
4AF
330
1F
100
AcDbEntity
  8
TRMODEL1
  6
Continuous
 62
     2
100
AcDbLine
 10
25.2246421822
 20
8.5492500501
 30
0.0
 11
25.20106521
 21
8.5783926119
 31
0.0
  0
LINE
  5
4B0
330
1F
100
AcDbEntity
  8
TRMODEL1
  6
Continuous
 62
     2
100
AcDbLine
 10
25.20106521
 20
8.5783926119
 30
0.0
 11
25.1940113671
 21
8.6105292031
 31
0.0
  0
LINE
  5
4B1
330
1F
100
AcDbEntity
  8
TRMODEL1
  6
Continuous
 62
     2
100
AcDbLine
 10
25.1940113671
 20
8.6105292031
 30
0.0
 11
25.2006952072
 21
8.6312538305
 31
0.0
  0
LINE
  5
4B2
330
1F
100
AcDbEntity
  8
TRMODEL1
  6
Continuous
 62
     2
100
AcDbLine
 10
25.4908171249
 20
8.506519265
 30
0.0
 11
25.4984578567
 21
8.4943973673
 31
0.0
  0
LINE
  5
4B3
330
1F
100
AcDbEntity
  8
TRMODEL1
  6
Continuous
 62
     2
100
AcDbLine
 10
25.4984578567
 20
8.4943973673
 30
0.0
 11
25.497425366
 21
8.467357964
 31
0.0
  0
LINE
  5
4B4
330
1F
100
AcDbEntity
  8
TRMODEL1
  6
Continuous
 62
     2
100
AcDbLine
 10
25.497425366
 20
8.467357964
 30
0.0
 11
25.4793698122
 21
8.4421900781
 31
0.0
  0
LINE
  5
4B5
330
1F
100
AcDbEntity
  8
TRMODEL1
  6
Continuous
 62
     2
100
AcDbLine
 10
25.4793698122
 20
8.4421900781
 30
0.0
 11
25.4463369318
 21
8.4220745853
 31
0.0
  0
LINE
  5
4B6
330
1F
100
AcDbEntity
  8
TRMODEL1
  6
Continuous
 62
     2
100
AcDbLine
 10
25.4463369318
 20
8.4220745853
 30
0.0
 11
25.4020609238
 21
8.4095482368
 31
0.0
  0
LINE
  5
4B7
330
1F
100
AcDbEntity
  8
TRMODEL1
  6
Continuous
 62
     2
100
AcDbLine
 10
25.4020609238
 20
8.4095482368
 30
0.0
 11
25.3515619365
 21
8.406386643
 31
0.0
  0
LINE
  5
4B8
330
1F
100
AcDbEntity
  8
TRMODEL1
  6
Continuous
 62
     2
100
AcDbLine
 10
25.3515619365
 20
8.406386643
 30
0.0
 11
25.300546458
 21
8.4132023438
 31
0.0
  0
LINE
  5
4B9
330
1F
100
AcDbEntity
  8
TRMODEL1
  6
Continuous
 62
     2
100
AcDbLine
 10
25.300546458
 20
8.4132023438
 30
0.0
 11
25.254798508
 21
8.4295687812
 31
0.0
  0
LINE
  5
4BA
330
1F
100
AcDbEntity
  8
TRMODEL1
  6
Continuous
 62
     2
100
AcDbLine
 10
25.254798508
 20
8.4295687812
 30
0.0
 11
25.2194901944
 21
8.4539107999
 31
0.0
  0
LINE
  5
4BB
330
1F
100
AcDbEntity
  8
TRMODEL1
  6
Continuous
 62
     2
100
AcDbLine
 10
25.2194901944
 20
8.4539107999
 30
0.0
 11
25.198621679
 21
8.4837887682
 31
0.0
  0
LINE
  5
4BC
330
1F
100
AcDbEntity
  8
TRMODEL1
  6
Continuous
 62
     2
100
AcDbLine
 10
25.198621679
 20
8.4837887682
 30
0.0
 11
25.1945538753
 21
8.5161310636
 31
0.0
  0
LINE
  5
4BD
330
1F
100
AcDbEntity
  8
TRMODEL1
  6
Continuous
 62
     2
100
AcDbLine
 10
25.1945538753
 20
8.5161310636
 30
0.0
 11
25.2001307871
 21
8.5294143367
 31
0.0
  0
LINE
  5
4BE
330
1F
100
AcDbEntity
  8
TRMODEL1
  6
Continuous
 62
     2
100
AcDbLine
 10
25.1957789976
 20
8.4556305117
 30
0.0
 11
25.1981439128
 21
8.4330988751
 31
0.0
  0
LINE
  5
4BF
330
1F
100
AcDbEntity
  8
TRMODEL1
  6
Continuous
 62
     2
100
AcDbLine
 10
25.1981439128
 20
8.4330988751
 30
0.0
 11
25.2183974541
 21
8.4030735336
 31
0.0
  0
LINE
  5
4C0
330
1F
100
AcDbEntity
  8
TRMODEL1
  6
Continuous
 62
     2
100
AcDbLine
 10
25.2183974541
 20
8.4030735336
 30
0.0
 11
25.2532114076
 21
8.3784539319
 31
0.0
  0
LINE
  5
4C1
330
1F
100
AcDbEntity
  8
TRMODEL1
  6
Continuous
 62
     2
100
AcDbLine
 10
25.2532114076
 20
8.3784539319
 30
0.0
 11
25.2986503859
 21
8.3617620046
 31
0.0
  0
LINE
  5
4C2
330
1F
100
AcDbEntity
  8
TRMODEL1
  6
Continuous
 62
     2
100
AcDbLine
 10
25.2986503859
 20
8.3617620046
 30
0.0
 11
25.3495634789
 21
8.3545438683
 31
0.0
  0
LINE
  5
4C3
330
1F
100
AcDbEntity
  8
TRMODEL1
  6
Continuous
 62
     2
100
AcDbLine
 10
25.3495634789
 20
8.3545438683
 30
0.0
 11
25.4001947894
 21
8.3573428805
 31
0.0
  0
LINE
  5
4C4
330
1F
100
AcDbEntity
  8
TRMODEL1
  6
Continuous
 62
     2
100
AcDbLine
 10
25.4001947894
 20
8.3573428805
 30
0.0
 11
25.4448077226
 21
8.3695192548
 31
0.0
  0
LINE
  5
4C5
330
1F
100
AcDbEntity
  8
TRMODEL1
  6
Continuous
 62
     2
100
AcDbLine
 10
25.4448077226
 20
8.3695192548
 30
0.0
 11
25.4783544369
 21
8.3893935471
 31
0.0
  0
LINE
  5
4C6
330
1F
100
AcDbEntity
  8
TRMODEL1
  6
Continuous
 62
     2
100
AcDbLine
 10
25.4783544369
 20
8.3893935471
 30
0.0
 11
25.4970374767
 21
8.4144228352
 31
0.0
  0
LINE
  5
4C7
330
1F
100
AcDbEntity
  8
TRMODEL1
  6
Continuous
 62
     2
100
AcDbLine
 10
25.4970374767
 20
8.4144228352
 30
0.0
 11
25.4980570197
 21
8.4305894401
 31
0.0
  0
LINE
  5
4C8
330
1F
100
AcDbEntity
  8
TRMODEL1
  6
Continuous
 62
     2
100
AcDbLine
 10
25.4923601527
 20
8.4568583374
 30
0.0
 11
25.4938109075
 21
8.4553297229
 31
0.0
  0
LINE
  5
4C9
330
1F
100
AcDbEntity
  8
TRMODEL1
  6
Continuous
 62
     2
100
AcDbLine
 10
25.4938109075
 20
8.4553297229
 30
0.0
 11
25.4999687105
 21
8.4285027851
 31
0.0
  0
LINE
  5
4CA
330
1F
100
AcDbEntity
  8
TRMODEL1
  6
Continuous
 62
     2
100
AcDbLine
 10
25.4999687105
 20
8.4285027851
 30
0.0
 11
25.488815975
 21
8.4021573813
 31
0.0
  0
LINE
  5
4CB
330
1F
100
AcDbEntity
  8
TRMODEL1
  6
Continuous
 62
     2
100
AcDbLine
 10
25.488815975
 20
8.4021573813
 30
0.0
 11
25.4616150961
 21
8.3795918074
 31
0.0
  0
LINE
  5
4CC
330
1F
100
AcDbEntity
  8
TRMODEL1
  6
Continuous
 62
     2
100
AcDbLine
 10
25.4616150961
 20
8.3795918074
 30
0.0
 11
25.4214456392
 21
8.3636700807
 31
0.0
  0
LINE
  5
4CD
330
1F
100
AcDbEntity
  8
TRMODEL1
  6
Continuous
 62
     2
100
AcDbLine
 10
25.4214456392
 20
8.3636700807
 30
0.0
 11
25.3728525344
 21
8.3564808437
 31
0.0
  0
LINE
  5
4CE
330
1F
100
AcDbEntity
  8
TRMODEL1
  6
Continuous
 62
     2
100
AcDbLine
 10
25.3728525344
 20
8.3564808437
 30
0.0
 11
25.3213407409
 21
8.3591715769
 31
0.0
  0
LINE
  5
4CF
330
1F
100
AcDbEntity
  8
TRMODEL1
  6
Continuous
 62
     2
100
AcDbLine
 10
25.3213407409
 20
8.3591715769
 30
0.0
 11
25.2727349585
 21
8.3717039704
 31
0.0
  0
LINE
  5
4D0
330
1F
100
AcDbEntity
  8
TRMODEL1
  6
Continuous
 62
     2
100
AcDbLine
 10
25.2727349585
 20
8.3717039704
 30
0.0
 11
25.2325445231
 21
8.3930060277
 31
0.0
  0
LINE
  5
4D1
330
1F
100
AcDbEntity
  8
TRMODEL1
  6
Continuous
 62
     2
100
AcDbLine
 10
25.2325445231
 20
8.3930060277
 30
0.0
 11
25.205312141
 21
8.4209321075
 31
0.0
  0
LINE
  5
4D2
330
1F
100
AcDbEntity
  8
TRMODEL1
  6
Continuous
 62
     2
100
AcDbLine
 10
25.205312141
 20
8.4209321075
 30
0.0
 11
25.194125075
 21
8.4526548719
 31
0.0
  0
LINE
  5
4D3
330
1F
100
AcDbEntity
  8
TRMODEL1
  6
Continuous
 62
     2
100
AcDbLine
 10
25.194125075
 20
8.4526548719
 30
0.0
 11
25.2000393156
 21
8.4837753672
 31
0.0
  0
LINE
  5
4D4
330
1F
100
AcDbEntity
  8
TRMODEL1
  6
Continuous
 62
     2
100
AcDbLine
 10
25.1956941865
 20
8.5054885532
 30
0.0
 11
25.1946272594
 21
8.496410724
 31
0.0
  0
LINE
  5
4D5
330
1F
100
AcDbEntity
  8
TRMODEL1
  6
Continuous
 62
     2
100
AcDbLine
 10
25.1946272594
 20
8.496410724
 30
0.0
 11
25.2080783395
 21
8.4650069118
 31
0.0
  0
LINE
  5
4D6
330
1F
100
AcDbEntity
  8
TRMODEL1
  6
Continuous
 62
     2
100
AcDbLine
 10
25.2080783395
 20
8.4650069118
 30
0.0
 11
25.237261444
 21
8.4378206431
 31
0.0
  0
LINE
  5
4D7
330
1F
100
AcDbEntity
  8
TRMODEL1
  6
Continuous
 62
     2
100
AcDbLine
 10
25.237261444
 20
8.4378206431
 30
0.0
 11
25.2788687143
 21
8.417587019
 31
0.0
  0
LINE
  5
4D8
330
1F
100
AcDbEntity
  8
TRMODEL1
  6
Continuous
 62
     2
100
AcDbLine
 10
25.2788687143
 20
8.417587019
 30
0.0
 11
25.328197583
 21
8.4063344723
 31
0.0
  0
LINE
  5
4D9
330
1F
100
AcDbEntity
  8
TRMODEL1
  6
Continuous
 62
     2
100
AcDbLine
 10
25.328197583
 20
8.4063344723
 30
0.0
 11
25.3796553826
 21
8.4049894698
 31
0.0
  0
LINE
  5
4DA
330
1F
100
AcDbEntity
  8
TRMODEL1
  6
Continuous
 62
     2
100
AcDbLine
 10
25.3796553826
 20
8.4049894698
 30
0.0
 11
25.427425346
 21
8.4134384984
 31
0.0
  0
LINE
  5
4DB
330
1F
100
AcDbEntity
  8
TRMODEL1
  6
Continuous
 62
     2
100
AcDbLine
 10
25.427425346
 20
8.4134384984
 30
0.0
 11
25.466093738
 21
8.4303904054
 31
0.0
  0
LINE
  5
4DC
330
1F
100
AcDbEntity
  8
TRMODEL1
  6
Continuous
 62
     2
100
AcDbLine
 10
25.466093738
 20
8.4303904054
 30
0.0
 11
25.4912873439
 21
8.4536382559
 31
0.0
  0
LINE
  5
4DD
330
1F
100
AcDbEntity
  8
TRMODEL1
  6
Continuous
 62
     2
100
AcDbLine
 10
25.4912873439
 20
8.4536382559
 30
0.0
 11
25.5001527571
 21
8.4802481717
 31
0.0
  0
LINE
  5
4DE
330
1F
100
AcDbEntity
  8
TRMODEL1
  6
Continuous
 62
     2
100
AcDbLine
 10
25.5001527571
 20
8.4802481717
 30
0.0
 11
25.5000552828
 21
8.4805548355
 31
0.0
  0
LINE
  5
4DF
330
1F
100
AcDbEntity
  8
TRMODEL1
  6
Continuous
 62
     2
100
AcDbLine
 10
25.1949270745
 20
8.555649894
 30
0.0
 11
25.2004749062
 21
8.5276793914
 31
0.0
  0
LINE
  5
4E0
330
1F
100
AcDbEntity
  8
TRMODEL1
  6
Continuous
 62
     2
100
AcDbLine
 10
25.2004749062
 20
8.5276793914
 30
0.0
 11
25.2234538861
 21
8.4983740158
 31
0.0
  0
LINE
  5
4E1
330
1F
100
AcDbEntity
  8
TRMODEL1
  6
Continuous
 62
     2
100
AcDbLine
 10
25.2234538861
 20
8.4983740158
 30
0.0
 11
25.2604228367
 21
8.4749764817
 31
0.0
  0
LINE
  5
4E2
330
1F
100
AcDbEntity
  8
TRMODEL1
  6
Continuous
 62
     2
100
AcDbLine
 10
25.2604228367
 20
8.4749764817
 30
0.0
 11
25.307196018
 21
8.4598185582
 31
0.0
  0
LINE
  5
4E3
330
1F
100
AcDbEntity
  8
TRMODEL1
  6
Continuous
 62
     2
100
AcDbLine
 10
25.307196018
 20
8.4598185582
 30
0.0
 11
25.3584826015
 21
8.4543406565
 31
0.0
  0
LINE
  5
4E4
330
1F
100
AcDbEntity
  8
TRMODEL1
  6
Continuous
 62
     2
100
AcDbLine
 10
25.3584826015
 20
8.4543406565
 30
0.0
 11
25.4084702039
 21
8.4588147185
 31
0.0
  0
LINE
  5
4E5
330
1F
100
AcDbEntity
  8
TRMODEL1
  6
Continuous
 62
     2
100
AcDbLine
 10
25.4084702039
 20
8.4588147185
 30
0.0
 11
25.4515094267
 21
8.4724813632
 31
0.0
  0
LINE
  5
4E6
330
1F
100
AcDbEntity
  8
TRMODEL1
  6
Continuous
 62
     2
100
AcDbLine
 10
25.4515094267
 20
8.4724813632
 30
0.0
 11
25.4827196554
 21
8.4934381628
 31
0.0
  0
LINE
  5
4E7
330
1F
100
AcDbEntity
  8
TRMODEL1
  6
Continuous
 62
     2
100
AcDbLine
 10
25.4827196554
 20
8.4934381628
 30
0.0
 11
25.4985736654
 21
8.5190496115
 31
0.0
  0
LINE
  5
4E8
330
1F
100
AcDbEntity
  8
TRMODEL1
  6
Continuous
 62
     2
100
AcDbLine
 10
25.4985736654
 20
8.5190496115
 30
0.0
 11
25.4980214116
 21
8.5305401428
 31
0.0
  0
LINE
  5
4E9
330
1F
100
AcDbEntity
  8
TRMODEL1
  6
Continuous
 62
     2
100
AcDbLine
 10
25.1960979133
 20
8.6055610594
 30
0.0
 11
25.1957342363
 21
8.5908517107
 31
0.0
  0
LINE
  5
4EA
330
1F
100
AcDbEntity
  8
TRMODEL1
  6
Continuous
 62
     2
100
AcDbLine
 10
25.1957342363
 20
8.5908517107
 30
0.0
 11
25.2120601273
 21
8.5599487756
 31
0.0
  0
LINE
  5
4EB
330
1F
100
AcDbEntity
  8
TRMODEL1
  6
Continuous
 62
     2
100
AcDbLine
 10
25.2120601273
 20
8.5599487756
 30
0.0
 11
25.2436672178
 21
8.5337793822
 31
0.0
  0
LINE
  5
4EC
330
1F
100
AcDbEntity
  8
TRMODEL1
  6
Continuous
 62
     2
100
AcDbLine
 10
25.2436672178
 20
8.5337793822
 30
0.0
 11
25.2869751542
 21
8.5149868936
 31
0.0
  0
LINE
  5
4ED
330
1F
100
AcDbEntity
  8
TRMODEL1
  6
Continuous
 62
     2
100
AcDbLine
 10
25.2869751542
 20
8.5149868936
 30
0.0
 11
25.3370827461
 21
8.505393737
 31
0.0
  0
LINE
  5
4EE
330
1F
100
AcDbEntity
  8
TRMODEL1
  6
Continuous
 62
     2
100
AcDbLine
 10
25.3370827461
 20
8.505393737
 30
0.0
 11
25.3883194711
 21
8.5057946824
 31
0.0
  0
LINE
  5
4EF
330
1F
100
AcDbEntity
  8
TRMODEL1
  6
Continuous
 62
     2
100
AcDbLine
 10
25.3883194711
 20
8.5057946824
 30
0.0
 11
25.4348815875
 21
8.5158149757
 31
0.0
  0
LINE
  5
4F0
330
1F
100
AcDbEntity
  8
TRMODEL1
  6
Continuous
 62
     2
100
AcDbLine
 10
25.4348815875
 20
8.5158149757
 30
0.0
 11
25.4715031611
 21
8.5340500931
 31
0.0
  0
LINE
  5
4F1
330
1F
100
AcDbEntity
  8
TRMODEL1
  6
Continuous
 62
     2
100
AcDbLine
 10
25.4715031611
 20
8.5340500931
 30
0.0
 11
25.4940342215
 21
8.5580891774
 31
0.0
  0
LINE
  5
4F2
330
1F
100
AcDbEntity
  8
TRMODEL1
  6
Continuous
 62
     2
100
AcDbLine
 10
25.4940342215
 20
8.5580891774
 30
0.0
 11
25.4989846459
 21
8.5806550089
 31
0.0
  0
LINE
  5
4F3
330
1F
100
AcDbEntity
  8
TRMODEL1
  6
Continuous
 62
     2
100
AcDbLine
 10
25.1942664512
 20
8.6555512315
 30
0.0
 11
25.1939486645
 21
8.6542727538
 31
0.0
  0
LINE
  5
4F4
330
1F
100
AcDbEntity
  8
TRMODEL1
  6
Continuous
 62
     2
100
AcDbLine
 10
25.1939486645
 20
8.6542727538
 30
0.0
 11
25.2033045609
 21
8.6223508241
 31
0.0
  0
LINE
  5
4F5
330
1F
100
AcDbEntity
  8
TRMODEL1
  6
Continuous
 62
     2
100
AcDbLine
 10
25.2033045609
 20
8.6223508241
 30
0.0
 11
25.2289297659
 21
8.59385259
 31
0.0
  0
LINE
  5
4F6
330
1F
100
AcDbEntity
  8
TRMODEL1
  6
Continuous
 62
     2
100
AcDbLine
 10
25.2289297659
 20
8.59385259
 30
0.0
 11
25.2679280203
 21
8.5717395878
 31
0.0
  0
LINE
  5
4F7
330
1F
100
AcDbEntity
  8
TRMODEL1
  6
Continuous
 62
     2
100
AcDbLine
 10
25.2679280203
 20
8.5717395878
 30
0.0
 11
25.3158790695
 21
8.5581784198
 31
0.0
  0
LINE
  5
4F8
330
1F
100
AcDbEntity
  8
TRMODEL1
  6
Continuous
 62
     2
100
AcDbLine
 10
25.3158790695
 20
8.5581784198
 30
0.0
 11
25.3673599847
 21
8.5544199533
 31
0.0
  0
LINE
  5
4F9
330
1F
100
AcDbEntity
  8
TRMODEL1
  6
Continuous
 62
     2
100
AcDbLine
 10
25.3673599847
 20
8.5544199533
 30
0.0
 11
25.416540482
 21
8.5605813234
 31
0.0
  0
LINE
  5
4FA
330
1F
100
AcDbEntity
  8
TRMODEL1
  6
Continuous
 62
     2
100
AcDbLine
 10
25.416540482
 20
8.5605813234
 30
0.0
 11
25.4578532212
 21
8.5756444681
 31
0.0
  0
LINE
  5
4FB
330
1F
100
AcDbEntity
  8
TRMODEL1
  6
Continuous
 62
     2
100
AcDbLine
 10
25.4578532212
 20
8.5756444681
 30
0.0
 11
25.4866248882
 21
8.5976351869
 31
0.0
  0
LINE
  5
4FC
330
1F
100
AcDbEntity
  8
TRMODEL1
  6
Continuous
 62
     2
100
AcDbLine
 10
25.4866248882
 20
8.5976351869
 30
0.0
 11
25.4995945885
 21
8.6237112179
 31
0.0
  0
LINE
  5
4FD
330
1F
100
AcDbEntity
  8
TRMODEL1
  6
Continuous
 62
     2
100
AcDbLine
 10
25.4995945885
 20
8.6237112179
 30
0.0
 11
25.4985113255
 21
8.6305049651
 31
0.0
  0
LINE
  5
4FE
330
1F
100
AcDbEntity
  8
TRMODEL1
  6
Continuous
 62
     2
100
AcDbLine
 10
25.4922527401
 20
8.5561884599
 30
0.0
 11
25.5001475723
 21
8.5332106855
 31
0.0
  0
LINE
  5
4FF
330
1F
100
AcDbEntity
  8
TRMODEL1
  6
Continuous
 62
     2
100
AcDbLine
 10
25.5001475723
 20
8.5332106855
 30
0.0
 11
25.4919444096
 21
8.5065297385
 31
0.0
  0
LINE
  5
500
330
1F
100
AcDbEntity
  8
TRMODEL1
  6
Continuous
 62
     2
100
AcDbLine
 10
25.4919444096
 20
8.5065297385
 30
0.0
 11
25.4673402567
 21
8.4831060688
 31
0.0
  0
LINE
  5
501
330
1F
100
AcDbEntity
  8
TRMODEL1
  6
Continuous
 62
     2
100
AcDbLine
 10
25.4673402567
 20
8.4831060688
 30
0.0
 11
25.4291163247
 21
8.4658487136
 31
0.0
  0
LINE
  5
502
330
1F
100
AcDbEntity
  8
TRMODEL1
  6
Continuous
 62
     2
100
AcDbLine
 10
25.4291163247
 20
8.4658487136
 30
0.0
 11
25.3816053383
 21
8.4570586454
 31
0.0
  0
LINE
  5
503
330
1F
100
AcDbEntity
  8
TRMODEL1
  6
Continuous
 62
     2
100
AcDbLine
 10
25.3816053383
 20
8.4570586454
 30
0.0
 11
25.3301789289
 21
8.458000154
 31
0.0
  0
LINE
  5
504
330
1F
100
AcDbEntity
  8
TRMODEL1
  6
Continuous
 62
     2
100
AcDbLine
 10
25.3301789289
 20
8.458000154
 30
0.0
 11
25.2806639443
 21
8.4688929236
 31
0.0
  0
LINE
  5
505
330
1F
100
AcDbEntity
  8
TRMODEL1
  6
Continuous
 62
     2
100
AcDbLine
 10
25.2806639443
 20
8.4688929236
 30
0.0
 11
25.2386622879
 21
8.4888036194
 31
0.0
  0
LINE
  5
506
330
1F
100
AcDbEntity
  8
TRMODEL1
  6
Continuous
 62
     2
100
AcDbLine
 10
25.2386622879
 20
8.4888036194
 30
0.0
 11
25.2089284941
 21
8.5157722101
 31
0.0
  0
LINE
  5
507
330
1F
100
AcDbEntity
  8
TRMODEL1
  6
Continuous
 62
     2
100
AcDbLine
 10
25.2089284941
 20
8.5157722101
 30
0.0
 11
25.1948300272
 21
8.5470728983
 31
0.0
  0
LINE
  5
508
330
1F
100
AcDbEntity
  8
TRMODEL1
  6
Continuous
 62
     2
100
AcDbLine
 10
25.1948300272
 20
8.5470728983
 30
0.0
 11
25.1979616006
 21
8.579438107
 31
0.0
  0
LINE
  5
509
330
1F
100
AcDbEntity
  8
TRMODEL1
  6
Continuous
 62
     2
100
AcDbLine
 10
25.1979616006
 20
8.579438107
 30
0.0
 11
25.2000800007
 21
8.582625705
 31
0.0
  0
LINE
  5
50A
330
1F
100
AcDbEntity
  8
TRMODEL1
  6
Continuous
 62
     4
100
AcDbLine
 10
24.729446643
 20
7.9099577286
 30
0.0
 11
25.0585719644
 21
7.7199577248
 31
0.0
  0
LINE
  5
50B
330
1F
100
AcDbEntity
  8
TRMODEL1
  6
Continuous
 62
     4
100
AcDbLine
 10
24.6544289861
 20
7.9173862882
 30
0.0
 11
24.6705008578
 21
7.9233380775
 31
0.0
  0
LINE
  5
50C
330
1F
100
AcDbEntity
  8
TRMODEL1
  6
Continuous
 62
     4
100
AcDbLine
 10
24.6705008578
 20
7.9233380775
 30
0.0
 11
24.68884408
 21
7.9240708162
 31
0.0
  0
LINE
  5
50D
330
1F
100
AcDbEntity
  8
TRMODEL1
  6
Continuous
 62
     4
100
AcDbLine
 10
24.68884408
 20
7.9240708162
 30
0.0
 11
24.7087476359
 21
7.9195528253
 31
0.0
  0
LINE
  5
50E
330
1F
100
AcDbEntity
  8
TRMODEL1
  6
Continuous
 62
     4
100
AcDbLine
 10
24.7087476359
 20
7.9195528253
 30
0.0
 11
24.729446643
 21
7.9099577286
 31
0.0
  0
LINE
  5
50F
330
1F
100
AcDbEntity
  8
TRMODEL1
  6
Continuous
 62
     2
100
AcDbLine
 10
25.3936394705
 20
8.3082954258
 30
0.0
 11
25.3426336111
 21
8.3068224148
 31
0.0
  0
LINE
  5
510
330
1F
100
AcDbEntity
  8
TRMODEL1
  6
Continuous
 62
     2
100
AcDbLine
 10
25.3426336111
 20
8.3068224148
 30
0.0
 11
25.2921267827
 21
8.3153679296
 31
0.0
  0
LINE
  5
511
330
1F
100
AcDbEntity
  8
TRMODEL1
  6
Continuous
 62
     2
100
AcDbLine
 10
25.2921267827
 20
8.3153679296
 30
0.0
 11
25.2478325719
 21
8.3332318449
 31
0.0
  0
LINE
  5
512
330
1F
100
AcDbEntity
  8
TRMODEL1
  6
Continuous
 62
     2
100
AcDbLine
 10
25.2478325719
 20
8.3332318449
 30
0.0
 11
25.2147723723
 21
8.3587378364
 31
0.0
  0
LINE
  5
513
330
1F
100
AcDbEntity
  8
TRMODEL1
  6
Continuous
 62
     2
100
AcDbLine
 10
25.2147723723
 20
8.3587378364
 30
0.0
 11
25.1966829062
 21
8.3892642527
 31
0.0
  0
LINE
  5
514
330
1F
100
AcDbEntity
  8
TRMODEL1
  6
Continuous
 62
     2
100
AcDbLine
 10
25.1966829062
 20
8.3892642527
 30
0.0
 11
25.195614756
 21
8.4216937838
 31
0.0
  0
LINE
  5
515
330
1F
100
AcDbEntity
  8
TRMODEL1
  6
Continuous
 62
     2
100
AcDbLine
 10
25.195614756
 20
8.4216937838
 30
0.0
 11
25.2000622548
 21
8.4302549836
 31
0.0
  0
LINE
  5
516
330
1F
100
AcDbEntity
  8
TRMODEL1
  6
Continuous
 62
     2
100
AcDbLine
 10
25.1947733851
 20
8.4054761185
 30
0.0
 11
25.1940384283
 21
8.4019921976
 31
0.0
  0
LINE
  5
517
330
1F
100
AcDbEntity
  8
TRMODEL1
  6
Continuous
 62
     2
100
AcDbLine
 10
25.1940384283
 20
8.4019921976
 30
0.0
 11
25.2045698165
 21
8.3702035306
 31
0.0
  0
LINE
  5
518
330
1F
100
AcDbEntity
  8
TRMODEL1
  6
Continuous
 62
     2
100
AcDbLine
 10
25.2045698165
 20
8.3702035306
 30
0.0
 11
25.2312272387
 21
8.3420571524
 31
0.0
  0
LINE
  5
519
330
1F
100
AcDbEntity
  8
TRMODEL1
  6
Continuous
 62
     2
100
AcDbLine
 10
25.2312272387
 20
8.3420571524
 30
0.0
 11
25.2709974741
 21
8.320471583
 31
0.0
  0
LINE
  5
51A
330
1F
100
AcDbEntity
  8
TRMODEL1
  6
Continuous
 62
     2
100
AcDbLine
 10
25.2709974741
 20
8.320471583
 30
0.0
 11
25.3193734992
 21
8.3075589449
 31
0.0
  0
LINE
  5
51B
330
1F
100
AcDbEntity
  8
TRMODEL1
  6
Continuous
 62
     2
100
AcDbLine
 10
25.3193734992
 20
8.3075589449
 30
0.0
 11
25.3575818706
 21
8.3043125754
 31
0.0
  0
LINE
  5
51C
330
1F
100
AcDbEntity
  8
TRMODEL1
  6
Continuous
 62
     2
100
AcDbLine
 10
25.4566253814
 20
8.3307514305
 30
0.0
 11
25.4433873911
 21
8.3231068173
 31
0.0
  0
LINE
  5
51D
330
1F
100
AcDbEntity
  8
TRMODEL1
  6
Continuous
 62
     2
100
AcDbLine
 10
25.3575818706
 20
8.3043125754
 30
0.0
 11
25.4044452925
 21
8.3090706378
 31
0.0
  0
LINE
  5
51E
330
1F
100
AcDbEntity
  8
TRMODEL1
  6
Continuous
 62
     2
100
AcDbLine
 10
25.4044452925
 20
8.3090706378
 30
0.0
 11
25.4412891893
 21
8.3219410222
 31
0.0
  0
LINE
  5
51F
330
1F
100
AcDbEntity
  8
TRMODEL1
  6
Continuous
 62
     2
100
AcDbLine
 10
25.4412891893
 20
8.3219410222
 30
0.0
 11
25.4431314104
 21
8.323473882
 31
0.0
  0
LINE
  5
520
330
1F
100
AcDbEntity
  8
TRMODEL1
  6
Continuous
 62
     2
100
AcDbLine
 10
25.3575818706
 20
8.3043125754
 30
0.0
 11
25.3621655462
 21
8.304535107
 31
0.0
  0
LINE
  5
521
330
1F
100
AcDbEntity
  8
TRMODEL1
  6
Continuous
 62
     2
100
AcDbLine
 10
25.3621655462
 20
8.304535107
 30
0.0
 11
25.3667355738
 21
8.3048370256
 31
0.0
  0
LINE
  5
522
330
1F
100
AcDbEntity
  8
TRMODEL1
  6
Continuous
 62
     2
100
AcDbLine
 10
25.3667355738
 20
8.3048370256
 30
0.0
 11
25.3712878284
 21
8.3052180587
 31
0.0
  0
LINE
  5
523
330
1F
100
AcDbEntity
  8
TRMODEL1
  6
Continuous
 62
     2
100
AcDbLine
 10
25.3712878284
 20
8.3052180587
 30
0.0
 11
25.3758182014
 21
8.3056778625
 31
0.0
  0
LINE
  5
524
330
1F
100
AcDbEntity
  8
TRMODEL1
  6
Continuous
 62
     2
100
AcDbLine
 10
25.3758182014
 20
8.3056778625
 30
0.0
 11
25.3803226037
 21
8.306216022
 31
0.0
  0
LINE
  5
525
330
1F
100
AcDbEntity
  8
TRMODEL1
  6
Continuous
 62
     2
100
AcDbLine
 10
25.3803226037
 20
8.306216022
 30
0.0
 11
25.3847969699
 21
8.3068320513
 31
0.0
  0
LINE
  5
526
330
1F
100
AcDbEntity
  8
TRMODEL1
  6
Continuous
 62
     2
100
AcDbLine
 10
25.3847969699
 20
8.3068320513
 30
0.0
 11
25.3892372613
 21
8.3075253945
 31
0.0
  0
LINE
  5
527
330
1F
100
AcDbEntity
  8
TRMODEL1
  6
Continuous
 62
     2
100
AcDbLine
 10
25.3892372613
 20
8.3075253945
 30
0.0
 11
25.3936394705
 21
8.3082954258
 31
0.0
  0
LINE
  5
528
330
1F
100
AcDbEntity
  8
TRMODEL1
  6
Continuous
 62
     2
100
AcDbLine
 10
25.4867467192
 20
8.4006365168
 30
0.0
 11
25.4924161132
 21
8.3851420523
 31
0.0
  0
LINE
  5
529
330
1F
100
AcDbEntity
  8
TRMODEL1
  6
Continuous
 62
     2
100
AcDbLine
 10
25.4924161132
 20
8.3851420523
 30
0.0
 11
25.4858093189
 21
8.3590913614
 31
0.0
  0
LINE
  5
52A
330
1F
100
AcDbEntity
  8
TRMODEL1
  6
Continuous
 62
     2
100
AcDbLine
 10
25.4858093189
 20
8.3590913614
 30
0.0
 11
25.4635536474
 21
8.3354649027
 31
0.0
  0
LINE
  5
52B
330
1F
100
AcDbEntity
  8
TRMODEL1
  6
Continuous
 62
     2
100
AcDbLine
 10
25.4635536474
 20
8.3354649027
 30
0.0
 11
25.4277476626
 21
8.3171665487
 31
0.0
  0
LINE
  5
52C
330
1F
100
AcDbEntity
  8
TRMODEL1
  6
Continuous
 62
     2
100
AcDbLine
 10
25.4277476626
 20
8.3171665487
 30
0.0
 11
25.3936394705
 21
8.3082954258
 31
0.0
  0
LINE
  5
52D
330
1F
100
AcDbEntity
  8
TRMODEL1
  6
Continuous
 62
     2
100
AcDbLine
 10
26.9440543736
 20
6.6760265241
 30
0.0
 11
27.9284439806
 21
6.6760265241
 31
0.0
  0
LINE
  5
52E
330
1F
100
AcDbEntity
  8
TRMODEL1
  6
Continuous
 62
     2
100
AcDbLine
 10
26.0730453078
 20
10.1475286178
 30
0.0
 11
27.9284439806
 21
10.1475286178
 31
0.0
  0
LINE
  5
52F
330
1F
100
AcDbEntity
  8
TRMODEL1
  6
Continuous
 62
     4
100
AcDbLine
 10
25.5001539385
 20
9.986082883
 30
0.0
 11
25.5001539385
 21
9.0819373394
 31
0.0
  0
LINE
  5
530
330
1F
100
AcDbEntity
  8
TRMODEL1
  6
Continuous
 62
     4
100
AcDbLine
 10
25.193934535
 20
9.1056627034
 30
0.0
 11
25.193934535
 21
9.986082883
 31
0.0
  0
LINE
  5
531
330
1F
100
AcDbEntity
  8
TRMODEL1
  6
Continuous
 62
     2
100
AcDbLine
 10
25.4909648396
 20
9.0065267247
 30
0.0
 11
25.4993507992
 21
8.9907679058
 31
0.0
  0
LINE
  5
532
330
1F
100
AcDbEntity
  8
TRMODEL1
  6
Continuous
 62
     2
100
AcDbLine
 10
25.4993507992
 20
8.9907679058
 30
0.0
 11
25.4959249096
 21
8.9637926446
 31
0.0
  0
LINE
  5
533
330
1F
100
AcDbEntity
  8
TRMODEL1
  6
Continuous
 62
     2
100
AcDbLine
 10
25.4959249096
 20
8.9637926446
 30
0.0
 11
25.4756454752
 21
8.939136673
 31
0.0
  0
LINE
  5
534
330
1F
100
AcDbEntity
  8
TRMODEL1
  6
Continuous
 62
     2
100
AcDbLine
 10
25.4756454752
 20
8.939136673
 30
0.0
 11
25.4408107746
 21
8.9199335052
 31
0.0
  0
LINE
  5
535
330
1F
100
AcDbEntity
  8
TRMODEL1
  6
Continuous
 62
     2
100
AcDbLine
 10
25.4408107746
 20
8.9199335052
 30
0.0
 11
25.3953582165
 21
8.9086129777
 31
0.0
  0
LINE
  5
536
330
1F
100
AcDbEntity
  8
TRMODEL1
  6
Continuous
 62
     2
100
AcDbLine
 10
25.3953582165
 20
8.9086129777
 30
0.0
 11
25.3444411739
 21
8.9068108131
 31
0.0
  0
LINE
  5
537
330
1F
100
AcDbEntity
  8
TRMODEL1
  6
Continuous
 62
     2
100
AcDbLine
 10
25.3444411739
 20
8.9068108131
 30
0.0
 11
25.2938145937
 21
8.9149946413
 31
0.0
  0
LINE
  5
538
330
1F
100
AcDbEntity
  8
TRMODEL1
  6
Continuous
 62
     2
100
AcDbLine
 10
25.2938145937
 20
8.9149946413
 30
0.0
 11
25.2492162758
 21
8.9325701583
 31
0.0
  0
LINE
  5
539
330
1F
100
AcDbEntity
  8
TRMODEL1
  6
Continuous
 62
     2
100
AcDbLine
 10
25.2492162758
 20
8.9325701583
 30
0.0
 11
25.2156907189
 21
8.9578402178
 31
0.0
  0
LINE
  5
53A
330
1F
100
AcDbEntity
  8
TRMODEL1
  6
Continuous
 62
     2
100
AcDbLine
 10
25.2156907189
 20
8.9578402178
 30
0.0
 11
25.1970341908
 21
8.9882455194
 31
0.0
  0
LINE
  5
53B
330
1F
100
AcDbEntity
  8
TRMODEL1
  6
Continuous
 62
     2
100
AcDbLine
 10
25.1970341908
 20
8.9882455194
 30
0.0
 11
25.1953583954
 21
9.0206677187
 31
0.0
  0
LINE
  5
53C
330
1F
100
AcDbEntity
  8
TRMODEL1
  6
Continuous
 62
     2
100
AcDbLine
 10
25.1953583954
 20
9.0206677187
 30
0.0
 11
25.2000226803
 21
9.0300110329
 31
0.0
  0
LINE
  5
53D
330
1F
100
AcDbEntity
  8
TRMODEL1
  6
Continuous
 62
     2
100
AcDbLine
 10
25.4915222858
 20
8.9567774415
 30
0.0
 11
25.4956798158
 21
8.9518181215
 31
0.0
  0
LINE
  5
53E
330
1F
100
AcDbEntity
  8
TRMODEL1
  6
Continuous
 62
     2
100
AcDbLine
 10
25.4956798158
 20
8.9518181215
 30
0.0
 11
25.4994532359
 21
8.9248510762
 31
0.0
  0
LINE
  5
53F
330
1F
100
AcDbEntity
  8
TRMODEL1
  6
Continuous
 62
     2
100
AcDbLine
 10
25.4994532359
 20
8.9248510762
 30
0.0
 11
25.4859747494
 21
8.8988446185
 31
0.0
  0
LINE
  5
540
330
1F
100
AcDbEntity
  8
TRMODEL1
  6
Continuous
 62
     2
100
AcDbLine
 10
25.4859747494
 20
8.8988446185
 30
0.0
 11
25.4567686123
 21
8.8770287061
 31
0.0
  0
LINE
  5
541
330
1F
100
AcDbEntity
  8
TRMODEL1
  6
Continuous
 62
     2
100
AcDbLine
 10
25.4567686123
 20
8.8770287061
 30
0.0
 11
25.4151442688
 21
8.8622108781
 31
0.0
  0
LINE
  5
542
330
1F
100
AcDbEntity
  8
TRMODEL1
  6
Continuous
 62
     2
100
AcDbLine
 10
25.4151442688
 20
8.8622108781
 30
0.0
 11
25.3658076536
 21
8.8563330229
 31
0.0
  0
LINE
  5
543
330
1F
100
AcDbEntity
  8
TRMODEL1
  6
Continuous
 62
     2
100
AcDbLine
 10
25.3658076536
 20
8.8563330229
 30
0.0
 11
25.3143510587
 21
8.8604066361
 31
0.0
  0
LINE
  5
544
330
1F
100
AcDbEntity
  8
TRMODEL1
  6
Continuous
 62
     2
100
AcDbLine
 10
25.3143510587
 20
8.8604066361
 30
0.0
 11
25.2665915316
 21
8.8742354155
 31
0.0
  0
LINE
  5
545
330
1F
100
AcDbEntity
  8
TRMODEL1
  6
Continuous
 62
     2
100
AcDbLine
 10
25.2665915316
 20
8.8742354155
 30
0.0
 11
25.2279420855
 21
8.8965917845
 31
0.0
  0
LINE
  5
546
330
1F
100
AcDbEntity
  8
TRMODEL1
  6
Continuous
 62
     2
100
AcDbLine
 10
25.2279420855
 20
8.8965917845
 30
0.0
 11
25.2027728369
 21
8.9252270984
 31
0.0
  0
LINE
  5
547
330
1F
100
AcDbEntity
  8
TRMODEL1
  6
Continuous
 62
     2
100
AcDbLine
 10
25.2027728369
 20
8.9252270984
 30
0.0
 11
25.1939354103
 21
8.9572127821
 31
0.0
  0
LINE
  5
548
330
1F
100
AcDbEntity
  8
TRMODEL1
  6
Continuous
 62
     2
100
AcDbLine
 10
25.1939354103
 20
8.9572127821
 30
0.0
 11
25.200618842
 21
8.9824125942
 31
0.0
  0
LINE
  5
549
330
1F
100
AcDbEntity
  8
TRMODEL1
  6
Continuous
 62
     2
100
AcDbLine
 10
25.196087006
 20
8.9556624083
 30
0.0
 11
25.1966473181
 21
8.9375701727
 31
0.0
  0
LINE
  5
54A
330
1F
100
AcDbEntity
  8
TRMODEL1
  6
Continuous
 62
     2
100
AcDbLine
 10
25.1966473181
 20
8.9375701727
 30
0.0
 11
25.2146765185
 21
8.9070291173
 31
0.0
  0
LINE
  5
54B
330
1F
100
AcDbEntity
  8
TRMODEL1
  6
Continuous
 62
     2
100
AcDbLine
 10
25.2146765185
 20
8.9070291173
 30
0.0
 11
25.2476877096
 21
8.8814986242
 31
0.0
  0
LINE
  5
54C
330
1F
100
AcDbEntity
  8
TRMODEL1
  6
Continuous
 62
     2
100
AcDbLine
 10
25.2476877096
 20
8.8814986242
 30
0.0
 11
25.2919492207
 21
8.8636045731
 31
0.0
  0
LINE
  5
54D
330
1F
100
AcDbEntity
  8
TRMODEL1
  6
Continuous
 62
     2
100
AcDbLine
 10
25.2919492207
 20
8.8636045731
 30
0.0
 11
25.3424427031
 21
8.8550211054
 31
0.0
  0
LINE
  5
54E
330
1F
100
AcDbEntity
  8
TRMODEL1
  6
Continuous
 62
     2
100
AcDbLine
 10
25.3424427031
 20
8.8550211054
 30
0.0
 11
25.3934619274
 21
8.8564601207
 31
0.0
  0
LINE
  5
54F
330
1F
100
AcDbEntity
  8
TRMODEL1
  6
Continuous
 62
     2
100
AcDbLine
 10
25.3934619274
 20
8.8564601207
 30
0.0
 11
25.4392231022
 21
8.8674174878
 31
0.0
  0
LINE
  5
550
330
1F
100
AcDbEntity
  8
TRMODEL1
  6
Continuous
 62
     2
100
AcDbLine
 10
25.4392231022
 20
8.8674174878
 30
0.0
 11
25.4745517471
 21
8.8863718288
 31
0.0
  0
LINE
  5
551
330
1F
100
AcDbEntity
  8
TRMODEL1
  6
Continuous
 62
     2
100
AcDbLine
 10
25.4745517471
 20
8.8863718288
 30
0.0
 11
25.4954462145
 21
8.9108655443
 31
0.0
  0
LINE
  5
552
330
1F
100
AcDbEntity
  8
TRMODEL1
  6
Continuous
 62
     2
100
AcDbLine
 10
25.4954462145
 20
8.9108655443
 30
0.0
 11
25.498462177
 21
8.93070574
 31
0.0
  0
LINE
  5
553
330
1F
100
AcDbEntity
  8
TRMODEL1
  6
Continuous
 62
     2
100
AcDbLine
 10
25.1950006714
 20
9.0055687371
 30
0.0
 11
25.1941156672
 21
9.000959654
 31
0.0
  0
LINE
  5
554
330
1F
100
AcDbEntity
  8
TRMODEL1
  6
Continuous
 62
     2
100
AcDbLine
 10
25.1941156672
 20
9.000959654
 30
0.0
 11
25.2052405937
 21
8.9692313546
 31
0.0
  0
LINE
  5
555
330
1F
100
AcDbEntity
  8
TRMODEL1
  6
Continuous
 62
     2
100
AcDbLine
 10
25.2052405937
 20
8.9692313546
 30
0.0
 11
25.2324178084
 21
8.9412832862
 31
0.0
  0
LINE
  5
556
330
1F
100
AcDbEntity
  8
TRMODEL1
  6
Continuous
 62
     2
100
AcDbLine
 10
25.2324178084
 20
8.9412832862
 30
0.0
 11
25.2725689643
 21
8.919955843
 31
0.0
  0
LINE
  5
557
330
1F
100
AcDbEntity
  8
TRMODEL1
  6
Continuous
 62
     2
100
AcDbLine
 10
25.2725689643
 20
8.919955843
 30
0.0
 11
25.3211532419
 21
8.9073861857
 31
0.0
  0
LINE
  5
558
330
1F
100
AcDbEntity
  8
TRMODEL1
  6
Continuous
 62
     2
100
AcDbLine
 10
25.3211532419
 20
8.9073861857
 30
0.0
 11
25.3726648476
 21
8.9046583623
 31
0.0
  0
LINE
  5
559
330
1F
100
AcDbEntity
  8
TRMODEL1
  6
Continuous
 62
     2
100
AcDbLine
 10
25.3726648476
 20
8.9046583623
 30
0.0
 11
25.4212799229
 21
8.9118161498
 31
0.0
  0
LINE
  5
55A
330
1F
100
AcDbEntity
  8
TRMODEL1
  6
Continuous
 62
     2
100
AcDbLine
 10
25.4212799229
 20
8.9118161498
 30
0.0
 11
25.4614882842
 21
8.9277037024
 31
0.0
  0
LINE
  5
55B
330
1F
100
AcDbEntity
  8
TRMODEL1
  6
Continuous
 62
     2
100
AcDbLine
 10
25.4614882842
 20
8.9277037024
 30
0.0
 11
25.4887443888
 21
8.950254957
 31
0.0
  0
LINE
  5
55C
330
1F
100
AcDbEntity
  8
TRMODEL1
  6
Continuous
 62
     2
100
AcDbLine
 10
25.4887443888
 20
8.950254957
 30
0.0
 11
25.4999591947
 21
8.9765872496
 31
0.0
  0
LINE
  5
55D
330
1F
100
AcDbEntity
  8
TRMODEL1
  6
Continuous
 62
     2
100
AcDbLine
 10
25.4999591947
 20
8.9765872496
 30
0.0
 11
25.4990550114
 21
8.9805688272
 31
0.0
  0
LINE
  5
55E
330
1F
100
AcDbEntity
  8
TRMODEL1
  6
Continuous
 62
     2
100
AcDbLine
 10
25.1956479426
 20
9.0557368063
 30
0.0
 11
25.1985749245
 21
9.032090379
 31
0.0
  0
LINE
  5
55F
330
1F
100
AcDbEntity
  8
TRMODEL1
  6
Continuous
 62
     2
100
AcDbLine
 10
25.1985749245
 20
9.032090379
 30
0.0
 11
25.2193857757
 21
9.0022006958
 31
0.0
  0
LINE
  5
560
330
1F
100
AcDbEntity
  8
TRMODEL1
  6
Continuous
 62
     2
100
AcDbLine
 10
25.2193857757
 20
9.0022006958
 30
0.0
 11
25.2546462202
 21
8.977829521
 31
0.0
  0
LINE
  5
561
330
1F
100
AcDbEntity
  8
TRMODEL1
  6
Continuous
 62
     2
100
AcDbLine
 10
25.2546462202
 20
8.977829521
 30
0.0
 11
25.3003660118
 21
8.9614329794
 31
0.0
  0
LINE
  5
562
330
1F
100
AcDbEntity
  8
TRMODEL1
  6
Continuous
 62
     2
100
AcDbLine
 10
25.3003660118
 20
8.9614329794
 30
0.0
 11
25.3513711052
 21
8.9545793339
 31
0.0
  0
LINE
  5
563
330
1F
100
AcDbEntity
  8
TRMODEL1
  6
Continuous
 62
     2
100
AcDbLine
 10
25.3513711052
 20
8.9545793339
 30
0.0
 11
25.4018830996
 21
8.9577051562
 31
0.0
  0
LINE
  5
564
330
1F
100
AcDbEntity
  8
TRMODEL1
  6
Continuous
 62
     2
100
AcDbLine
 10
25.4018830996
 20
8.9577051562
 30
0.0
 11
25.4461920489
 21
8.9701992188
 31
0.0
  0
LINE
  5
565
330
1F
100
AcDbEntity
  8
TRMODEL1
  6
Continuous
 62
     2
100
AcDbLine
 10
25.4461920489
 20
8.9701992188
 30
0.0
 11
25.4792737645
 21
8.9902908048
 31
0.0
  0
LINE
  5
566
330
1F
100
AcDbEntity
  8
TRMODEL1
  6
Continuous
 62
     2
100
AcDbLine
 10
25.4792737645
 20
8.9902908048
 30
0.0
 11
25.4973897044
 21
9.0154492223
 31
0.0
  0
LINE
  5
567
330
1F
100
AcDbEntity
  8
TRMODEL1
  6
Continuous
 62
     2
100
AcDbLine
 10
25.4973897044
 20
9.0154492223
 30
0.0
 11
25.4980072451
 21
9.030675956
 31
0.0
  0
LINE
  5
568
330
1F
100
AcDbEntity
  8
TRMODEL1
  6
Continuous
 62
     2
100
AcDbLine
 10
25.1958182379
 20
9.105595122
 30
0.0
 11
25.1948096279
 21
9.0953803115
 31
0.0
  0
LINE
  5
569
330
1F
100
AcDbEntity
  8
TRMODEL1
  6
Continuous
 62
     2
100
AcDbLine
 10
25.1948096279
 20
9.0953803115
 30
0.0
 11
25.2088462065
 21
9.0640662859
 31
0.0
  0
LINE
  5
56A
330
1F
100
AcDbEntity
  8
TRMODEL1
  6
Continuous
 62
     2
100
AcDbLine
 10
25.2088462065
 20
9.0640662859
 30
0.0
 11
25.2385284762
 21
9.037079261
 31
0.0
  0
LINE
  5
56B
330
1F
100
AcDbEntity
  8
TRMODEL1
  6
Continuous
 62
     2
100
AcDbLine
 10
25.2385284762
 20
9.037079261
 30
0.0
 11
25.2804918309
 21
9.0171356675
 31
0.0
  0
LINE
  5
56C
330
1F
100
AcDbEntity
  8
TRMODEL1
  6
Continuous
 62
     2
100
AcDbLine
 10
25.2804918309
 20
9.0171356675
 30
0.0
 11
25.3299909462
 21
9.0062111654
 31
0.0
  0
LINE
  5
56D
330
1F
100
AcDbEntity
  8
TRMODEL1
  6
Continuous
 62
     2
100
AcDbLine
 10
25.3299909462
 20
9.0062111654
 30
0.0
 11
25.3814194279
 21
9.0052280146
 31
0.0
  0
LINE
  5
56E
330
1F
100
AcDbEntity
  8
TRMODEL1
  6
Continuous
 62
     2
100
AcDbLine
 10
25.3814194279
 20
9.0052280146
 30
0.0
 11
25.4289563614
 21
9.0139883811
 31
0.0
  0
LINE
  5
56F
330
1F
100
AcDbEntity
  8
TRMODEL1
  6
Continuous
 62
     2
100
AcDbLine
 10
25.4289563614
 20
9.0139883811
 30
0.0
 11
25.4672223445
 21
9.0312164305
 31
0.0
  0
LINE
  5
570
330
1F
100
AcDbEntity
  8
TRMODEL1
  6
Continuous
 62
     2
100
AcDbLine
 10
25.4672223445
 20
9.0312164305
 30
0.0
 11
25.4918827585
 21
9.0546209431
 31
0.0
  0
LINE
  5
571
330
1F
100
AcDbEntity
  8
TRMODEL1
  6
Continuous
 62
     2
100
AcDbLine
 10
25.4918827585
 20
9.0546209431
 30
0.0
 11
25.4999582849
 21
9.0806820729
 31
0.0
  0
LINE
  5
572
330
1F
100
AcDbEntity
  8
TRMODEL1
  6
Continuous
 62
     2
100
AcDbLine
 10
25.4926224929
 20
9.0570081948
 30
0.0
 11
25.4932860573
 21
9.056329772
 31
0.0
  0
LINE
  5
573
330
1F
100
AcDbEntity
  8
TRMODEL1
  6
Continuous
 62
     2
100
AcDbLine
 10
25.4932860573
 20
9.056329772
 30
0.0
 11
25.5000469315
 21
9.0295536594
 31
0.0
  0
LINE
  5
574
330
1F
100
AcDbEntity
  8
TRMODEL1
  6
Continuous
 62
     2
100
AcDbLine
 10
25.5000469315
 20
9.0295536594
 30
0.0
 11
25.4894879189
 21
9.003122135
 31
0.0
  0
LINE
  5
575
330
1F
100
AcDbEntity
  8
TRMODEL1
  6
Continuous
 62
     2
100
AcDbLine
 10
25.4894879189
 20
9.003122135
 30
0.0
 11
25.4628063778
 21
8.9803875272
 31
0.0
  0
LINE
  5
576
330
1F
100
AcDbEntity
  8
TRMODEL1
  6
Continuous
 62
     2
100
AcDbLine
 10
25.4628063778
 20
8.9803875272
 30
0.0
 11
25.4230180898
 21
8.9641791205
 31
0.0
  0
LINE
  5
577
330
1F
100
AcDbEntity
  8
TRMODEL1
  6
Continuous
 62
     2
100
AcDbLine
 10
25.4230180898
 20
8.9641791205
 30
0.0
 11
25.3746326633
 21
8.9566732636
 31
0.0
  0
LINE
  5
578
330
1F
100
AcDbEntity
  8
TRMODEL1
  6
Continuous
 62
     2
100
AcDbLine
 10
25.3746326633
 20
8.9566732636
 30
0.0
 11
25.3231223312
 21
8.9590020344
 31
0.0
  0
LINE
  5
579
330
1F
100
AcDbEntity
  8
TRMODEL1
  6
Continuous
 62
     2
100
AcDbLine
 10
25.3231223312
 20
8.9590020344
 30
0.0
 11
25.274320466
 21
8.9712094979
 31
0.0
  0
LINE
  5
57A
330
1F
100
AcDbEntity
  8
TRMODEL1
  6
Continuous
 62
     2
100
AcDbLine
 10
25.274320466
 20
8.9712094979
 30
0.0
 11
25.2337518403
 21
8.9922346013
 31
0.0
  0
LINE
  5
57B
330
1F
100
AcDbEntity
  8
TRMODEL1
  6
Continuous
 62
     2
100
AcDbLine
 10
25.2337518403
 20
8.9922346013
 30
0.0
 11
25.2060053713
 21
9.0199702435
 31
0.0
  0
LINE
  5
57C
330
1F
100
AcDbEntity
  8
TRMODEL1
  6
Continuous
 62
     2
100
AcDbLine
 10
25.2060053713
 20
9.0199702435
 30
0.0
 11
25.1942258791
 21
9.0516214218
 31
0.0
  0
LINE
  5
57D
330
1F
100
AcDbEntity
  8
TRMODEL1
  6
Continuous
 62
     2
100
AcDbLine
 10
25.1942258791
 20
9.0516214218
 30
0.0
 11
25.1997447793
 21
9.083869333
 31
0.0
  0
LINE
  5
57E
330
1F
100
AcDbEntity
  8
TRMODEL1
  6
Continuous
 62
     2
100
AcDbLine
 10
25.1997447793
 20
9.083869333
 30
0.0
 11
25.1998854964
 21
9.0840566207
 31
0.0
  0
LINE
  5
57F
330
1F
100
AcDbEntity
  8
TRMODEL1
  6
Continuous
 62
     2
100
AcDbLine
 10
25.4908493091
 20
8.7565243979
 30
0.0
 11
25.4989454078
 21
8.7425856075
 31
0.0
  0
LINE
  5
580
330
1F
100
AcDbEntity
  8
TRMODEL1
  6
Continuous
 62
     2
100
AcDbLine
 10
25.4989454078
 20
8.7425856075
 30
0.0
 11
25.4967155974
 21
8.7155702876
 31
0.0
  0
LINE
  5
581
330
1F
100
AcDbEntity
  8
TRMODEL1
  6
Continuous
 62
     2
100
AcDbLine
 10
25.4967155974
 20
8.7155702876
 30
0.0
 11
25.4775429131
 21
8.6906507247
 31
0.0
  0
LINE
  5
582
330
1F
100
AcDbEntity
  8
TRMODEL1
  6
Continuous
 62
     2
100
AcDbLine
 10
25.4775429131
 20
8.6906507247
 30
0.0
 11
25.4435999719
 21
8.6709856643
 31
0.0
  0
LINE
  5
583
330
1F
100
AcDbEntity
  8
TRMODEL1
  6
Continuous
 62
     2
100
AcDbLine
 10
25.4435999719
 20
8.6709856643
 30
0.0
 11
25.398723493
 21
8.6590579035
 31
0.0
  0
LINE
  5
584
330
1F
100
AcDbEntity
  8
TRMODEL1
  6
Continuous
 62
     2
100
AcDbLine
 10
25.398723493
 20
8.6590579035
 30
0.0
 11
25.34800183
 21
8.6565749835
 31
0.0
  0
LINE
  5
585
330
1F
100
AcDbEntity
  8
TRMODEL1
  6
Continuous
 62
     2
100
AcDbLine
 10
25.34800183
 20
8.6565749835
 30
0.0
 11
25.297166984
 21
8.6640757577
 31
0.0
  0
LINE
  5
586
330
1F
100
AcDbEntity
  8
TRMODEL1
  6
Continuous
 62
     2
100
AcDbLine
 10
25.297166984
 20
8.6640757577
 30
0.0
 11
25.2519816825
 21
8.6810507843
 31
0.0
  0
LINE
  5
587
330
1F
100
AcDbEntity
  8
TRMODEL1
  6
Continuous
 62
     2
100
AcDbLine
 10
25.2519816825
 20
8.6810507843
 30
0.0
 11
25.2175554335
 21
8.705862779
 31
0.0
  0
LINE
  5
588
330
1F
100
AcDbEntity
  8
TRMODEL1
  6
Continuous
 62
     2
100
AcDbLine
 10
25.2175554335
 20
8.705862779
 30
0.0
 11
25.1977875673
 21
8.7360117453
 31
0.0
  0
LINE
  5
589
330
1F
100
AcDbEntity
  8
TRMODEL1
  6
Continuous
 62
     2
100
AcDbLine
 10
25.1977875673
 20
8.7360117453
 30
0.0
 11
25.1949150003
 21
8.7684022492
 31
0.0
  0
LINE
  5
58A
330
1F
100
AcDbEntity
  8
TRMODEL1
  6
Continuous
 62
     2
100
AcDbLine
 10
25.1949150003
 20
8.7684022492
 30
0.0
 11
25.1999174808
 21
8.7792938339
 31
0.0
  0
LINE
  5
58B
330
1F
100
AcDbEntity
  8
TRMODEL1
  6
Continuous
 62
     2
100
AcDbLine
 10
25.1953280025
 20
8.8057010537
 30
0.0
 11
25.1994850113
 21
8.7798784286
 31
0.0
  0
LINE
  5
58C
330
1F
100
AcDbEntity
  8
TRMODEL1
  6
Continuous
 62
     2
100
AcDbLine
 10
25.1994850113
 20
8.7798784286
 30
0.0
 11
25.2213858794
 21
8.7502737183
 31
0.0
  0
LINE
  5
58D
330
1F
100
AcDbEntity
  8
TRMODEL1
  6
Continuous
 62
     2
100
AcDbLine
 10
25.2213858794
 20
8.7502737183
 30
0.0
 11
25.2575103301
 21
8.7263836573
 31
0.0
  0
LINE
  5
58E
330
1F
100
AcDbEntity
  8
TRMODEL1
  6
Continuous
 62
     2
100
AcDbLine
 10
25.2575103301
 20
8.7263836573
 30
0.0
 11
25.3037693024
 21
8.7106027068
 31
0.0
  0
LINE
  5
58F
330
1F
100
AcDbEntity
  8
TRMODEL1
  6
Continuous
 62
     2
100
AcDbLine
 10
25.3037693024
 20
8.7106027068
 30
0.0
 11
25.3549290129
 21
8.7044362847
 31
0.0
  0
LINE
  5
590
330
1F
100
AcDbEntity
  8
TRMODEL1
  6
Continuous
 62
     2
100
AcDbLine
 10
25.3549290129
 20
8.7044362847
 30
0.0
 11
25.4051923321
 21
8.7082376037
 31
0.0
  0
LINE
  5
591
330
1F
100
AcDbEntity
  8
TRMODEL1
  6
Continuous
 62
     2
100
AcDbLine
 10
25.4051923321
 20
8.7082376037
 30
0.0
 11
25.4488783037
 21
8.7213226399
 31
0.0
  0
LINE
  5
592
330
1F
100
AcDbEntity
  8
TRMODEL1
  6
Continuous
 62
     2
100
AcDbLine
 10
25.4488783037
 20
8.7213226399
 30
0.0
 11
25.4810329264
 21
8.7418527533
 31
0.0
  0
LINE
  5
593
330
1F
100
AcDbEntity
  8
TRMODEL1
  6
Continuous
 62
     2
100
AcDbLine
 10
25.4810329264
 20
8.7418527533
 30
0.0
 11
25.4980225109
 21
8.7672455232
 31
0.0
  0
LINE
  5
594
330
1F
100
AcDbEntity
  8
TRMODEL1
  6
Continuous
 62
     2
100
AcDbLine
 10
25.4980225109
 20
8.7672455232
 30
0.0
 11
25.4979723516
 21
8.7806080765
 31
0.0
  0
LINE
  5
595
330
1F
100
AcDbEntity
  8
TRMODEL1
  6
Continuous
 62
     2
100
AcDbLine
 10
25.4909264857
 20
8.8566339276
 30
0.0
 11
25.4975681772
 21
8.8472364451
 31
0.0
  0
LINE
  5
596
330
1F
100
AcDbEntity
  8
TRMODEL1
  6
Continuous
 62
     2
100
AcDbLine
 10
25.4975681772
 20
8.8472364451
 30
0.0
 11
25.4983413552
 21
8.8201803341
 31
0.0
  0
LINE
  5
597
330
1F
100
AcDbEntity
  8
TRMODEL1
  6
Continuous
 62
     2
100
AcDbLine
 10
25.4983413552
 20
8.8201803341
 30
0.0
 11
25.4819887838
 21
8.7946828033
 31
0.0
  0
LINE
  5
598
330
1F
100
AcDbEntity
  8
TRMODEL1
  6
Continuous
 62
     2
100
AcDbLine
 10
25.4819887838
 20
8.7946828033
 30
0.0
 11
25.4503589663
 21
8.7738918171
 31
0.0
  0
LINE
  5
599
330
1F
100
AcDbEntity
  8
TRMODEL1
  6
Continuous
 62
     2
100
AcDbLine
 10
25.4503589663
 20
8.7738918171
 30
0.0
 11
25.4070362191
 21
8.7604974146
 31
0.0
  0
LINE
  5
59A
330
1F
100
AcDbEntity
  8
TRMODEL1
  6
Continuous
 62
     2
100
AcDbLine
 10
25.4070362191
 20
8.7604974146
 30
0.0
 11
25.3569213443
 21
8.7563046512
 31
0.0
  0
LINE
  5
59B
330
1F
100
AcDbEntity
  8
TRMODEL1
  6
Continuous
 62
     2
100
AcDbLine
 10
25.3569213443
 20
8.7563046512
 30
0.0
 11
25.3056882837
 21
8.7620929664
 31
0.0
  0
LINE
  5
59C
330
1F
100
AcDbEntity
  8
TRMODEL1
  6
Continuous
 62
     2
100
AcDbLine
 10
25.3056882837
 20
8.7620929664
 30
0.0
 11
25.2591379065
 21
8.7775252227
 31
0.0
  0
LINE
  5
59D
330
1F
100
AcDbEntity
  8
TRMODEL1
  6
Continuous
 62
     2
100
AcDbLine
 10
25.2591379065
 20
8.7775252227
 30
0.0
 11
25.2225364103
 21
8.8011330262
 31
0.0
  0
LINE
  5
59E
330
1F
100
AcDbEntity
  8
TRMODEL1
  6
Continuous
 62
     2
100
AcDbLine
 10
25.2225364103
 20
8.8011330262
 30
0.0
 11
25.2000308071
 21
8.8305847133
 31
0.0
  0
LINE
  5
59F
330
1F
100
AcDbEntity
  8
TRMODEL1
  6
Continuous
 62
     2
100
AcDbLine
 10
25.2000308071
 20
8.8305847133
 30
0.0
 11
25.1941655161
 21
8.862809157
 31
0.0
  0
LINE
  5
5A0
330
1F
100
AcDbEntity
  8
TRMODEL1
  6
Continuous
 62
     2
100
AcDbLine
 10
25.1941655161
 20
8.862809157
 30
0.0
 11
25.2005737254
 21
8.8805626016
 31
0.0
  0
LINE
  5
5A1
330
1F
100
AcDbEntity
  8
TRMODEL1
  6
Continuous
 62
     2
100
AcDbLine
 10
25.195999835
 20
8.8555752703
 30
0.0
 11
25.1952308865
 21
8.8431130762
 31
0.0
  0
LINE
  5
5A2
330
1F
100
AcDbEntity
  8
TRMODEL1
  6
Continuous
 62
     2
100
AcDbLine
 10
25.1952308865
 20
8.8431130762
 30
0.0
 11
25.2104162095
 21
8.8119966597
 31
0.0
  0
LINE
  5
5A3
330
1F
100
AcDbEntity
  8
TRMODEL1
  6
Continuous
 62
     2
100
AcDbLine
 10
25.2104162095
 20
8.8119966597
 30
0.0
 11
25.2410692298
 21
8.7854122711
 31
0.0
  0
LINE
  5
5A4
330
1F
100
AcDbEntity
  8
TRMODEL1
  6
Continuous
 62
     2
100
AcDbLine
 10
25.2410692298
 20
8.7854122711
 30
0.0
 11
25.2837163594
 21
8.7660394649
 31
0.0
  0
LINE
  5
5A5
330
1F
100
AcDbEntity
  8
TRMODEL1
  6
Continuous
 62
     2
100
AcDbLine
 10
25.2837163594
 20
8.7660394649
 30
0.0
 11
25.3335332366
 21
8.7557787863
 31
0.0
  0
LINE
  5
5A6
330
1F
100
AcDbEntity
  8
TRMODEL1
  6
Continuous
 62
     2
100
AcDbLine
 10
25.3335332366
 20
8.7557787863
 30
0.0
 11
25.3848796897
 21
8.7554882391
 31
0.0
  0
LINE
  5
5A7
330
1F
100
AcDbEntity
  8
TRMODEL1
  6
Continuous
 62
     2
100
AcDbLine
 10
25.3848796897
 20
8.7554882391
 30
0.0
 11
25.4319419387
 21
8.7648817846
 31
0.0
  0
LINE
  5
5A8
330
1F
100
AcDbEntity
  8
TRMODEL1
  6
Continuous
 62
     2
100
AcDbLine
 10
25.4319419387
 20
8.7648817846
 30
0.0
 11
25.4693958568
 21
8.7826190633
 31
0.0
  0
LINE
  5
5A9
330
1F
100
AcDbEntity
  8
TRMODEL1
  6
Continuous
 62
     2
100
AcDbLine
 10
25.4693958568
 20
8.7826190633
 30
0.0
 11
25.4929979533
 21
8.8063477084
 31
0.0
  0
LINE
  5
5AA
330
1F
100
AcDbEntity
  8
TRMODEL1
  6
Continuous
 62
     2
100
AcDbLine
 10
25.4929979533
 20
8.8063477084
 30
0.0
 11
25.4994322205
 21
8.8306780931
 31
0.0
  0
LINE
  5
5AB
330
1F
100
AcDbEntity
  8
TRMODEL1
  6
Continuous
 62
     2
100
AcDbLine
 10
25.1941734688
 20
8.9056459818
 30
0.0
 11
25.2021170173
 21
8.8745142542
 31
0.0
  0
LINE
  5
5AC
330
1F
100
AcDbEntity
  8
TRMODEL1
  6
Continuous
 62
     2
100
AcDbLine
 10
25.2021170173
 20
8.8745142542
 30
0.0
 11
25.2266962236
 21
8.8456787434
 31
0.0
  0
LINE
  5
5AD
330
1F
100
AcDbEntity
  8
TRMODEL1
  6
Continuous
 62
     2
100
AcDbLine
 10
25.2266962236
 20
8.8456787434
 30
0.0
 11
25.2649013006
 21
8.8230483616
 31
0.0
  0
LINE
  5
5AE
330
1F
100
AcDbEntity
  8
TRMODEL1
  6
Continuous
 62
     2
100
AcDbLine
 10
25.2649013006
 20
8.8230483616
 30
0.0
 11
25.3124015253
 21
8.8088447694
 31
0.0
  0
LINE
  5
5AF
330
1F
100
AcDbEntity
  8
TRMODEL1
  6
Continuous
 62
     2
100
AcDbLine
 10
25.3124015253
 20
8.8088447694
 30
0.0
 11
25.3638258693
 21
8.8043977991
 31
0.0
  0
LINE
  5
5B0
330
1F
100
AcDbEntity
  8
TRMODEL1
  6
Continuous
 62
     2
100
AcDbLine
 10
25.3638258693
 20
8.8043977991
 30
0.0
 11
25.4133490505
 21
8.8098940838
 31
0.0
  0
LINE
  5
5B1
330
1F
100
AcDbEntity
  8
TRMODEL1
  6
Continuous
 62
     2
100
AcDbLine
 10
25.4133490505
 20
8.8098940838
 30
0.0
 11
25.4553665387
 21
8.8244006177
 31
0.0
  0
LINE
  5
5B2
330
1F
100
AcDbEntity
  8
TRMODEL1
  6
Continuous
 62
     2
100
AcDbLine
 10
25.4553665387
 20
8.8244006177
 30
0.0
 11
25.4851238044
 21
8.8459961225
 31
0.0
  0
LINE
  5
5B3
330
1F
100
AcDbEntity
  8
TRMODEL1
  6
Continuous
 62
     2
100
AcDbLine
 10
25.4851238044
 20
8.8459961225
 30
0.0
 11
25.4992493083
 21
8.8718917988
 31
0.0
  0
LINE
  5
5B4
330
1F
100
AcDbEntity
  8
TRMODEL1
  6
Continuous
 62
     2
100
AcDbLine
 10
25.4992493083
 20
8.8718917988
 30
0.0
 11
25.4982532605
 21
8.8805595532
 31
0.0
  0
LINE
  5
5B5
330
1F
100
AcDbEntity
  8
TRMODEL1
  6
Continuous
 62
     2
100
AcDbLine
 10
25.4916175572
 20
8.9063773686
 30
0.0
 11
25.5000046998
 21
8.8860736613
 31
0.0
  0
LINE
  5
5B6
330
1F
100
AcDbEntity
  8
TRMODEL1
  6
Continuous
 62
     2
100
AcDbLine
 10
25.5000046998
 20
8.8860736613
 30
0.0
 11
25.4935893223
 21
8.8592656908
 31
0.0
  0
LINE
  5
5B7
330
1F
100
AcDbEntity
  8
TRMODEL1
  6
Continuous
 62
     2
100
AcDbLine
 10
25.4935893223
 20
8.8592656908
 30
0.0
 11
25.4705848862
 21
8.8353446588
 31
0.0
  0
LINE
  5
5B8
330
1F
100
AcDbEntity
  8
TRMODEL1
  6
Continuous
 62
     2
100
AcDbLine
 10
25.4705848862
 20
8.8353446588
 30
0.0
 11
25.4335965626
 21
8.8173363904
 31
0.0
  0
LINE
  5
5B9
330
1F
100
AcDbEntity
  8
TRMODEL1
  6
Continuous
 62
     2
100
AcDbLine
 10
25.4335965626
 20
8.8173363904
 30
0.0
 11
25.3868113717
 21
8.8075896032
 31
0.0
  0
LINE
  5
5BA
330
1F
100
AcDbEntity
  8
TRMODEL1
  6
Continuous
 62
     2
100
AcDbLine
 10
25.3868113717
 20
8.8075896032
 30
0.0
 11
25.3355222519
 21
8.8074861004
 31
0.0
  0
LINE
  5
5BB
330
1F
100
AcDbEntity
  8
TRMODEL1
  6
Continuous
 62
     2
100
AcDbLine
 10
25.3355222519
 20
8.8074861004
 30
0.0
 11
25.285541418
 21
8.817383687
 31
0.0
  0
LINE
  5
5BC
330
1F
100
AcDbEntity
  8
TRMODEL1
  6
Continuous
 62
     2
100
AcDbLine
 10
25.285541418
 20
8.817383687
 30
0.0
 11
25.2425177081
 21
8.8364187833
 31
0.0
  0
LINE
  5
5BD
330
1F
100
AcDbEntity
  8
TRMODEL1
  6
Continuous
 62
     2
100
AcDbLine
 10
25.2425177081
 20
8.8364187833
 30
0.0
 11
25.2113299938
 21
8.8627869244
 31
0.0
  0
LINE
  5
5BE
330
1F
100
AcDbEntity
  8
TRMODEL1
  6
Continuous
 62
     2
100
AcDbLine
 10
25.2113299938
 20
8.8627869244
 30
0.0
 11
25.1955027896
 21
8.8937707569
 31
0.0
  0
LINE
  5
5BF
330
1F
100
AcDbEntity
  8
TRMODEL1
  6
Continuous
 62
     2
100
AcDbLine
 10
25.1955027896
 20
8.8937707569
 30
0.0
 11
25.1968303195
 21
8.926193298
 31
0.0
  0
LINE
  5
5C0
330
1F
100
AcDbEntity
  8
TRMODEL1
  6
Continuous
 62
     2
100
AcDbLine
 10
25.1968303195
 20
8.926193298
 30
0.0
 11
25.2001270776
 21
8.9316755393
 31
0.0
  0
LINE
  5
5C1
330
1F
100
AcDbEntity
  8
TRMODEL1
  6
Continuous
 62
     2
100
AcDbLine
 10
25.492770534
 20
8.8061190698
 30
0.0
 11
25.5001386444
 21
8.7813821341
 31
0.0
  0
LINE
  5
5C2
330
1F
100
AcDbEntity
  8
TRMODEL1
  6
Continuous
 62
     2
100
AcDbLine
 10
25.5001386444
 20
8.7813821341
 30
0.0
 11
25.4907550205
 21
8.7548175152
 31
0.0
  0
LINE
  5
5C3
330
1F
100
AcDbEntity
  8
TRMODEL1
  6
Continuous
 62
     2
100
AcDbLine
 10
25.4907550205
 20
8.7548175152
 30
0.0
 11
25.4651052802
 21
8.7317317998
 31
0.0
  0
LINE
  5
5C4
330
1F
100
AcDbEntity
  8
TRMODEL1
  6
Continuous
 62
     2
100
AcDbLine
 10
25.4651052802
 20
8.7317317998
 30
0.0
 11
25.4260885729
 21
8.7149933962
 31
0.0
  0
LINE
  5
5C5
330
1F
100
AcDbEntity
  8
TRMODEL1
  6
Continuous
 62
     2
100
AcDbLine
 10
25.4260885729
 20
8.7149933962
 30
0.0
 11
25.378127434
 21
8.7068426045
 31
0.0
  0
LINE
  5
5C6
330
1F
100
AcDbEntity
  8
TRMODEL1
  6
Continuous
 62
     2
100
AcDbLine
 10
25.378127434
 20
8.7068426045
 30
0.0
 11
25.3266451462
 21
8.7084775627
 31
0.0
  0
LINE
  5
5C7
330
1F
100
AcDbEntity
  8
TRMODEL1
  6
Continuous
 62
     2
100
AcDbLine
 10
25.3266451462
 20
8.7084775627
 30
0.0
 11
25.2774733956
 21
8.7200298289
 31
0.0
  0
LINE
  5
5C8
330
1F
100
AcDbEntity
  8
TRMODEL1
  6
Continuous
 62
     2
100
AcDbLine
 10
25.2774733956
 20
8.7200298289
 30
0.0
 11
25.2361771479
 21
8.7405028876
 31
0.0
  0
LINE
  5
5C9
330
1F
100
AcDbEntity
  8
TRMODEL1
  6
Continuous
 62
     2
100
AcDbLine
 10
25.2361771479
 20
8.7405028876
 30
0.0
 11
25.2074291751
 21
8.7678612663
 31
0.0
  0
LINE
  5
5CA
330
1F
100
AcDbEntity
  8
TRMODEL1
  6
Continuous
 62
     2
100
AcDbLine
 10
25.2074291751
 20
8.7678612663
 30
0.0
 11
25.1944867153
 21
8.7993453295
 31
0.0
  0
LINE
  5
5CB
330
1F
100
AcDbEntity
  8
TRMODEL1
  6
Continuous
 62
     2
100
AcDbLine
 10
25.1944867153
 20
8.7993453295
 30
0.0
 11
25.1988131102
 21
8.831659644
 31
0.0
  0
LINE
  5
5CC
330
1F
100
AcDbEntity
  8
TRMODEL1
  6
Continuous
 62
     2
100
AcDbLine
 10
25.1988131102
 20
8.831659644
 30
0.0
 11
25.2000010243
 21
8.833338533
 31
0.0
  0
LINE
  5
5CD
330
1F
100
AcDbEntity
  8
TRMODEL1
  6
Continuous
 62
     4
100
AcDbLine
 10
25.0912756064
 20
10.0669271327
 30
0.0
 11
25.1149996771
 21
10.0356811798
 31
0.0
  0
LINE
  5
5CE
330
1F
100
AcDbEntity
  8
TRMODEL1
  6
Continuous
 62
     4
100
AcDbLine
 10
25.1149996771
 20
10.0356811798
 30
0.0
 11
25.1575806471
 21
10.0036459834
 31
0.0
  0
LINE
  5
5CF
330
1F
100
AcDbEntity
  8
TRMODEL1
  6
Continuous
 62
     4
100
AcDbLine
 10
25.1575806471
 20
10.0036459834
 30
0.0
 11
25.2130732478
 21
9.9790645126
 31
0.0
  0
LINE
  5
5D0
330
1F
100
AcDbEntity
  8
TRMODEL1
  6
Continuous
 62
     4
100
AcDbLine
 10
25.2130732478
 20
9.9790645126
 30
0.0
 11
25.2776957499
 21
9.963611954
 31
0.0
  0
LINE
  5
5D1
330
1F
100
AcDbEntity
  8
TRMODEL1
  6
Continuous
 62
     4
100
AcDbLine
 10
25.2776957499
 20
9.963611954
 30
0.0
 11
25.3470442368
 21
9.9583413741
 31
0.0
  0
LINE
  5
5D2
330
1F
100
AcDbEntity
  8
TRMODEL1
  6
Continuous
 62
     4
100
AcDbLine
 10
25.3470442368
 20
9.9583413741
 30
0.0
 11
25.4163927237
 21
9.963611954
 31
0.0
  0
LINE
  5
5D3
330
1F
100
AcDbEntity
  8
TRMODEL1
  6
Continuous
 62
     4
100
AcDbLine
 10
25.4163927237
 20
9.963611954
 30
0.0
 11
25.4810152258
 21
9.9790645126
 31
0.0
  0
LINE
  5
5D4
330
1F
100
AcDbEntity
  8
TRMODEL1
  6
Continuous
 62
     4
100
AcDbLine
 10
25.4810152258
 20
9.9790645126
 30
0.0
 11
25.5365078264
 21
10.0036459834
 31
0.0
  0
LINE
  5
5D5
330
1F
100
AcDbEntity
  8
TRMODEL1
  6
Continuous
 62
     4
100
AcDbLine
 10
25.5365078264
 20
10.0036459834
 30
0.0
 11
25.5444346091
 21
10.0084220204
 31
0.0
  0
LINE
  5
5D6
330
1F
100
AcDbEntity
  8
TRMODEL1
  6
Continuous
 62
     4
100
AcDbLine
 10
25.1608373271
 20
10.3835424439
 30
0.0
 11
25.1189882791
 21
10.3520578988
 31
0.0
  0
LINE
  5
5D7
330
1F
100
AcDbEntity
  8
TRMODEL1
  6
Continuous
 62
     4
100
AcDbLine
 10
25.1189882791
 20
10.3520578988
 30
0.0
 11
25.0926808678
 21
10.3153933695
 31
0.0
  0
LINE
  5
5D8
330
1F
100
AcDbEntity
  8
TRMODEL1
  6
Continuous
 62
     4
100
AcDbLine
 10
25.0926808678
 20
10.3153933695
 30
0.0
 11
25.0837078997
 21
10.2760474831
 31
0.0
  0
LINE
  5
5D9
330
1F
100
AcDbEntity
  8
TRMODEL1
  6
Continuous
 62
     4
100
AcDbLine
 10
25.0837078997
 20
10.2760474831
 30
0.0
 11
25.0926808678
 21
10.2367015966
 31
0.0
  0
LINE
  5
5DA
330
1F
100
AcDbEntity
  8
TRMODEL1
  6
Continuous
 62
     4
100
AcDbLine
 10
25.0926808678
 20
10.2367015966
 30
0.0
 11
25.1189882791
 21
10.2000370673
 31
0.0
  0
LINE
  5
5DB
330
1F
100
AcDbEntity
  8
TRMODEL1
  6
Continuous
 62
     4
100
AcDbLine
 10
25.1189882791
 20
10.2000370673
 30
0.0
 11
25.1608373271
 21
10.1685525222
 31
0.0
  0
LINE
  5
5DC
330
1F
100
AcDbEntity
  8
TRMODEL1
  6
Continuous
 62
     4
100
AcDbLine
 10
25.1608373271
 20
10.1685525222
 30
0.0
 11
25.2153760682
 21
10.144393581
 31
0.0
  0
LINE
  5
5DD
330
1F
100
AcDbEntity
  8
TRMODEL1
  6
Continuous
 62
     4
100
AcDbLine
 10
25.2153760682
 20
10.144393581
 30
0.0
 11
25.2788877775
 21
10.1292066357
 31
0.0
  0
LINE
  5
5DE
330
1F
100
AcDbEntity
  8
TRMODEL1
  6
Continuous
 62
     4
100
AcDbLine
 10
25.2788877775
 20
10.1292066357
 30
0.0
 11
25.3470442368
 21
10.1240266515
 31
0.0
  0
LINE
  5
5DF
330
1F
100
AcDbEntity
  8
TRMODEL1
  6
Continuous
 62
     4
100
AcDbLine
 10
25.3470442368
 20
10.1240266515
 30
0.0
 11
25.4152006961
 21
10.1292066357
 31
0.0
  0
LINE
  5
5E0
330
1F
100
AcDbEntity
  8
TRMODEL1
  6
Continuous
 62
     4
100
AcDbLine
 10
25.4152006961
 20
10.1292066357
 30
0.0
 11
25.4787124054
 21
10.144393581
 31
0.0
  0
LINE
  5
5E1
330
1F
100
AcDbEntity
  8
TRMODEL1
  6
Continuous
 62
     4
100
AcDbLine
 10
25.4787124054
 20
10.144393581
 30
0.0
 11
25.5332511465
 21
10.1685525222
 31
0.0
  0
LINE
  5
5E2
330
1F
100
AcDbEntity
  8
TRMODEL1
  6
Continuous
 62
     4
100
AcDbLine
 10
25.5332511465
 20
10.1685525222
 30
0.0
 11
25.5751001945
 21
10.2000370673
 31
0.0
  0
LINE
  5
5E3
330
1F
100
AcDbEntity
  8
TRMODEL1
  6
Continuous
 62
     4
100
AcDbLine
 10
25.5751001945
 20
10.2000370673
 30
0.0
 11
25.6014076058
 21
10.2367015966
 31
0.0
  0
LINE
  5
5E4
330
1F
100
AcDbEntity
  8
TRMODEL1
  6
Continuous
 62
     4
100
AcDbLine
 10
25.6014076058
 20
10.2367015966
 30
0.0
 11
25.6103805739
 21
10.2760474831
 31
0.0
  0
LINE
  5
5E5
330
1F
100
AcDbEntity
  8
TRMODEL1
  6
Continuous
 62
     4
100
AcDbLine
 10
25.6103805739
 20
10.2760474831
 30
0.0
 11
25.6014076058
 21
10.3153933695
 31
0.0
  0
LINE
  5
5E6
330
1F
100
AcDbEntity
  8
TRMODEL1
  6
Continuous
 62
     4
100
AcDbLine
 10
25.6014076058
 20
10.3153933695
 30
0.0
 11
25.5751001945
 21
10.3520578988
 31
0.0
  0
LINE
  5
5E7
330
1F
100
AcDbEntity
  8
TRMODEL1
  6
Continuous
 62
     4
100
AcDbLine
 10
25.5751001945
 20
10.3520578988
 30
0.0
 11
25.5332511465
 21
10.3835424439
 31
0.0
  0
LINE
  5
5E8
330
1F
100
AcDbEntity
  8
TRMODEL1
  6
Continuous
 62
     4
100
AcDbLine
 10
25.5332511465
 20
10.3835424439
 30
0.0
 11
25.4787124054
 21
10.4077013851
 31
0.0
  0
LINE
  5
5E9
330
1F
100
AcDbEntity
  8
TRMODEL1
  6
Continuous
 62
     4
100
AcDbLine
 10
25.4787124054
 20
10.4077013851
 30
0.0
 11
25.4152006961
 21
10.4228883304
 31
0.0
  0
LINE
  5
5EA
330
1F
100
AcDbEntity
  8
TRMODEL1
  6
Continuous
 62
     4
100
AcDbLine
 10
25.4152006961
 20
10.4228883304
 30
0.0
 11
25.3470442368
 21
10.4280683146
 31
0.0
  0
LINE
  5
5EB
330
1F
100
AcDbEntity
  8
TRMODEL1
  6
Continuous
 62
     4
100
AcDbLine
 10
25.3470442368
 20
10.4280683146
 30
0.0
 11
25.2788877775
 21
10.4228883304
 31
0.0
  0
LINE
  5
5EC
330
1F
100
AcDbEntity
  8
TRMODEL1
  6
Continuous
 62
     4
100
AcDbLine
 10
25.2788877775
 20
10.4228883304
 30
0.0
 11
25.2153760682
 21
10.4077013851
 31
0.0
  0
LINE
  5
5ED
330
1F
100
AcDbEntity
  8
TRMODEL1
  6
Continuous
 62
     4
100
AcDbLine
 10
25.2153760682
 20
10.4077013851
 30
0.0
 11
25.1608373271
 21
10.3835424439
 31
0.0
  0
LINE
  5
5EE
330
1F
100
AcDbEntity
  8
TRMODEL1
  6
Continuous
 62
     4
100
AcDbLine
 10
25.427120972
 20
10.4310337691
 30
0.0
 11
25.4547995766
 21
10.4217550651
 31
0.0
  0
LINE
  5
5EF
330
1F
100
AcDbEntity
  8
TRMODEL1
  6
Continuous
 62
     4
100
AcDbLine
 10
25.4547995766
 20
10.4217550651
 30
0.0
 11
25.5274407224
 21
10.3887864115
 31
0.0
  0
LINE
  5
5F0
330
1F
100
AcDbEntity
  8
TRMODEL1
  6
Continuous
 62
     4
100
AcDbLine
 10
25.5274407224
 20
10.3887864115
 30
0.0
 11
25.6024570909
 21
10.339593224
 31
0.0
  0
LINE
  5
5F1
330
1F
100
AcDbEntity
  8
TRMODEL1
  6
Continuous
 62
     4
100
AcDbLine
 10
25.6024570909
 20
10.339593224
 30
0.0
 11
25.6458946809
 21
10.3047383952
 31
0.0
  0
LINE
  5
5F2
330
1F
100
AcDbEntity
  8
TRMODEL1
  6
Continuous
 62
     4
100
AcDbLine
 10
25.5658179457
 20
10.1322157061
 30
0.0
 11
25.4586473288
 21
10.130070164
 31
0.0
  0
LINE
  5
5F3
330
1F
100
AcDbEntity
  8
TRMODEL1
  6
Continuous
 62
     4
100
AcDbLine
 10
25.4586473288
 20
10.130070164
 30
0.0
 11
25.3468712935
 21
10.1105143843
 31
0.0
  0
LINE
  5
5F4
330
1F
100
AcDbEntity
  8
TRMODEL1
  6
Continuous
 62
     4
100
AcDbLine
 10
25.3468712935
 20
10.1105143843
 30
0.0
 11
25.2669675016
 21
10.0859883909
 31
0.0
  0
LINE
  5
5F5
330
1F
100
AcDbEntity
  8
TRMODEL1
  6
Continuous
 62
     4
100
AcDbLine
 10
25.4163927237
 20
9.9886160181
 30
0.0
 11
25.5658179457
 21
10.0117296757
 31
0.0
  0
LINE
  5
5F6
330
1F
100
AcDbEntity
  8
TRMODEL1
  6
Continuous
 62
     4
100
AcDbLine
 10
25.2669675016
 20
10.0859883909
 30
0.0
 11
25.2235299116
 21
10.1208432196
 31
0.0
  0
LINE
  5
5F7
330
1F
100
AcDbEntity
  8
TRMODEL1
  6
Continuous
 62
     4
100
AcDbLine
 10
25.2235299116
 20
10.1208432196
 30
0.0
 11
25.1506935893
 21
10.168827274
 31
0.0
  0
LINE
  5
5F8
330
1F
100
AcDbEntity
  8
TRMODEL1
  6
Continuous
 62
     4
100
AcDbLine
 10
25.1506935893
 20
10.168827274
 30
0.0
 11
25.0758723973
 21
10.2030050607
 31
0.0
  0
LINE
  5
5F9
330
1F
100
AcDbEntity
  8
TRMODEL1
  6
Continuous
 62
     4
100
AcDbLine
 10
25.0758723973
 20
10.2030050607
 30
0.0
 11
25.0481937927
 21
10.2122837648
 31
0.0
  0
LINE
  5
5FA
330
1F
100
AcDbEntity
  8
TRMODEL1
  6
Continuous
 62
     4
100
AcDbLine
 10
25.0481937927
 20
10.0917977344
 30
0.0
 11
25.0481937927
 21
10.2122837648
 31
0.0
  0
LINE
  5
5FB
330
1F
100
AcDbEntity
  8
TRMODEL1
  6
Continuous
 62
     4
100
AcDbLine
 10
25.1575806471
 20
10.0286500474
 30
0.0
 11
25.2669675016
 21
9.9655023605
 31
0.0
  0
LINE
  5
5FC
330
1F
100
AcDbEntity
  8
TRMODEL1
  6
Continuous
 62
     4
100
AcDbLine
 10
25.0481937927
 20
10.0917977344
 30
0.0
 11
25.1575806471
 21
10.0286500474
 31
0.0
  0
LINE
  5
5FD
330
1F
100
AcDbEntity
  8
TRMODEL1
  6
Continuous
 62
     4
100
AcDbLine
 10
25.2669675016
 20
9.9655023605
 30
0.0
 11
25.2669675016
 21
10.0859883909
 31
0.0
  0
LINE
  5
5FE
330
1F
100
AcDbEntity
  8
TRMODEL1
  6
Continuous
 62
     4
100
AcDbLine
 10
25.2669675016
 20
9.9655023605
 30
0.0
 11
25.4163927237
 21
9.9886160181
 31
0.0
  0
LINE
  5
5FF
330
1F
100
AcDbEntity
  8
TRMODEL1
  6
Continuous
 62
     4
100
AcDbLine
 10
25.1282705278
 20
10.3848064539
 30
0.0
 11
25.2354411448
 21
10.4158160232
 31
0.0
  0
LINE
  5
600
330
1F
100
AcDbEntity
  8
TRMODEL1
  6
Continuous
 62
     4
100
AcDbLine
 10
25.2354411448
 20
10.4158160232
 30
0.0
 11
25.3472171801
 21
10.430840122
 31
0.0
  0
LINE
  5
601
330
1F
100
AcDbEntity
  8
TRMODEL1
  6
Continuous
 62
     4
100
AcDbLine
 10
25.3472171801
 20
10.430840122
 30
0.0
 11
25.427120972
 21
10.4310337691
 31
0.0
  0
LINE
  5
602
330
1F
100
AcDbEntity
  8
TRMODEL1
  6
Continuous
 62
     4
100
AcDbLine
 10
25.0481937927
 20
10.2122837648
 30
0.0
 11
25.0769100729
 21
10.2885840586
 31
0.0
  0
LINE
  5
603
330
1F
100
AcDbEntity
  8
TRMODEL1
  6
Continuous
 62
     4
100
AcDbLine
 10
25.0769100729
 20
10.2885840586
 30
0.0
 11
25.1068603713
 21
10.3508451499
 31
0.0
  0
LINE
  5
604
330
1F
100
AcDbEntity
  8
TRMODEL1
  6
Continuous
 62
     4
100
AcDbLine
 10
25.1068603713
 20
10.3508451499
 30
0.0
 11
25.1282705278
 21
10.3848064539
 31
0.0
  0
LINE
  5
605
330
1F
100
AcDbEntity
  8
TRMODEL1
  6
Continuous
 62
     4
100
AcDbLine
 10
25.6458946809
 20
10.3047383952
 30
0.0
 11
25.6171784007
 21
10.2573021286
 31
0.0
  0
LINE
  5
606
330
1F
100
AcDbEntity
  8
TRMODEL1
  6
Continuous
 62
     4
100
AcDbLine
 10
25.6171784007
 20
10.2573021286
 30
0.0
 11
25.5872281022
 21
10.1905093564
 31
0.0
  0
LINE
  5
607
330
1F
100
AcDbEntity
  8
TRMODEL1
  6
Continuous
 62
     4
100
AcDbLine
 10
25.5872281022
 20
10.1905093564
 30
0.0
 11
25.5658179457
 21
10.1322157061
 31
0.0
  0
LINE
  5
608
330
1F
100
AcDbEntity
  8
TRMODEL1
  6
Continuous
 62
     4
100
AcDbLine
 10
25.6058563133
 20
10.0979910203
 30
0.0
 11
25.6458946809
 21
10.1842523648
 31
0.0
  0
LINE
  5
609
330
1F
100
AcDbEntity
  8
TRMODEL1
  6
Continuous
 62
     2
100
AcDbLine
 10
26.0730453078
 20
10.0889348678
 30
0.0
 11
25.7214828078
 21
10.1475286178
 31
0.0
  0
LINE
  5
60A
330
1F
100
AcDbEntity
  8
TRMODEL1
  6
Continuous
 62
     2
100
AcDbLine
 10
25.7214828078
 20
10.1475286178
 30
0.0
 11
26.0730453078
 21
10.2061223678
 31
0.0
  0
LINE
  5
60B
330
1F
100
AcDbEntity
  8
TRMODEL1
  6
Continuous
 62
     2
100
AcDbLine
 10
26.0730453078
 20
10.2061223678
 30
0.0
 11
26.0730453078
 21
10.0889348678
 31
0.0
  0
LINE
  5
60C
330
1F
100
AcDbEntity
  8
TRMODEL1
  6
Continuous
 62
     4
100
AcDbLine
 10
25.5751786278
 20
10.0318969569
 30
0.0
 11
25.5790887965
 21
10.0356811798
 31
0.0
  0
LINE
  5
60D
330
1F
100
AcDbEntity
  8
TRMODEL1
  6
Continuous
 62
     4
100
AcDbLine
 10
25.5790887965
 20
10.0356811798
 30
0.0
 11
25.6058563133
 21
10.0729869562
 31
0.0
  0
LINE
  5
60E
330
1F
100
AcDbEntity
  8
TRMODEL1
  6
Continuous
 62
     4
100
AcDbLine
 10
25.6058563133
 20
10.0729869562
 30
0.0
 11
25.6149862148
 21
10.1130209856
 31
0.0
  0
LINE
  5
60F
330
1F
100
AcDbEntity
  8
TRMODEL1
  6
Continuous
 62
     4
100
AcDbLine
 10
25.5658179457
 20
10.0117296757
 30
0.0
 11
25.6058563133
 21
10.0979910203
 31
0.0
  0
LINE
  5
610
330
1F
100
AcDbEntity
  8
TRMODEL1
  6
Continuous
 62
     4
100
AcDbLine
 10
25.5658179457
 20
10.0117296757
 30
0.0
 11
25.5658179457
 21
10.1322157061
 31
0.0
  0
LINE
  5
611
330
1F
100
AcDbEntity
  8
TRMODEL1
  6
Continuous
 62
     4
100
AcDbLine
 10
25.6458946809
 20
10.1842523648
 30
0.0
 11
25.6458946809
 21
10.3047383952
 31
0.0
  0
ARC
  5
612
330
1F
100
AcDbEntity
  8
TRMODEL1
  6
Continuous
 62
     4
100
AcDbCircle
 10
15.4314997452
 20
7.8642768526
 30
0.0
 40
0.3750000075001445
100
AcDbArc
 50
150.0000000001
 51
210.0
  0
ARC
  5
613
330
1F
100
AcDbEntity
  8
TRMODEL1
  6
Continuous
 62
     4
100
AcDbCircle
 10
16.7439997715
 20
7.5517768463
 30
0.0
 40
0.1250000024999878
100
AcDbArc
 50
360.0
 51
90.0
  0
ARC
  5
614
330
1F
100
AcDbEntity
  8
TRMODEL1
  6
Continuous
 62
     4
100
AcDbCircle
 10
16.7439997715
 20
0.5517767063
 30
0.0
 40
0.125000002500002
100
AcDbArc
 50
270.0
 51
359.9999999999
  0
ARC
  5
615
330
1F
100
AcDbEntity
  8
TRMODEL1
  6
Continuous
 62
     4
100
AcDbCircle
 10
15.4314997452
 20
0.2392767001
 30
0.0
 40
0.375000007500116
100
AcDbArc
 50
150.0
 51
209.9999999999
  0
ARC
  5
616
330
1F
100
AcDbEntity
  8
TRMODEL1
  6
Continuous
 62
     4
100
AcDbCircle
 10
16.9939997765
 20
0.3017767013
 30
0.0
 40
0.2500000049999609
100
AcDbArc
 50
270.0
 51
0.0
  0
ARC
  5
617
330
1F
100
AcDbEntity
  8
TRMODEL1
  6
Continuous
 62
     4
100
AcDbCircle
 10
16.9939997765
 20
7.8017768513
 30
0.0
 40
0.2500000049999755
100
AcDbArc
 50
360.0
 51
90.0
  0
ARC
  5
618
330
1F
100
AcDbEntity
  8
TRMODEL1
  6
Continuous
 62
     4
100
AcDbCircle
 10
18.9152292498
 20
9.6928347888
 30
0.0
 40
0.1884737137655833
100
AcDbArc
 50
228.4538978151
 51
311.5461021849
  0
ARC
  5
619
330
1F
100
AcDbEntity
  8
TRMODEL1
  6
Continuous
 62
     2
100
AcDbCircle
 10
20.2160174084
 20
9.2586684957
 30
0.0
 40
0.7887154294893352
100
AcDbArc
 50
328.4893909475
 51
21.8160258471
  0
ARC
  5
61A
330
1F
100
AcDbEntity
  8
TRMODEL1
  6
Continuous
 62
     2
100
AcDbCircle
 10
21.4038195884
 20
8.5304798206
 30
0.0
 40
0.6045299779512123
100
AcDbArc
 50
148.4893909475
 51
232.3596549976
  0
ELLIPSE
  5
61B
330
1F
100
AcDbEntity
  8
TRMODEL1
  6
Continuous
 62
     4
100
AcDbEllipse
 10
25.3537128139
 20
6.8040893052
 30
0.0
 11
0.1965681194658266
 21
3.819167204710538E-14
 31
0.0
210
0.0
220
0.0
230
1.0
 40
0.5593241965
 41
4.712388980384588
 42
5.474732226935632
  0
MTEXT
  5
61D
330
1F
100
AcDbEntity
  8
TRMODEL1
 62
     4
100
AcDbMText
 10
0.5278182465
 20
4.3566998077
 30
0.0
 40
0.5625
 41
0.0
 71
     1
 72
     1
  1
CLIP ASSY.
  7
SLDTEXTSTYLE0
 73
     1
 44
1.0
  0
MTEXT
  5
61E
330
1F
100
AcDbEntity
  8
TRMODEL1
 62
     4
100
AcDbMText
 10
0.4957077697
 20
5.3043996062
 30
0.0
 40
0.5625
 41
0.0
 71
     1
 72
     1
  1
HOLD DOWN
  7
SLDTEXTSTYLE0
 73
     1
 44
1.0
  0
MTEXT
  5
61F
330
1F
100
AcDbEntity
  8
TRMODEL1
 62
     4
100
AcDbMText
 10
0.5712618328
 20
6.253610486
 30
0.0
 40
0.5625
 41
0.0
 71
     1
 72
     1
  1
TO INSTALL THE
  7
SLDTEXTSTYLE0
 73
     1
 44
1.0
  0
MTEXT
  5
620
330
1F
100
AcDbEntity
  8
TRMODEL1
 62
     4
100
AcDbMText
 10
0.5206406105
 20
7.2028213658
 30
0.0
 40
0.5625
 41
0.0
 71
     1
 72
     1
  1
SUPPORT BEAM
  7
SLDTEXTSTYLE0
 73
     1
 44
1.0
  0
MTEXT
  5
621
330
1F
100
AcDbEntity
  8
TRMODEL1
 62
     4
100
AcDbMText
 10
0.4957077697
 20
8.1520322456
 30
0.0
 40
0.5625
 41
0.0
 71
     1
 72
     1
  1
HOLE IN THE
  7
SLDTEXTSTYLE0
 73
     1
 44
1.0
  0
MTEXT
  5
622
330
1F
100
AcDbEntity
  8
TRMODEL1
 62
     4
100
AcDbMText
 10
0.5614398046
 20
9.1012431254
 30
0.0
 40
0.5625
 41
0.0
 71
     1
 72
     1
  1
AND DRILL 5/16"
  7
SLDTEXTSTYLE0
 73
     1
 44
1.0
  0
MTEXT
  5
623
330
1F
100
AcDbEntity
  8
TRMODEL1
 62
     4
100
AcDbMText
 10
0.4957077697
 20
10.0848311039
 30
0.0
 40
0.5625
 41
0.0
 71
     1
 72
     1
  1
FIELD LOCATE
  7
SLDTEXTSTYLE0
 73
     1
 44
1.0
  0
MTEXT
  5
624
330
1F
100
AcDbEntity
  8
TRMODEL1
 62
     4
100
AcDbMText
 10
7.3121953452
 20
9.1012431254
 30
0.0
 40
0.5625
 41
0.0
 71
     1
 72
     1
  1
%%c
  7
SLDTEXTSTYLE0
 73
     1
 44
1.0
  0
MTEXT
  5
625
330
1F
100
AcDbEntity
  8
TRMODEL1
 62
     4
100
AcDbMText
 10
28.177638454
 20
5.695410383
 30
0.0
 40
0.5625
 41
0.0
 71
     1
 72
     1
  1
1/4" FLAT WASHER
  7
SLDTEXTSTYLE0
 73
     1
 44
1.0
  0
MTEXT
  5
626
330
1F
100
AcDbEntity
  8
TRMODEL1
 62
     4
100
AcDbMText
 10
28.177638454
 20
4.1902828968
 30
0.0
 40
0.5625
 41
0.0
 71
     1
 72
     1
  1
1/4" HEX NUT
  7
SLDTEXTSTYLE0
 73
     1
 44
1.0
  0
MTEXT
  5
627
330
1F
100
AcDbEntity
  8
TRMODEL1
 62
     4
100
AcDbMText
 10
28.177638454
 20
10.4589691559
 30
0.0
 40
0.5625
 41
0.0
 71
     1
 72
     1
  1
1/4"
  7
SLDTEXTSTYLE0
 73
     1
 44
1.0
  0
MTEXT
  5
628
330
1F
100
AcDbEntity
  8
TRMODEL1
 62
     4
100
AcDbMText
 10
28.2071045386
 20
9.5097582761
 30
0.0
 40
0.5625
 41
0.0
 71
     1
 72
     1
  1
HEX HD. BOLT
  7
SLDTEXTSTYLE0
 73
     1
 44
1.0
  0
MTEXT
  5
629
330
1F
100
AcDbEntity
  8
TRMODEL1
 62
     4
100
AcDbMText
 10
28.2071045386
 20
7.021844161
 30
0.0
 40
0.5625
 41
0.0
 71
     1
 72
     1
  1
M-2 SADDLE CLIP
  7
SLDTEXTSTYLE0
 73
     1
 44
1.0
  0
MTEXT
  5
62A
330
1F
100
AcDbEntity
  8
TRMODEL1
 62
     4
100
AcDbMText
 10
30.476748595
 20
10.4589691559
 30
0.0
 40
0.5625
 41
0.0
 71
     1
 72
     1
  1
x2 1/4" Lg.
  7
SLDTEXTSTYLE0
 73
     1
 44
1.0
  0
MTEXT
  5
62B
330
1F
100
AcDbEntity
  8
TRMODEL1
 62
     4
100
AcDbMText
 10
29.8677828462
 20
10.4589691559
 30
0.0
 40
0.5625
 41
0.0
 71
     1
 72
     1
  1
%%c
  7
SLDTEXTSTYLE0
 73
     1
 44
1.0
  0
ENDSEC
  0
SECTION
  2
OBJECTS
  0
DICTIONARY
  5
C
330
0
100
AcDbDictionary
281
     1
  3
ACAD_GROUP
350
D
  3
ACAD_LAYOUT
350
1A
  3
ACAD_MLINESTYLE
350
17
  3
ACAD_PLOTSETTINGS
350
19
  3
ACAD_PLOTSTYLENAME
350
E
  3
ACAD_TABLESTYLE
350
62C
  3
ACAD_VISUALSTYLE
350
2A
  0
DICTIONARY
  5
D
102
{ACAD_REACTORS
330
C
102
}
330
C
100
AcDbDictionary
281
     1
  0
DICTIONARY
  5
1A
102
{ACAD_REACTORS
330
C
102
}
330
C
100
AcDbDictionary
281
     1
  3
Layout1
350
1E
  3
Layout2
350
26
  3
Model
350
22
  0
DICTIONARY
  5
17
102
{ACAD_REACTORS
330
C
102
}
330
C
100
AcDbDictionary
281
     1
  3
Standard
350
18
  0
DICTIONARY
  5
19
102
{ACAD_REACTORS
330
C
102
}
330
C
100
AcDbDictionary
281
     1
  0
ACDBDICTIONARYWDFLT
  5
E
102
{ACAD_REACTORS
330
C
102
}
330
C
100
AcDbDictionary
281
     1
  3
Normal
350
F
100
AcDbDictionaryWithDefault
340
F
  0
DICTIONARY
  5
62C
102
{ACAD_REACTORS
330
C
102
}
330
C
100
AcDbDictionary
281
     1
  0
DICTIONARY
  5
2A
102
{ACAD_REACTORS
330
C
102
}
330
C
100
AcDbDictionary
281
     1
  3
2dWireframe
350
2F
  3
3D Hidden
350
31
  3
3dWireframe
350
30
  3
Basic
350
32
  3
Brighten
350
36
  3
ColorChange
350
3A
  3
Conceptual
350
34
  3
Dim
350
35
  3
Facepattern
350
39
  3
Flat
350
2B
  3
FlatWithEdges
350
2C
  3
Gouraud
350
2D
  3
GouraudWithEdges
350
2E
  3
Linepattern
350
38
  3
Realistic
350
33
  3
Thicken
350
37
  0
LAYOUT
  5
1E
102
{ACAD_REACTORS
330
1A
102
}
330
1A
100
AcDbPlotSettings
  1

  2
none_device
  4

  6

 40
0.0
 41
0.0
 42
0.0
 43
0.0
 44
0.0
 45
0.0
 46
0.0
 47
0.0
 48
0.0
 49
0.0
140
0.0
141
0.0
142
1.0
143
1.0
 70
   688
 72
     0
 73
     0
 74
     5
  7

 75
    16
147
1.0
148
0.0
149
0.0
100
AcDbLayout
  1
Layout1
 70
     1
 71
     1
 10
0.0
 20
0.0
 11
12.0
 21
9.0
 12
0.0
 22
0.0
 32
0.0
 14
1.0000000000E+20
 24
1.0000000000E+20
 34
1.0000000000E+20
 15
-1.0000000000E+20
 25
-1.0000000000E+20
 35
-1.0000000000E+20
146
0.0
 13
0.0
 23
0.0
 33
0.0
 16
1.0
 26
0.0
 36
0.0
 17
0.0
 27
1.0
 37
0.0
 76
     0
330
1B
  0
LAYOUT
  5
26
102
{ACAD_REACTORS
330
1A
102
}
330
1A
100
AcDbPlotSettings
  1

  2
none_device
  4

  6

 40
0.0
 41
0.0
 42
0.0
 43
0.0
 44
0.0
 45
0.0
 46
0.0
 47
0.0
 48
0.0
 49
0.0
140
0.0
141
0.0
142
1.0
143
1.0
 70
   688
 72
     0
 73
     0
 74
     5
  7

 75
    16
147
1.0
148
0.0
149
0.0
100
AcDbLayout
  1
Layout2
 70
     1
 71
     2
 10
0.0
 20
0.0
 11
0.0
 21
0.0
 12
0.0
 22
0.0
 32
0.0
 14
0.0
 24
0.0
 34
0.0
 15
0.0
 25
0.0
 35
0.0
146
0.0
 13
0.0
 23
0.0
 33
0.0
 16
1.0
 26
0.0
 36
0.0
 17
0.0
 27
1.0
 37
0.0
 76
     0
330
23
  0
LAYOUT
  5
22
102
{ACAD_REACTORS
330
1A
102
}
330
1A
100
AcDbPlotSettings
  1

  2
none_device
  4

  6

 40
0.0
 41
0.0
 42
0.0
 43
0.0
 44
0.0
 45
0.0
 46
0.0
 47
0.0
 48
0.0
 49
0.0
140
0.0
141
0.0
142
1.0
143
1.0
 70
  1712
 72
     0
 73
     0
 74
     0
  7

 75
     0
147
1.0
148
0.0
149
0.0
100
AcDbLayout
  1
Model
 70
     1
 71
     0
 10
0.0
 20
0.0
 11
22.0
 21
17.0
 12
0.0
 22
0.0
 32
0.0
 14
0.0
 24
0.0
 34
0.0
 15
22.0
 25
17.0
 35
0.0
146
0.0
 13
0.0
 23
0.0
 33
0.0
 16
1.0
 26
0.0
 36
0.0
 17
0.0
 27
1.0
 37
0.0
 76
     0
330
1F
331
29
  0
MLINESTYLE
  5
18
102
{ACAD_REACTORS
330
17
102
}
330
17
100
AcDbMlineStyle
  2
Standard
 70
     0
  3

 62
   256
 51
90.0
 52
90.0
 71
     2
 49
0.5
 62
   256
  6
BYLAYER
 49
-0.5
 62
   256
  6
BYLAYER
  0
ACDBPLACEHOLDER
  5
F
102
{ACAD_REACTORS
330
E
102
}
330
E
  0
VISUALSTYLE
  5
2F
102
{ACAD_REACTORS
330
2A
102
}
330
2A
100
AcDbVisualStyle
  2
2dWireframe
 70
     4
 71
     0
 72
     2
 73
     0
 90
        0
 40
-0.6
 41
-30.0
 62
     5
 63
     7
 74
     1
 91
        4
 64
     7
 65
   257
 75
     1
175
     1
 42
1.0
 92
        0
 66
   257
 43
1.0
 76
     1
 77
     6
 78
     2
 67
     7
 79
     5
170
     0
171
     0
290
     0
174
     0
 93
        1
 44
0.0
173
     0
291
     0
 45
0.0
1001
ACAD
1000
AcDbSavedByObjectVersion
1070
     0
  0
VISUALSTYLE
  5
31
102
{ACAD_REACTORS
330
2A
102
}
330
2A
100
AcDbVisualStyle
  2
3D Hidden
 70
     6
 71
     1
 72
     2
 73
     2
 90
        0
 40
-0.6
 41
-30.0
 62
     5
 63
     7
 74
     2
 91
        2
 64
     7
 65
   257
 75
     2
175
     1
 42
40.0
 92
        0
 66
   257
 43
1.0
 76
     1
 77
     6
 78
     2
 67
     7
 79
     3
170
     0
171
     0
290
     0
174
     0
 93
        1
 44
0.0
173
     0
291
     0
 45
0.0
1001
ACAD
1000
AcDbSavedByObjectVersion
1070
     0
  0
VISUALSTYLE
  5
30
102
{ACAD_REACTORS
330
2A
102
}
330
2A
100
AcDbVisualStyle
  2
3dWireframe
 70
     5
 71
     0
 72
     2
 73
     0
 90
        0
 40
-0.6
 41
-30.0
 62
     5
 63
     7
 74
     1
 91
        4
 64
     7
 65
   257
 75
     1
175
     1
 42
1.0
 92
        0
 66
   257
 43
1.0
 76
     1
 77
     6
 78
     2
 67
     7
 79
     5
170
     0
171
     0
290
     0
174
     0
 93
        1
 44
0.0
173
     0
291
     0
 45
0.0
1001
ACAD
1000
AcDbSavedByObjectVersion
1070
     0
  0
VISUALSTYLE
  5
32
102
{ACAD_REACTORS
330
2A
102
}
330
2A
100
AcDbVisualStyle
  2
Basic
 70
     7
 71
     1
 72
     0
 73
     1
 90
        0
 40
-0.6
 41
-30.0
 62
     5
 63
     7
 74
     0
 91
        4
 64
     7
 65
   257
 75
     1
175
     1
 42
1.0
 92
        8
 66
     7
 43
1.0
 76
     1
 77
     6
 78
     2
 67
     7
 79
     5
170
     0
171
     0
290
     0
174
     0
 93
        1
 44
0.0
173
     0
291
     1
 45
0.0
1001
ACAD
1000
AcDbSavedByObjectVersion
1070
     0
  0
VISUALSTYLE
  5
36
102
{ACAD_REACTORS
330
2A
102
}
330
2A
100
AcDbVisualStyle
  2
Brighten
 70
    12
 71
     2
 72
     2
 73
     0
 90
        0
 40
-0.6
 41
-30.0
 62
     5
 63
     7
 74
     1
 91
        4
 64
     7
 65
   257
 75
     1
175
     1
 42
1.0
 92
        8
 66
     7
 43
1.0
 76
     1
 77
     6
 78
     2
 67
     7
 79
     5
170
     0
171
     0
290
     0
174
     0
 93
        1
 44
50.0
173
     0
291
     1
 45
0.0
1001
ACAD
1000
AcDbSavedByObjectVersion
1070
     0
  0
VISUALSTYLE
  5
3A
102
{ACAD_REACTORS
330
2A
102
}
330
2A
100
AcDbVisualStyle
  2
ColorChange
 70
    16
 71
     2
 72
     2
 73
     3
 90
        0
 40
-0.6
 41
-30.0
 62
     5
 63
     8
 74
     1
 91
        4
 64
     7
 65
   257
 75
     1
175
     1
 42
1.0
 92
        8
 66
     8
 43
1.0
 76
     1
 77
     6
 78
     2
 67
     7
 79
     5
170
     0
171
     0
290
     0
174
     0
 93
        1
 44
0.0
173
     0
291
     1
 45
0.0
1001
ACAD
1000
AcDbSavedByObjectVersion
1070
     0
  0
VISUALSTYLE
  5
34
102
{ACAD_REACTORS
330
2A
102
}
330
2A
100
AcDbVisualStyle
  2
Conceptual
 70
     9
 71
     3
 72
     2
 73
     0
 90
        0
 40
-0.6
 41
-30.0
 62
     5
 63
     7
 74
     2
 91
        2
 64
     7
 65
   257
 75
     1
175
     1
 42
40.0
 92
        8
 66
     7
 43
1.0
 76
     1
 77
     6
 78
     2
 67
     7
 79
     3
170
     0
171
     0
290
     0
174
     0
 93
        1
 44
0.0
173
     0
291
     0
 45
0.0
1001
ACAD
1000
AcDbSavedByObjectVersion
1070
     0
  0
VISUALSTYLE
  5
35
102
{ACAD_REACTORS
330
2A
102
}
330
2A
100
AcDbVisualStyle
  2
Dim
 70
    11
 71
     2
 72
     2
 73
     0
 90
        0
 40
-0.6
 41
-30.0
 62
     5
 63
     7
 74
     1
 91
        4
 64
     7
 65
   257
 75
     1
175
     1
 42
1.0
 92
        8
 66
     7
 43
1.0
 76
     1
 77
     6
 78
     2
 67
     7
 79
     5
170
     0
171
     0
290
     0
174
     0
 93
        1
 44
-50.0
173
     0
291
     1
 45
0.0
1001
ACAD
1000
AcDbSavedByObjectVersion
1070
     0
  0
VISUALSTYLE
  5
39
102
{ACAD_REACTORS
330
2A
102
}
330
2A
100
AcDbVisualStyle
  2
Facepattern
 70
    15
 71
     2
 72
     2
 73
     0
 90
        0
 40
-0.6
 41
-30.0
 62
     5
 63
     7
 74
     1
 91
        4
 64
     7
 65
   257
 75
     1
175
     1
 42
1.0
 92
        8
 66
     7
 43
1.0
 76
     1
 77
     6
 78
     2
 67
     7
 79
     5
170
     0
171
     0
290
     0
174
     0
 93
        1
 44
0.0
173
     0
291
     1
 45
0.0
1001
ACAD
1000
AcDbSavedByObjectVersion
1070
     0
  0
VISUALSTYLE
  5
2B
102
{ACAD_REACTORS
330
2A
102
}
330
2A
100
AcDbVisualStyle
  2
Flat
 70
     0
 71
     2
 72
     1
 73
     1
 90
        2
 40
-0.6
 41
30.0
 62
     5
 63
     7
 74
     0
 91
        4
 64
     7
 65
   257
 75
     1
175
     1
 42
1.0
 92
        8
 66
     7
 43
1.0
 76
     1
 77
     6
 78
     2
 67
     7
 79
     5
170
     0
171
     0
290
     0
174
     0
 93
       13
 44
0.0
173
     0
291
     1
 45
0.0
1001
ACAD
1000
AcDbSavedByObjectVersion
1070
     0
  0
VISUALSTYLE
  5
2C
102
{ACAD_REACTORS
330
2A
102
}
330
2A
100
AcDbVisualStyle
  2
FlatWithEdges
 70
     1
 71
     2
 72
     1
 73
     1
 90
        2
 40
-0.6
 41
30.0
 62
     5
 63
     7
 74
     1
 91
        4
 64
     7
 65
   257
 75
     1
175
     1
 42
1.0
 92
        0
 66
   257
 43
1.0
 76
     1
 77
     6
 78
     2
 67
     7
 79
     5
170
     0
171
     0
290
     0
174
     0
 93
       13
 44
0.0
173
     0
291
     1
 45
0.0
1001
ACAD
1000
AcDbSavedByObjectVersion
1070
     0
  0
VISUALSTYLE
  5
2D
102
{ACAD_REACTORS
330
2A
102
}
330
2A
100
AcDbVisualStyle
  2
Gouraud
 70
     2
 71
     2
 72
     2
 73
     1
 90
        2
 40
-0.6
 41
30.0
 62
     5
 63
     7
 74
     0
 91
        4
 64
     7
 65
   257
 75
     1
175
     1
 42
1.0
 92
        0
 66
     7
 43
1.0
 76
     1
 77
     6
 78
     2
 67
     7
 79
     5
170
     0
171
     0
290
     0
174
     0
 93
       13
 44
0.0
173
     0
291
     1
 45
0.0
1001
ACAD
1000
AcDbSavedByObjectVersion
1070
     0
  0
VISUALSTYLE
  5
2E
102
{ACAD_REACTORS
330
2A
102
}
330
2A
100
AcDbVisualStyle
  2
GouraudWithEdges
 70
     3
 71
     2
 72
     2
 73
     1
 90
        2
 40
-0.6
 41
30.0
 62
     5
 63
     7
 74
     1
 91
        4
 64
     7
 65
   257
 75
     1
175
     1
 42
1.0
 92
        0
 66
   257
 43
1.0
 76
     1
 77
     6
 78
     2
 67
     7
 79
     5
170
     0
171
     0
290
     0
174
     0
 93
       13
 44
0.0
173
     0
291
     1
 45
0.0
1001
ACAD
1000
AcDbSavedByObjectVersion
1070
     0
  0
VISUALSTYLE
  5
38
102
{ACAD_REACTORS
330
2A
102
}
330
2A
100
AcDbVisualStyle
  2
Linepattern
 70
    14
 71
     2
 72
     2
 73
     0
 90
        0
 40
-0.6
 41
-30.0
 62
     5
 63
     7
 74
     1
 91
        4
 64
     7
 65
   257
 75
     7
175
     7
 42
1.0
 92
        8
 66
     7
 43
1.0
 76
     1
 77
     6
 78
     2
 67
     7
 79
     5
170
     0
171
     0
290
     0
174
     0
 93
        1
 44
0.0
173
     0
291
     1
 45
0.0
1001
ACAD
1000
AcDbSavedByObjectVersion
1070
     0
  0
VISUALSTYLE
  5
33
102
{ACAD_REACTORS
330
2A
102
}
330
2A
100
AcDbVisualStyle
  2
Realistic
 70
     8
 71
     2
 72
     2
 73
     0
 90
        0
 40
-0.6
 41
-30.0
 62
     5
 63
     7
 74
     1
 91
        0
 64
     7
 65
   257
 75
     1
175
     1
 42
1.0
 92
        8
 66
     8
 43
1.0
 76
     1
 77
     6
 78
     2
 67
     7
 79
     5
170
     0
171
     0
290
     0
174
     0
 93
       13
 44
0.0
173
     0
291
     0
 45
0.0
1001
ACAD
1000
AcDbSavedByObjectVersion
1070
     0
  0
VISUALSTYLE
  5
37
102
{ACAD_REACTORS
330
2A
102
}
330
2A
100
AcDbVisualStyle
  2
Thicken
 70
    13
 71
     2
 72
     2
 73
     0
 90
        0
 40
-0.6
 41
-30.0
 62
     5
 63
     7
 74
     1
 91
        4
 64
     7
 65
   257
 75
     1
175
     1
 42
1.0
 92
       12
 66
     7
 43
1.0
 76
     1
 77
     6
 78
     2
 67
     7
 79
     5
170
     0
171
     0
290
     0
174
     0
 93
        1
 44
0.0
173
     0
291
     1
 45
0.0
1001
ACAD
1000
AcDbSavedByObjectVersion
1070
     0
  0
ENDSEC
  0
EOF
