  0
SECTION
  2
HEADER
  9
$ACADVER
  1
AC1015
  9
$ACADMAINTVER
 70
     6
  9
$DWGCODEPAGE
  3
ANSI_1252
  9
$INSBASE
 10
0.0
 20
0.0
 30
0.0
  9
$EXTMIN
 10
0.0
 20
0.0
 30
0.0
  9
$EXTMAX
 10
11.0
 20
8.5
 30
0.0
  9
$LIMMIN
 10
0.0
 20
0.0
  9
$LIMMAX
 10
11.0
 20
8.5
  9
$ORTHOMODE
 70
     0
  9
$REGENMODE
 70
     1
  9
$FILLMODE
 70
     1
  9
$QTEXTMODE
 70
     0
  9
$MIRRTEXT
 70
     1
  9
$LTSCALE
 40
1.0
  9
$ATTMODE
 70
     1
  9
$TEXTSIZE
 40
0.1377952756
  9
$TRACEWID
 40
0.05
  9
$TEXTSTYLE
  7
Standard
  9
$CLAYER
  8
0
  9
$CELTYPE
  6
ByLayer
  9
$CECOLOR
 62
   256
  9
$CELTSCALE
 40
1.0
  9
$DISPSILH
 70
     0
  9
$DIMSCALE
 40
1.0
  9
$DIMASZ
 40
0.2362204724
  9
$DIMEXO
 40
0.0393700787
  9
$DIMDLI
 40
0.38
  9
$DIMRND
 40
0.0
  9
$DIMDLE
 40
0.0
  9
$DIMEXE
 40
0.0393700787
  9
$DIMTP
 40
0.0
  9
$DIMTM
 40
0.0
  9
$DIMTXT
 40
0.1377952756
  9
$DIMCEN
 40
0.09
  9
$DIMTSZ
 40
0.0
  9
$DIMTOL
 70
     0
  9
$DIMLIM
 70
     0
  9
$DIMTIH
 70
     1
  9
$DIMTOH
 70
     1
  9
$DIMSE1
 70
     0
  9
$DIMSE2
 70
     0
  9
$DIMTAD
 70
     1
  9
$DIMZIN
 70
     1
  9
$DIMBLK
  1

  9
$DIMASO
 70
     1
  9
$DIMSHO
 70
     1
  9
$DIMPOST
  1

  9
$DIMAPOST
  1

  9
$DIMALT
 70
     0
  9
$DIMALTD
 70
     2
  9
$DIMALTF
 40
25.4
  9
$DIMLFAC
 40
6.0
  9
$DIMTOFL
 70
     0
  9
$DIMTVP
 40
0.0
  9
$DIMTIX
 70
     0
  9
$DIMSOXD
 70
     0
  9
$DIMSAH
 70
     0
  9
$DIMBLK1
  1

  9
$DIMBLK2
  1

  9
$DIMSTYLE
  2
Standard
  9
$DIMCLRD
 70
     0
  9
$DIMCLRE
 70
     0
  9
$DIMCLRT
 70
     0
  9
$DIMTFAC
 40
1.0
  9
$DIMGAP
 40
0.06
  9
$DIMJUST
 70
     0
  9
$DIMSD1
 70
     0
  9
$DIMSD2
 70
     0
  9
$DIMTOLJ
 70
     1
  9
$DIMTZIN
 70
     1
  9
$DIMALTZ
 70
     0
  9
$DIMALTTZ
 70
     0
  9
$DIMUPT
 70
     0
  9
$DIMDEC
 70
     4
  9
$DIMTDEC
 70
     4
  9
$DIMALTU
 70
     2
  9
$DIMALTTD
 70
     2
  9
$DIMTXSTY
  7
Standard
  9
$DIMAUNIT
 70
     0
  9
$DIMADEC
 70
     0
  9
$DIMALTRND
 40
0.0
  9
$DIMAZIN
 70
     0
  9
$DIMDSEP
 70
    46
  9
$DIMATFIT
 70
     3
  9
$DIMFRAC
 70
     0
  9
$DIMLDRBLK
  1

  9
$DIMLUNIT
 70
     2
  9
$DIMLWD
 70
    -2
  9
$DIMLWE
 70
    -2
  9
$DIMTMOVE
 70
     0
  9
$LUNITS
 70
     2
  9
$LUPREC
 70
     4
  9
$SKETCHINC
 40
0.1
  9
$FILLETRAD
 40
0.5
  9
$AUNITS
 70
     0
  9
$AUPREC
 70
     0
  9
$MENU
  1
.
  9
$ELEVATION
 40
0.0
  9
$PELEVATION
 40
0.0
  9
$THICKNESS
 40
0.0
  9
$LIMCHECK
 70
     0
  9
$CHAMFERA
 40
0.5
  9
$CHAMFERB
 40
0.5
  9
$CHAMFERC
 40
1.0
  9
$CHAMFERD
 40
0.0
  9
$SKPOLY
 70
     0
  9
$TDCREATE
 40
2454440.853714305
  9
$TDUCREATE
 40
2454441.187047639
  9
$TDUPDATE
 40
2454440.853714317
  9
$TDUUPDATE
 40
2454441.187047651
  9
$TDINDWG
 40
0.0000000116
  9
$TDUSRTIMER
 40
0.0000000116
  9
$USRTIMER
 70
     1
  9
$ANGBASE
 50
0.0
  9
$ANGDIR
 70
     0
  9
$PDMODE
 70
     0
  9
$PDSIZE
 40
-1.0
  9
$PLINEWID
 40
0.0
  9
$SPLFRAME
 70
     0
  9
$SPLINETYPE
 70
     6
  9
$SPLINESEGS
 70
     8
  9
$HANDSEED
  5
3AF
  9
$SURFTAB1
 70
     6
  9
$SURFTAB2
 70
     6
  9
$SURFTYPE
 70
     6
  9
$SURFU
 70
     6
  9
$SURFV
 70
     6
  9
$UCSBASE
  2

  9
$UCSNAME
  2

  9
$UCSORG
 10
0.0
 20
0.0
 30
0.0
  9
$UCSXDIR
 10
1.0
 20
0.0
 30
0.0
  9
$UCSYDIR
 10
0.0
 20
1.0
 30
0.0
  9
$UCSORTHOREF
  2

  9
$UCSORTHOVIEW
 70
     0
  9
$UCSORGTOP
 10
0.0
 20
0.0
 30
0.0
  9
$UCSORGBOTTOM
 10
0.0
 20
0.0
 30
0.0
  9
$UCSORGLEFT
 10
0.0
 20
0.0
 30
0.0
  9
$UCSORGRIGHT
 10
0.0
 20
0.0
 30
0.0
  9
$UCSORGFRONT
 10
0.0
 20
0.0
 30
0.0
  9
$UCSORGBACK
 10
0.0
 20
0.0
 30
0.0
  9
$PUCSBASE
  2

  9
$PUCSNAME
  2

  9
$PUCSORG
 10
0.0
 20
0.0
 30
0.0
  9
$PUCSXDIR
 10
1.0
 20
0.0
 30
0.0
  9
$PUCSYDIR
 10
0.0
 20
1.0
 30
0.0
  9
$PUCSORTHOREF
  2

  9
$PUCSORTHOVIEW
 70
     0
  9
$PUCSORGTOP
 10
0.0
 20
0.0
 30
0.0
  9
$PUCSORGBOTTOM
 10
0.0
 20
0.0
 30
0.0
  9
$PUCSORGLEFT
 10
0.0
 20
0.0
 30
0.0
  9
$PUCSORGRIGHT
 10
0.0
 20
0.0
 30
0.0
  9
$PUCSORGFRONT
 10
0.0
 20
0.0
 30
0.0
  9
$PUCSORGBACK
 10
0.0
 20
0.0
 30
0.0
  9
$USERI1
 70
     0
  9
$USERI2
 70
     0
  9
$USERI3
 70
     0
  9
$USERI4
 70
     0
  9
$USERI5
 70
     0
  9
$USERR1
 40
0.0
  9
$USERR2
 40
0.0
  9
$USERR3
 40
0.0
  9
$USERR4
 40
0.0
  9
$USERR5
 40
0.0
  9
$WORLDVIEW
 70
     1
  9
$SHADEDGE
 70
     3
  9
$SHADEDIF
 70
    70
  9
$TILEMODE
 70
     1
  9
$MAXACTVP
 70
    64
  9
$PINSBASE
 10
0.0
 20
0.0
 30
0.0
  9
$PLIMCHECK
 70
     0
  9
$PEXTMIN
 10
1.0000000000E+20
 20
1.0000000000E+20
 30
1.0000000000E+20
  9
$PEXTMAX
 10
-1.0000000000E+20
 20
-1.0000000000E+20
 30
-1.0000000000E+20
  9
$PLIMMIN
 10
0.0
 20
0.0
  9
$PLIMMAX
 10
12.0
 20
9.0
  9
$UNITMODE
 70
     0
  9
$VISRETAIN
 70
     1
  9
$PLINEGEN
 70
     0
  9
$PSLTSCALE
 70
     1
  9
$TREEDEPTH
 70
  3020
  9
$CMLSTYLE
  2
Standard
  9
$CMLJUST
 70
     0
  9
$CMLSCALE
 40
1.0
  9
$PROXYGRAPHICS
 70
     1
  9
$MEASUREMENT
 70
     0
  9
$CELWEIGHT
370
    -1
  9
$ENDCAPS
280
     0
  9
$JOINSTYLE
280
     0
  9
$LWDISPLAY
290
     1
  9
$INSUNITS
 70
     1
  9
$HYPERLINKBASE
  1

  9
$STYLESHEET
  1

  9
$XEDIT
290
     1
  9
$CEPSNTYPE
380
     0
  9
$PSTYLEMODE
290
     1
  9
$FINGERPRINTGUID
  2
{BC028C1B-5D90-4A16-BA9D-3D2C91E8224A}
  9
$VERSIONGUID
  2
{FAEB1C32-E019-11D5-929B-00C0DF256EC4}
  9
$EXTNAMES
290
     1
  9
$PSVPSCALE
 40
0.0
  9
$OLESTARTUP
290
     0
  0
ENDSEC
  0
SECTION
  2
CLASSES
  0
CLASS
  1
ACDBDICTIONARYWDFLT
  2
AcDbDictionaryWithDefault
  3
ObjectDBX Classes
 90
        0
280
     0
281
     0
  0
CLASS
  1
VISUALSTYLE
  2
AcDbVisualStyle
  3
ObjectDBX Classes
 90
     4095
280
     0
281
     0
  0
CLASS
  1
ACDBPLACEHOLDER
  2
AcDbPlaceHolder
  3
ObjectDBX Classes
 90
        0
280
     0
281
     0
  0
CLASS
  1
LAYOUT
  2
AcDbLayout
  3
ObjectDBX Classes
 90
        0
280
     0
281
     0
  0
ENDSEC
  0
SECTION
  2
TABLES
  0
TABLE
  2
VPORT
  5
8
330
0
100
AcDbSymbolTable
 70
     1
  0
VPORT
  5
29
330
8
100
AcDbSymbolTableRecord
100
AcDbViewportTableRecord
  2
*Active
 70
     0
 10
0.0
 20
0.0
 11
1.0
 21
1.0
 12
5.5
 22
4.25
 13
0.0
 23
0.0
 14
0.5
 24
0.5
 15
0.5
 25
0.5
 16
0.0
 26
0.0
 36
1.0
 17
0.0
 27
0.0
 37
0.0
 40
8.5
 41
1.2941176471
 42
50.0
 43
0.0
 44
0.0
 50
0.0
 51
0.0
 71
     0
 72
  2000
 73
     1
 74
     3
 75
     0
 76
     0
 77
     0
 78
     0
281
     0
 65
     1
110
0.0
120
0.0
130
0.0
111
1.0
121
0.0
131
0.0
112
0.0
122
1.0
132
0.0
 79
     0
146
0.0
  0
ENDTAB
  0
TABLE
  2
LTYPE
  5
5
330
0
100
AcDbSymbolTable
 70
     6
  0
LTYPE
  5
14
330
5
100
AcDbSymbolTableRecord
100
AcDbLinetypeTableRecord
  2
ByBlock
 70
     0
  3

 72
    65
 73
     0
 40
0.0
  0
LTYPE
  5
15
330
5
100
AcDbSymbolTableRecord
100
AcDbLinetypeTableRecord
  2
ByLayer
 70
     0
  3

 72
    65
 73
     0
 40
0.0
  0
LTYPE
  5
16
330
5
100
AcDbSymbolTableRecord
100
AcDbLinetypeTableRecord
  2
Continuous
 70
     0
  3
Solid line
 72
    65
 73
     0
 40
0.0
  0
LTYPE
  5
3B
330
5
100
AcDbSymbolTableRecord
100
AcDbLinetypeTableRecord
  2
HIDDEN
 70
     0
  3
Hidden __ __ __ __ __ __ __ __ __ __ __ __ __ __
 72
    65
 73
     2
 40
0.075
 49
0.05
 74
     0
 49
-0.025
 74
     0
  0
LTYPE
  5
3C
330
5
100
AcDbSymbolTableRecord
100
AcDbLinetypeTableRecord
  2
PHANTOM
 70
     0
  3
Phantom ______  __  __  ______  __  __  ______
 72
    65
 73
     6
 40
0.5
 49
0.25
 74
     0
 49
-0.05
 74
     0
 49
0.05
 74
     0
 49
-0.05
 74
     0
 49
0.05
 74
     0
 49
-0.05
 74
     0
  0
LTYPE
  5
3D
330
5
100
AcDbSymbolTableRecord
100
AcDbLinetypeTableRecord
  2
CENTER
 70
     0
  3
Center ____ _ ____ _ ____ _ ____ _ ____ _ ____
 72
    65
 73
     4
 40
0.4
 49
0.25
 74
     0
 49
-0.05
 74
     0
 49
0.05
 74
     0
 49
-0.05
 74
     0
  0
LTYPE
  5
3E
330
5
100
AcDbSymbolTableRecord
100
AcDbLinetypeTableRecord
  2
CENTERX2
 70
     0
  3
Center (2x) ________  __  ________  __  _____
 72
    65
 73
     4
 40
0.8
 49
0.5
 74
     0
 49
-0.1
 74
     0
 49
0.1
 74
     0
 49
-0.1
 74
     0
  0
LTYPE
  5
3F
330
5
100
AcDbSymbolTableRecord
100
AcDbLinetypeTableRecord
  2
DOT2
 70
     0
  3
Dot (.5x) ........................................
 72
    65
 73
     2
 40
0.025
 49
0.0
 74
     0
 49
-0.025
 74
     0
  0
ENDTAB
  0
TABLE
  2
LAYER
  5
2
330
0
100
AcDbSymbolTable
 70
    13
  0
LAYER
  5
10
330
2
100
AcDbSymbolTableRecord
100
AcDbLayerTableRecord
  2
0
 70
     0
 62
     7
  6
Continuous
370
    -3
390
F
  0
LAYER
  5
40
330
2
100
AcDbSymbolTableRecord
100
AcDbLayerTableRecord
  2
SLD-0
 70
     0
 62
   179
  6
Continuous
370
    -3
390
F
  0
LAYER
  5
41
330
2
100
AcDbSymbolTableRecord
100
AcDbLayerTableRecord
  2
2
 70
     0
 62
     2
  6
Continuous
370
    -3
390
F
  0
LAYER
  5
42
330
2
100
AcDbSymbolTableRecord
100
AcDbLayerTableRecord
  2
3
 70
     0
 62
     3
  6
HIDDEN
370
    -3
390
F
  0
LAYER
  5
43
330
2
100
AcDbSymbolTableRecord
100
AcDbLayerTableRecord
  2
4
 70
     0
 62
     4
  6
Continuous
370
    -3
390
F
  0
LAYER
  5
44
330
2
100
AcDbSymbolTableRecord
100
AcDbLayerTableRecord
  2
TRMODEL1
 70
     0
 62
   179
  6
Continuous
370
    -3
390
F
  0
LAYER
  5
45
330
2
100
AcDbSymbolTableRecord
100
AcDbLayerTableRecord
  2
TRMODEL2
 70
     0
 62
     3
  6
Continuous
370
    -3
390
F
  0
LAYER
  5
46
330
2
100
AcDbSymbolTableRecord
100
AcDbLayerTableRecord
  2
TRMODEL3
 70
     0
 62
     1
  6
HIDDEN
370
    -3
390
F
  0
LAYER
  5
47
330
2
100
AcDbSymbolTableRecord
100
AcDbLayerTableRecord
  2
TRDIM
 70
     0
 62
     3
  6
Continuous
370
    -3
390
F
  0
LAYER
  5
48
330
2
100
AcDbSymbolTableRecord
100
AcDbLayerTableRecord
  2
TRDETAIL1
 70
     0
 62
     1
  6
Continuous
370
    -3
390
F
  0
LAYER
  5
49
330
2
100
AcDbSymbolTableRecord
100
AcDbLayerTableRecord
  2
TRDETAIL2
 70
     0
 62
     6
  6
HIDDEN
370
    -3
390
F
  0
LAYER
  5
4A
330
2
100
AcDbSymbolTableRecord
100
AcDbLayerTableRecord
  2
TRDETAIL3
 70
     0
 62
     4
  6
CENTERX2
370
    -3
390
F
  0
LAYER
  5
4B
330
2
100
AcDbSymbolTableRecord
100
AcDbLayerTableRecord
  2
TRTEXT
 70
     0
 62
   179
  6
Continuous
370
    -3
390
F
  0
ENDTAB
  0
TABLE
  2
STYLE
  5
3
330
0
100
AcDbSymbolTable
 70
     2
  0
STYLE
  5
11
330
3
100
AcDbSymbolTableRecord
100
AcDbTextStyleTableRecord
  2
Standard
 70
     0
 40
0.0
 41
1.0
 50
0.0
 71
     0
 42
0.2
  3
txt
  4

  0
STYLE
  5
3A6
330
3
100
AcDbSymbolTableRecord
100
AcDbTextStyleTableRecord
  2
SLDTEXTSTYLE0
 70
     0
 40
0.0
 41
0.7
 50
0.0
 71
     0
 42
0.2
  3
TXT
  4

  0
ENDTAB
  0
TABLE
  2
VIEW
  5
6
330
0
100
AcDbSymbolTable
 70
     0
  0
ENDTAB
  0
TABLE
  2
UCS
  5
7
330
0
100
AcDbSymbolTable
 70
     0
  0
ENDTAB
  0
TABLE
  2
APPID
  5
9
330
0
100
AcDbSymbolTable
 70
     1
  0
APPID
  5
12
330
9
100
AcDbSymbolTableRecord
100
AcDbRegAppTableRecord
  2
ACAD
 70
     0
  0
ENDTAB
  0
TABLE
  2
DIMSTYLE
  5
A
330
0
100
AcDbSymbolTable
 70
     1
100
AcDbDimStyleTable
  0
DIMSTYLE
105
27
330
A
100
AcDbSymbolTableRecord
100
AcDbDimStyleTableRecord
  2
Standard
 70
     0
340
11
  0
ENDTAB
  0
TABLE
  2
BLOCK_RECORD
  5
1
330
0
100
AcDbSymbolTable
 70
     1
  0
BLOCK_RECORD
  5
1F
330
1
100
AcDbSymbolTableRecord
100
AcDbBlockTableRecord
  2
*Model_Space
340
22
  0
BLOCK_RECORD
  5
1B
330
1
100
AcDbSymbolTableRecord
100
AcDbBlockTableRecord
  2
*Paper_Space
340
1E
  0
BLOCK_RECORD
  5
23
330
1
100
AcDbSymbolTableRecord
100
AcDbBlockTableRecord
  2
*Paper_Space0
340
26
  0
ENDTAB
  0
ENDSEC
  0
SECTION
  2
BLOCKS
  0
BLOCK
  5
20
330
1F
100
AcDbEntity
  8
0
100
AcDbBlockBegin
  2
*Model_Space
 70
     0
 71
     0
 10
0.0
 20
0.0
 30
0.0
  3
*Model_Space
  1

  0
ENDBLK
  5
21
330
1F
100
AcDbEntity
  8
0
100
AcDbBlockEnd
  0
BLOCK
  5
1C
330
1B
100
AcDbEntity
 67
     1
  8
0
100
AcDbBlockBegin
  2
*Paper_Space
 70
     0
 71
     0
 10
0.0
 20
0.0
 30
0.0
  3
*Paper_Space
  1

  0
ENDBLK
  5
1D
330
1B
100
AcDbEntity
 67
     1
  8
0
100
AcDbBlockEnd
  0
BLOCK
  5
24
330
23
100
AcDbEntity
  8
0
100
AcDbBlockBegin
  2
*Paper_Space0
 70
     0
 71
     0
 10
0.0
 20
0.0
 30
0.0
  3
*Paper_Space0
  1

  0
ENDBLK
  5
25
330
23
100
AcDbEntity
  8
0
100
AcDbBlockEnd
  0
ENDSEC
  0
SECTION
  2
ENTITIES
  0
LINE
  5
4C
330
1F
100
AcDbEntity
  8
TRMODEL1
  6
Continuous
 62
     2
100
AcDbLine
 10
21.1231692353
 20
6.2929953665
 30
0.0
 11
18.2124302878
 21
6.2929953665
 31
0.0
  0
LINE
  5
4D
330
1F
100
AcDbEntity
  8
TRMODEL1
  6
Continuous
 62
     2
100
AcDbLine
 10
21.1231692353
 20
7.7929953665
 30
0.0
 11
18.2124302878
 21
7.7929953665
 31
0.0
  0
LINE
  5
4E
330
1F
100
AcDbEntity
  8
TRMODEL1
  6
Continuous
 62
     2
100
AcDbLine
 10
21.1231692353
 20
6.0429953665
 30
0.0
 11
18.2124302878
 21
6.0429953665
 31
0.0
  0
LINE
  5
4F
330
1F
100
AcDbEntity
  8
TRMODEL1
  6
Continuous
 62
     2
100
AcDbLine
 10
21.1231692353
 20
7.5429953665
 30
0.0
 11
18.2124302878
 21
7.5429953665
 31
0.0
  0
LINE
  5
50
330
1F
100
AcDbEntity
  8
TRMODEL1
  6
Continuous
 62
     2
100
AcDbLine
 10
21.1231692353
 20
4.7929953665
 30
0.0
 11
17.3731692353
 21
4.7929953665
 31
0.0
  0
LINE
  5
51
330
1F
100
AcDbEntity
  8
TRMODEL1
  6
Continuous
 62
     2
100
AcDbLine
 10
21.1231692353
 20
9.0429953665
 30
0.0
 11
17.3731692353
 21
9.0429953665
 31
0.0
  0
LINE
  5
52
330
1F
100
AcDbEntity
  8
TRMODEL1
  6
Continuous
 62
     2
100
AcDbLine
 10
20.9632518189
 20
3.2929953665
 30
0.0
 11
17.3731692353
 21
3.2929953665
 31
0.0
  0
LINE
  5
53
330
1F
100
AcDbEntity
  8
TRMODEL1
  6
Continuous
 62
     2
100
AcDbLine
 10
20.0831669032
 20
3.0429953665
 30
0.0
 11
17.3731692353
 21
3.0429953665
 31
0.0
  0
LINE
  5
54
330
1F
100
AcDbEntity
  8
TRMODEL1
  6
Continuous
 62
     2
100
AcDbLine
 10
21.1231692353
 20
4.5429953665
 30
0.0
 11
17.3731692353
 21
4.5429953665
 31
0.0
  0
LINE
  5
55
330
1F
100
AcDbEntity
  8
TRMODEL1
  6
Continuous
 62
     2
100
AcDbLine
 10
17.3731692353
 20
2.681520206
 30
0.0
 11
17.2481692353
 21
2.7010523399
 31
0.0
  0
LINE
  5
56
330
1F
100
AcDbEntity
  8
TRMODEL1
  6
Continuous
 62
     2
100
AcDbLine
 10
17.2481692353
 20
2.7010523399
 30
0.0
 11
17.2481692353
 21
9.1679953665
 31
0.0
  0
LINE
  5
57
330
1F
100
AcDbEntity
  8
TRMODEL1
  6
Continuous
 62
     2
100
AcDbLine
 10
17.2481692353
 20
9.1679953665
 30
0.0
 11
22.9704431156
 21
9.1679953665
 31
0.0
  0
LINE
  5
58
330
1F
100
AcDbEntity
  8
TRMODEL1
  6
Continuous
 62
     2
100
AcDbLine
 10
22.9704431156
 20
9.1679953665
 30
0.0
 11
22.9495962721
 21
9.0429953665
 31
0.0
  0
LINE
  5
59
330
1F
100
AcDbEntity
  8
TRDETAIL2
  6
HIDDEN
 62
     3
100
AcDbLine
 10
19.0606692354
 20
6.2929953665
 30
0.0
 11
19.0606692354
 21
7.5429953665
 31
0.0
  0
LINE
  5
5A
330
1F
100
AcDbEntity
  8
TRMODEL1
  6
Continuous
 62
     4
100
AcDbLine
 10
17.7098395451
 20
6.9233281947
 30
0.0
 11
17.8361349165
 21
6.7045781947
 31
0.0
  0
LINE
  5
5B
330
1F
100
AcDbEntity
  8
TRMODEL1
  6
Continuous
 62
     4
100
AcDbLine
 10
18.0887256592
 20
6.7045781947
 30
0.0
 11
18.2150210306
 21
6.9233281947
 31
0.0
  0
LINE
  5
5C
330
1F
100
AcDbEntity
  8
TRMODEL1
  6
Continuous
 62
     2
100
AcDbLine
 10
17.3731692353
 20
6.2929953665
 30
0.0
 11
17.3731692353
 21
7.5429953665
 31
0.0
  0
LINE
  5
5D
330
1F
100
AcDbEntity
  8
TRMODEL1
  6
Continuous
 62
     4
100
AcDbLine
 10
17.2481692353
 20
0.1865693419
 30
0.0
 11
17.2481692353
 21
10.9516491615
 31
0.0
  0
LINE
  5
5E
330
1F
100
AcDbEntity
  8
TRMODEL1
  6
Continuous
 62
     2
100
AcDbLine
 10
17.3731692353
 20
2.681520206
 30
0.0
 11
17.3731692353
 21
3.0429953665
 31
0.0
  0
LINE
  5
5F
330
1F
100
AcDbEntity
  8
TRDETAIL2
  6
HIDDEN
 62
     3
100
AcDbLine
 10
19.0606692354
 20
0.0430762954
 30
0.0
 11
19.0606692354
 21
3.0429953665
 31
0.0
  0
LINE
  5
60
330
1F
100
AcDbEntity
  8
TRDETAIL2
  6
HIDDEN
 62
     3
100
AcDbLine
 10
19.0606692354
 20
4.7929953665
 30
0.0
 11
19.0606692354
 21
6.0429953665
 31
0.0
  0
LINE
  5
61
330
1F
100
AcDbEntity
  8
TRDETAIL2
  6
HIDDEN
 62
     3
100
AcDbLine
 10
19.0606692354
 20
3.2929953665
 30
0.0
 11
19.0606692354
 21
4.5429953665
 31
0.0
  0
LINE
  5
62
330
1F
100
AcDbEntity
  8
TRMODEL1
  6
Continuous
 62
     4
100
AcDbLine
 10
18.2124302878
 20
6.5233281947
 30
0.0
 11
17.7124302878
 21
6.5233281947
 31
0.0
  0
LINE
  5
63
330
1F
100
AcDbEntity
  8
TRMODEL1
  6
Continuous
 62
     4
100
AcDbLine
 10
18.2124302878
 20
6.4633281947
 30
0.0
 11
17.7124302878
 21
6.4633281947
 31
0.0
  0
LINE
  5
64
330
1F
100
AcDbEntity
  8
TRMODEL1
  6
Continuous
 62
     4
100
AcDbLine
 10
18.2124302878
 20
6.3408281947
 30
0.0
 11
17.7124302878
 21
6.3408281947
 31
0.0
  0
LINE
  5
65
330
1F
100
AcDbEntity
  8
TRMODEL1
  6
Continuous
 62
     4
100
AcDbLine
 10
17.8361349165
 20
6.7045781947
 30
0.0
 11
18.0887256592
 21
6.7045781947
 31
0.0
  0
LINE
  5
66
330
1F
100
AcDbEntity
  8
TRMODEL1
  6
Continuous
 62
     4
100
AcDbLine
 10
18.2124302878
 20
6.5233281947
 30
0.0
 11
18.2124302878
 21
6.7358281947
 31
0.0
  0
LINE
  5
67
330
1F
100
AcDbEntity
  8
TRMODEL1
  6
Continuous
 62
     4
100
AcDbLine
 10
18.2124302878
 20
6.3408281947
 30
0.0
 11
18.2124302878
 21
6.4633281947
 31
0.0
  0
LINE
  5
68
330
1F
100
AcDbEntity
  8
TRMODEL1
  6
Continuous
 62
     4
100
AcDbLine
 10
18.2124302878
 20
6.4633281947
 30
0.0
 11
18.2124302878
 21
6.5233281947
 31
0.0
  0
LINE
  5
69
330
1F
100
AcDbEntity
  8
TRMODEL1
  6
Continuous
 62
     4
100
AcDbLine
 10
17.7124302878
 20
6.5233281947
 30
0.0
 11
17.7124302878
 21
6.7358281947
 31
0.0
  0
LINE
  5
6A
330
1F
100
AcDbEntity
  8
TRMODEL1
  6
Continuous
 62
     4
100
AcDbLine
 10
17.7124302878
 20
6.3408281947
 30
0.0
 11
17.7124302878
 21
6.4633281947
 31
0.0
  0
LINE
  5
6B
330
1F
100
AcDbEntity
  8
TRMODEL1
  6
Continuous
 62
     4
100
AcDbLine
 10
17.7124302878
 20
6.4633281947
 30
0.0
 11
17.7124302878
 21
6.5233281947
 31
0.0
  0
LINE
  5
6C
330
1F
100
AcDbEntity
  8
TRMODEL1
  6
Continuous
 62
     4
100
AcDbLine
 10
18.2124302878
 20
5.9608281947
 30
0.0
 11
17.7124302878
 21
5.9608281947
 31
0.0
  0
LINE
  5
6D
330
1F
100
AcDbEntity
  8
TRMODEL1
  6
Continuous
 62
     4
100
AcDbLine
 10
18.2124302878
 20
5.8383281947
 30
0.0
 11
17.7124302878
 21
5.8383281947
 31
0.0
  0
LINE
  5
6E
330
1F
100
AcDbEntity
  8
TRMODEL1
  6
Continuous
 62
     4
100
AcDbLine
 10
18.2124302878
 20
5.8383281947
 30
0.0
 11
18.2124302878
 21
5.9608281947
 31
0.0
  0
LINE
  5
6F
330
1F
100
AcDbEntity
  8
TRMODEL1
  6
Continuous
 62
     4
100
AcDbLine
 10
17.7124302878
 20
5.8383281947
 30
0.0
 11
17.7124302878
 21
5.9608281947
 31
0.0
  0
LINE
  5
70
330
1F
100
AcDbEntity
  8
TRMODEL1
  6
Continuous
 62
     4
100
AcDbLine
 10
18.2124302878
 20
5.9608281947
 30
0.0
 11
18.2124302878
 21
6.3408281947
 31
0.0
  0
LINE
  5
71
330
1F
100
AcDbEntity
  8
TRMODEL1
  6
Continuous
 62
     4
100
AcDbLine
 10
17.7124302878
 20
5.9608281947
 30
0.0
 11
17.7124302878
 21
6.3408281947
 31
0.0
  0
LINE
  5
72
330
1F
100
AcDbEntity
  8
TRMODEL1
  6
Continuous
 62
     2
100
AcDbLine
 10
17.3731692353
 20
4.7929953665
 30
0.0
 11
17.3731692353
 21
6.0429953665
 31
0.0
  0
LINE
  5
73
330
1F
100
AcDbEntity
  8
TRMODEL1
  6
Continuous
 62
     2
100
AcDbLine
 10
17.3731692353
 20
3.2929953665
 30
0.0
 11
17.3731692353
 21
4.5429953665
 31
0.0
  0
LINE
  5
74
330
1F
100
AcDbEntity
  8
TRMODEL1
  6
Continuous
 62
     2
100
AcDbLine
 10
17.7124302878
 20
6.2929953665
 30
0.0
 11
17.3731692353
 21
6.2929953665
 31
0.0
  0
LINE
  5
75
330
1F
100
AcDbEntity
  8
TRMODEL1
  6
Continuous
 62
     2
100
AcDbLine
 10
17.7124302878
 20
6.0429953665
 30
0.0
 11
17.3731692353
 21
6.0429953665
 31
0.0
  0
LINE
  5
76
330
1F
100
AcDbEntity
  8
TRDETAIL2
  6
HIDDEN
 62
     3
100
AcDbLine
 10
19.0606692354
 20
9.1679953665
 30
0.0
 11
19.0606692354
 21
10.808156115
 31
0.0
  0
LINE
  5
77
330
1F
100
AcDbEntity
  8
TRDETAIL2
  6
HIDDEN
 62
     3
100
AcDbLine
 10
19.0606692354
 20
7.7929953665
 30
0.0
 11
19.0606692354
 21
9.0429953665
 31
0.0
  0
LINE
  5
78
330
1F
100
AcDbEntity
  8
TRMODEL1
  6
Continuous
 62
     4
100
AcDbLine
 10
18.2124302878
 20
7.9633281947
 30
0.0
 11
17.7124302878
 21
7.9633281947
 31
0.0
  0
LINE
  5
79
330
1F
100
AcDbEntity
  8
TRMODEL1
  6
Continuous
 62
     4
100
AcDbLine
 10
18.2124302878
 20
7.8408281947
 30
0.0
 11
17.7124302878
 21
7.8408281947
 31
0.0
  0
LINE
  5
7A
330
1F
100
AcDbEntity
  8
TRMODEL1
  6
Continuous
 62
     4
100
AcDbLine
 10
17.8361349165
 20
7.1420781947
 30
0.0
 11
17.7098395451
 21
6.9233281947
 31
0.0
  0
LINE
  5
7B
330
1F
100
AcDbEntity
  8
TRMODEL1
  6
Continuous
 62
     4
100
AcDbLine
 10
18.2124302878
 20
7.4608281947
 30
0.0
 11
17.7124302878
 21
7.4608281947
 31
0.0
  0
LINE
  5
7C
330
1F
100
AcDbEntity
  8
TRMODEL1
  6
Continuous
 62
     4
100
AcDbLine
 10
18.2124302878
 20
7.3383281947
 30
0.0
 11
17.7124302878
 21
7.3383281947
 31
0.0
  0
LINE
  5
7D
330
1F
100
AcDbEntity
  8
TRMODEL1
  6
Continuous
 62
     4
100
AcDbLine
 10
18.2124302878
 20
7.2783281947
 30
0.0
 11
17.7124302878
 21
7.2783281947
 31
0.0
  0
LINE
  5
7E
330
1F
100
AcDbEntity
  8
TRMODEL1
  6
Continuous
 62
     4
100
AcDbLine
 10
18.2124302878
 20
7.8408281947
 30
0.0
 11
18.2124302878
 21
7.9633281947
 31
0.0
  0
LINE
  5
7F
330
1F
100
AcDbEntity
  8
TRMODEL1
  6
Continuous
 62
     4
100
AcDbLine
 10
18.0887256592
 20
7.1420781947
 30
0.0
 11
17.8361349165
 21
7.1420781947
 31
0.0
  0
LINE
  5
80
330
1F
100
AcDbEntity
  8
TRMODEL1
  6
Continuous
 62
     4
100
AcDbLine
 10
18.2124302878
 20
7.3383281947
 30
0.0
 11
18.2124302878
 21
7.4608281947
 31
0.0
  0
LINE
  5
81
330
1F
100
AcDbEntity
  8
TRMODEL1
  6
Continuous
 62
     4
100
AcDbLine
 10
18.2124302878
 20
7.2783281947
 30
0.0
 11
18.2124302878
 21
7.3383281947
 31
0.0
  0
LINE
  5
82
330
1F
100
AcDbEntity
  8
TRMODEL1
  6
Continuous
 62
     4
100
AcDbLine
 10
18.2124302878
 20
7.1108281947
 30
0.0
 11
18.2124302878
 21
7.2783281947
 31
0.0
  0
LINE
  5
83
330
1F
100
AcDbEntity
  8
TRMODEL1
  6
Continuous
 62
     4
100
AcDbLine
 10
18.2150210306
 20
6.9233281947
 30
0.0
 11
18.0887256592
 21
7.1420781947
 31
0.0
  0
LINE
  5
84
330
1F
100
AcDbEntity
  8
TRMODEL1
  6
Continuous
 62
     4
100
AcDbLine
 10
18.2124302878
 20
7.4608281947
 30
0.0
 11
18.2124302878
 21
7.8408281947
 31
0.0
  0
LINE
  5
85
330
1F
100
AcDbEntity
  8
TRMODEL1
  6
Continuous
 62
     4
100
AcDbLine
 10
17.7124302878
 20
7.8408281947
 30
0.0
 11
17.7124302878
 21
7.9633281947
 31
0.0
  0
LINE
  5
86
330
1F
100
AcDbEntity
  8
TRMODEL1
  6
Continuous
 62
     4
100
AcDbLine
 10
17.7124302878
 20
7.3383281947
 30
0.0
 11
17.7124302878
 21
7.4608281947
 31
0.0
  0
LINE
  5
87
330
1F
100
AcDbEntity
  8
TRMODEL1
  6
Continuous
 62
     4
100
AcDbLine
 10
17.7124302878
 20
7.2783281947
 30
0.0
 11
17.7124302878
 21
7.3383281947
 31
0.0
  0
LINE
  5
88
330
1F
100
AcDbEntity
  8
TRMODEL1
  6
Continuous
 62
     4
100
AcDbLine
 10
17.7124302878
 20
7.1108281947
 30
0.0
 11
17.7124302878
 21
7.2783281947
 31
0.0
  0
LINE
  5
89
330
1F
100
AcDbEntity
  8
TRMODEL1
  6
Continuous
 62
     4
100
AcDbLine
 10
17.7124302878
 20
7.4608281947
 30
0.0
 11
17.7124302878
 21
7.8408281947
 31
0.0
  0
LINE
  5
8A
330
1F
100
AcDbEntity
  8
TRMODEL1
  6
Continuous
 62
     2
100
AcDbLine
 10
17.3731692353
 20
7.7929953665
 30
0.0
 11
17.3731692353
 21
9.0429953665
 31
0.0
  0
LINE
  5
8B
330
1F
100
AcDbEntity
  8
TRMODEL1
  6
Continuous
 62
     2
100
AcDbLine
 10
17.7124302878
 20
7.7929953665
 30
0.0
 11
17.3731692353
 21
7.7929953665
 31
0.0
  0
LINE
  5
8C
330
1F
100
AcDbEntity
  8
TRMODEL1
  6
Continuous
 62
     2
100
AcDbLine
 10
17.7124302878
 20
7.5429953665
 30
0.0
 11
17.3731692353
 21
7.5429953665
 31
0.0
  0
LINE
  5
8D
330
1F
100
AcDbEntity
  8
TRMODEL1
  6
Continuous
 62
     2
100
AcDbLine
 10
21.1231692353
 20
6.2929953665
 30
0.0
 11
21.1231692353
 21
7.5429953665
 31
0.0
  0
LINE
  5
8E
330
1F
100
AcDbEntity
  8
TRMODEL1
  6
Continuous
 62
     2
100
AcDbLine
 10
21.3731692353
 20
6.2929953665
 30
0.0
 11
21.3731692353
 21
7.5429953665
 31
0.0
  0
LINE
  5
8F
330
1F
100
AcDbEntity
  8
TRMODEL1
  6
Continuous
 62
     4
100
AcDbLine
 10
19.4356692354
 20
6.2929953665
 30
0.0
 11
19.4356692354
 21
7.5429953665
 31
0.0
  0
LINE
  5
90
330
1F
100
AcDbEntity
  8
TRMODEL1
  6
Continuous
 62
     2
100
AcDbLine
 10
22.613294182
 20
6.2929953665
 30
0.0
 11
21.3731692353
 21
6.2929953665
 31
0.0
  0
LINE
  5
91
330
1F
100
AcDbEntity
  8
TRMODEL1
  6
Continuous
 62
     2
100
AcDbLine
 10
22.6035647383
 20
6.0429953665
 30
0.0
 11
21.3731692353
 21
6.0429953665
 31
0.0
  0
LINE
  5
92
330
1F
100
AcDbEntity
  8
TRMODEL1
  6
Continuous
 62
     2
100
AcDbLine
 10
20.9632518189
 20
3.2929953665
 30
0.0
 11
20.4426351101
 21
3.2062825326
 31
0.0
  0
LINE
  5
93
330
1F
100
AcDbEntity
  8
TRMODEL1
  6
Continuous
 62
     2
100
AcDbLine
 10
20.4426351101
 20
3.2062825326
 30
0.0
 11
20.0831669032
 21
3.0429953665
 31
0.0
  0
LINE
  5
94
330
1F
100
AcDbEntity
  8
TRMODEL1
  6
Continuous
 62
     4
100
AcDbLine
 10
19.4356692353
 20
0.1865693419
 30
0.0
 11
19.4356692353
 21
3.0429953665
 31
0.0
  0
LINE
  5
95
330
1F
100
AcDbEntity
  8
TRMODEL1
  6
Continuous
 62
     4
100
AcDbLine
 10
19.4356692354
 20
4.7929953665
 30
0.0
 11
19.4356692354
 21
6.0429953665
 31
0.0
  0
LINE
  5
96
330
1F
100
AcDbEntity
  8
TRMODEL1
  6
Continuous
 62
     4
100
AcDbLine
 10
19.4356692354
 20
3.2929953665
 30
0.0
 11
19.4356692354
 21
4.5429953665
 31
0.0
  0
LINE
  5
97
330
1F
100
AcDbEntity
  8
TRMODEL1
  6
Continuous
 62
     2
100
AcDbLine
 10
22.1732672163
 20
4.7929953665
 30
0.0
 11
22.1615452007
 21
4.77249527
 31
0.0
  0
LINE
  5
98
330
1F
100
AcDbEntity
  8
TRMODEL1
  6
Continuous
 62
     2
100
AcDbLine
 10
22.1615452007
 20
4.77249527
 30
0.0
 11
22.0258422865
 21
4.5429953665
 31
0.0
  0
LINE
  5
99
330
1F
100
AcDbEntity
  8
TRMODEL1
  6
Continuous
 62
     2
100
AcDbLine
 10
21.3731692353
 20
3.5590551744
 30
0.0
 11
21.1231692353
 21
3.364738942
 31
0.0
  0
LINE
  5
9A
330
1F
100
AcDbEntity
  8
TRMODEL1
  6
Continuous
 62
     2
100
AcDbLine
 10
21.1231692353
 20
4.7929953665
 30
0.0
 11
21.1231692353
 21
6.0429953665
 31
0.0
  0
LINE
  5
9B
330
1F
100
AcDbEntity
  8
TRMODEL1
  6
Continuous
 62
     2
100
AcDbLine
 10
21.1231692353
 20
3.364738942
 30
0.0
 11
21.1231692353
 21
4.5429953665
 31
0.0
  0
LINE
  5
9C
330
1F
100
AcDbEntity
  8
TRMODEL1
  6
Continuous
 62
     2
100
AcDbLine
 10
21.3731692353
 20
4.7929953665
 30
0.0
 11
21.3731692353
 21
6.0429953665
 31
0.0
  0
LINE
  5
9D
330
1F
100
AcDbEntity
  8
TRMODEL1
  6
Continuous
 62
     2
100
AcDbLine
 10
21.3731692353
 20
3.5590551744
 30
0.0
 11
21.3731692353
 21
4.5429953665
 31
0.0
  0
LINE
  5
9E
330
1F
100
AcDbEntity
  8
TRMODEL1
  6
Continuous
 62
     2
100
AcDbLine
 10
22.1732672163
 20
4.7929953665
 30
0.0
 11
21.3731692353
 21
4.7929953665
 31
0.0
  0
LINE
  5
9F
330
1F
100
AcDbEntity
  8
TRMODEL1
  6
Continuous
 62
     2
100
AcDbLine
 10
22.0258422865
 20
4.5429953665
 30
0.0
 11
21.3731692353
 21
4.5429953665
 31
0.0
  0
LINE
  5
A0
330
1F
100
AcDbEntity
  8
TRMODEL1
  6
Continuous
 62
     2
100
AcDbLine
 10
22.613294182
 20
6.2929953665
 30
0.0
 11
22.6165512886
 21
6.2376619688
 31
0.0
  0
LINE
  5
A1
330
1F
100
AcDbEntity
  8
TRMODEL1
  6
Continuous
 62
     2
100
AcDbLine
 10
22.6165512886
 20
6.2376619688
 30
0.0
 11
22.6035647383
 21
6.0429953665
 31
0.0
  0
LINE
  5
A2
330
1F
100
AcDbEntity
  8
TRMODEL1
  6
Continuous
 62
     2
100
AcDbLine
 10
22.7651095446
 20
7.7929953665
 30
0.0
 11
21.3731692353
 21
7.7929953665
 31
0.0
  0
LINE
  5
A3
330
1F
100
AcDbEntity
  8
TRMODEL1
  6
Continuous
 62
     2
100
AcDbLine
 10
22.6936337
 20
7.5429953665
 30
0.0
 11
21.3731692353
 21
7.5429953665
 31
0.0
  0
LINE
  5
A4
330
1F
100
AcDbEntity
  8
TRMODEL1
  6
Continuous
 62
     2
100
AcDbLine
 10
22.9495962721
 20
9.0429953665
 30
0.0
 11
21.3731692353
 21
9.0429953665
 31
0.0
  0
LINE
  5
A5
330
1F
100
AcDbEntity
  8
TRMODEL1
  6
Continuous
 62
     4
100
AcDbLine
 10
19.4356692353
 20
9.1679953665
 30
0.0
 11
19.4356692353
 21
10.9516491615
 31
0.0
  0
LINE
  5
A6
330
1F
100
AcDbEntity
  8
TRMODEL1
  6
Continuous
 62
     4
100
AcDbLine
 10
19.4356692354
 20
7.7929953665
 30
0.0
 11
19.4356692354
 21
9.0429953665
 31
0.0
  0
LINE
  5
A7
330
1F
100
AcDbEntity
  8
TRMODEL1
  6
Continuous
 62
     2
100
AcDbLine
 10
21.1231692353
 20
7.7929953665
 30
0.0
 11
21.1231692353
 21
9.0429953665
 31
0.0
  0
LINE
  5
A8
330
1F
100
AcDbEntity
  8
TRMODEL1
  6
Continuous
 62
     2
100
AcDbLine
 10
21.3731692353
 20
7.7929953665
 30
0.0
 11
21.3731692353
 21
9.0429953665
 31
0.0
  0
LINE
  5
A9
330
1F
100
AcDbEntity
  8
TRMODEL1
  6
Continuous
 62
     2
100
AcDbLine
 10
22.7651095446
 20
7.7929953665
 30
0.0
 11
22.6936337
 21
7.5429953665
 31
0.0
  0
LINE
  5
AA
330
1F
100
AcDbEntity
  8
TRMODEL1
  6
Continuous
 62
     2
370
    60
100
AcDbLine
 10
0.015
 20
12.6930573409
 30
0.0
 11
12.7132350901
 21
12.6930573409
 31
0.0
  0
LINE
  5
AB
330
1F
100
AcDbEntity
  8
TRMODEL1
  6
Continuous
 62
     2
370
    60
100
AcDbLine
 10
12.7132350901
 20
12.6930573409
 30
0.0
 11
12.7132350901
 21
4.817980164
 31
0.0
  0
LINE
  5
AC
330
1F
100
AcDbEntity
  8
TRMODEL1
  6
Continuous
 62
     2
370
    60
100
AcDbLine
 10
12.7132350901
 20
4.817980164
 30
0.0
 11
0.015
 21
4.817980164
 31
0.0
  0
LINE
  5
AD
330
1F
100
AcDbEntity
  8
TRMODEL1
  6
Continuous
 62
     2
370
    60
100
AcDbLine
 10
0.015
 20
4.817980164
 30
0.0
 11
0.015
 21
12.6930573409
 31
0.0
  0
LINE
  5
AE
330
1F
100
AcDbEntity
  8
TRMODEL1
  6
Continuous
 62
     2
100
AcDbLine
 10
2.3009719066
 20
5.4681976178
 30
0.0
 11
1.9494094066
 21
5.5267913678
 31
0.0
  0
LINE
  5
AF
330
1F
100
AcDbEntity
  8
TRMODEL1
  6
Continuous
 62
     2
100
AcDbLine
 10
1.9494094066
 20
5.5267913678
 30
0.0
 11
2.3009719066
 21
5.5853851178
 31
0.0
  0
LINE
  5
B0
330
1F
100
AcDbEntity
  8
TRMODEL1
  6
Continuous
 62
     2
100
AcDbLine
 10
2.3009719066
 20
5.5853851178
 30
0.0
 11
2.3009719066
 21
5.4681976178
 31
0.0
  0
LINE
  5
B1
330
1F
100
AcDbEntity
  8
TRMODEL1
  6
Continuous
 62
     4
100
AcDbLine
 10
1.2143784164
 20
5.5013117259
 30
0.0
 11
1.2143784164
 21
5.6924972006
 31
0.0
  0
LINE
  5
B2
330
1F
100
AcDbEntity
  8
TRMODEL1
  6
Continuous
 62
     4
100
AcDbLine
 10
1.2143784164
 20
5.6924972006
 30
0.0
 11
1.3107951465
 21
5.5227827764
 31
0.0
  0
LINE
  5
B3
330
1F
100
AcDbEntity
  8
TRMODEL1
  6
Continuous
 62
     4
100
AcDbLine
 10
1.4207692741
 20
5.8255575543
 30
0.0
 11
1.2143784164
 21
5.6924972006
 31
0.0
  0
LINE
  5
B4
330
1F
100
AcDbEntity
  8
TRMODEL1
  6
Continuous
 62
     4
100
AcDbLine
 10
1.3107951465
 20
5.3315973017
 30
0.0
 11
1.3107951465
 21
5.5227827764
 31
0.0
  0
LINE
  5
B5
330
1F
100
AcDbEntity
  8
TRMODEL1
  6
Continuous
 62
     4
100
AcDbLine
 10
1.3107951465
 20
5.5227827764
 30
0.0
 11
1.6136027343
 21
5.4861287058
 31
0.0
  0
LINE
  5
B6
330
1F
100
AcDbEntity
  8
TRMODEL1
  6
Continuous
 62
     4
100
AcDbLine
 10
1.276038224
 20
5.6558431301
 30
0.0
 11
1.276038224
 21
5.671845731
 31
0.0
  0
LINE
  5
B7
330
1F
100
AcDbEntity
  8
TRMODEL1
  6
Continuous
 62
     4
100
AcDbLine
 10
1.6136027343
 20
5.2949432311
 30
0.0
 11
1.6136027343
 21
5.4861287058
 31
0.0
  0
LINE
  5
B8
330
1F
100
AcDbEntity
  8
TRMODEL1
  6
Continuous
 62
     4
100
AcDbLine
 10
1.6136027343
 20
5.4861287058
 30
0.0
 11
1.819993592
 21
5.6191890595
 31
0.0
  0
LINE
  5
B9
330
1F
100
AcDbEntity
  8
TRMODEL1
  6
Continuous
 62
     4
100
AcDbLine
 10
1.819993592
 20
5.4280035848
 30
0.0
 11
1.819993592
 21
5.6191890595
 31
0.0
  0
LINE
  5
BA
330
1F
100
AcDbEntity
  8
TRMODEL1
  6
Continuous
 62
     4
100
AcDbLine
 10
1.819993592
 20
5.6191890595
 30
0.0
 11
1.7235768619
 21
5.7889034837
 31
0.0
  0
LINE
  5
BB
330
1F
100
AcDbEntity
  8
TRMODEL1
  6
Continuous
 62
     4
100
AcDbLine
 10
1.7583337845
 20
5.671845731
 30
0.0
 11
1.7583337845
 21
5.6558431301
 31
0.0
  0
LINE
  5
BC
330
1F
100
AcDbEntity
  8
TRMODEL1
  6
Continuous
 62
     4
100
AcDbLine
 10
1.7235768619
 20
5.7889034837
 30
0.0
 11
1.5790622656
 21
5.8063965996
 31
0.0
  0
LINE
  5
BD
330
1F
100
AcDbEntity
  8
TRMODEL1
  6
Continuous
 62
     4
100
AcDbLine
 10
1.5541485004
 20
5.809412346
 30
0.0
 11
1.4207692741
 21
5.8255575543
 31
0.0
  0
LINE
  5
BE
330
1F
100
AcDbEntity
  8
TRMODEL1
  6
Continuous
 62
     4
100
AcDbLine
 10
1.7583337845
 20
5.6558431301
 30
0.0
 11
1.7577415672
 21
5.6460927249
 31
0.0
  0
LINE
  5
BF
330
1F
100
AcDbEntity
  8
TRMODEL1
  6
Continuous
 62
     4
100
AcDbLine
 10
1.7577415672
 20
5.6460927249
 30
0.0
 11
1.7442642396
 21
5.6089876807
 31
0.0
  0
LINE
  5
C0
330
1F
100
AcDbEntity
  8
TRMODEL1
  6
Continuous
 62
     4
100
AcDbLine
 10
1.7442642396
 20
5.6089876807
 30
0.0
 11
1.7139455581
 21
5.5753576908
 31
0.0
  0
LINE
  5
C1
330
1F
100
AcDbEntity
  8
TRMODEL1
  6
Continuous
 62
     4
100
AcDbLine
 10
1.7139455581
 20
5.5753576908
 30
0.0
 11
1.6690341206
 21
5.5476969377
 31
0.0
  0
LINE
  5
C2
330
1F
100
AcDbEntity
  8
TRMODEL1
  6
Continuous
 62
     4
100
AcDbLine
 10
1.6690341206
 20
5.5476969377
 30
0.0
 11
1.612860803
 21
5.528056893
 31
0.0
  0
LINE
  5
C3
330
1F
100
AcDbEntity
  8
TRMODEL1
  6
Continuous
 62
     4
100
AcDbLine
 10
1.612860803
 20
5.528056893
 30
0.0
 11
1.5495917232
 21
5.5178941688
 31
0.0
  0
LINE
  5
C4
330
1F
100
AcDbEntity
  8
TRMODEL1
  6
Continuous
 62
     4
100
AcDbLine
 10
1.5495917232
 20
5.5178941688
 30
0.0
 11
1.4839192595
 21
5.5179624881
 31
0.0
  0
LINE
  5
C5
330
1F
100
AcDbEntity
  8
TRMODEL1
  6
Continuous
 62
     4
100
AcDbLine
 10
1.4839192595
 20
5.5179624881
 30
0.0
 11
1.420714038
 21
5.5282567838
 31
0.0
  0
LINE
  5
C6
330
1F
100
AcDbEntity
  8
TRMODEL1
  6
Continuous
 62
     4
100
AcDbLine
 10
1.420714038
 20
5.5282567838
 30
0.0
 11
1.364663701
 21
5.5480135752
 31
0.0
  0
LINE
  5
C7
330
1F
100
AcDbEntity
  8
TRMODEL1
  6
Continuous
 62
     4
100
AcDbLine
 10
1.364663701
 20
5.5480135752
 30
0.0
 11
1.3199252455
 21
5.5757675913
 31
0.0
  0
LINE
  5
C8
330
1F
100
AcDbEntity
  8
TRMODEL1
  6
Continuous
 62
     4
100
AcDbLine
 10
1.3199252455
 20
5.5757675913
 30
0.0
 11
1.289816718
 21
5.6094604439
 31
0.0
  0
LINE
  5
C9
330
1F
100
AcDbEntity
  8
TRMODEL1
  6
Continuous
 62
     4
100
AcDbLine
 10
1.289816718
 20
5.6094604439
 30
0.0
 11
1.2765711303
 21
5.646593288
 31
0.0
  0
LINE
  5
CA
330
1F
100
AcDbEntity
  8
TRMODEL1
  6
Continuous
 62
     4
100
AcDbLine
 10
1.2765711303
 20
5.646593288
 30
0.0
 11
1.276038224
 21
5.6558431301
 31
0.0
  0
LINE
  5
CB
330
1F
100
AcDbEntity
  8
TRMODEL1
  6
Continuous
 62
     4
100
AcDbLine
 10
1.819993592
 20
5.4280035848
 30
0.0
 11
1.7459798638
 21
5.3658548605
 31
0.0
  0
LINE
  5
CC
330
1F
100
AcDbEntity
  8
TRMODEL1
  6
Continuous
 62
     4
100
AcDbLine
 10
1.7459798638
 20
5.3658548605
 30
0.0
 11
1.6687855605
 21
5.3183534709
 31
0.0
  0
LINE
  5
CD
330
1F
100
AcDbEntity
  8
TRMODEL1
  6
Continuous
 62
     4
100
AcDbLine
 10
1.6687855605
 20
5.3183534709
 30
0.0
 11
1.6136027343
 21
5.2949432311
 31
0.0
  0
LINE
  5
CE
330
1F
100
AcDbEntity
  8
TRMODEL1
  6
Continuous
 62
     4
100
AcDbLine
 10
1.2811708471
 20
5.7004147517
 30
0.0
 11
1.3032747284
 21
5.7361147808
 31
0.0
  0
LINE
  5
CF
330
1F
100
AcDbEntity
  8
TRMODEL1
  6
Continuous
 62
     4
100
AcDbLine
 10
1.3032747284
 20
5.7361147808
 30
0.0
 11
1.3412434304
 21
5.7670482684
 31
0.0
  0
LINE
  5
D0
330
1F
100
AcDbEntity
  8
TRMODEL1
  6
Continuous
 62
     4
100
AcDbLine
 10
1.3412434304
 20
5.7670482684
 30
0.0
 11
1.3922609883
 21
5.7909210194
 31
0.0
  0
LINE
  5
D1
330
1F
100
AcDbEntity
  8
TRMODEL1
  6
Continuous
 62
     4
100
AcDbLine
 10
1.3922609883
 20
5.7909210194
 30
0.0
 11
1.4525436631
 21
5.805962501
 31
0.0
  0
LINE
  5
D2
330
1F
100
AcDbEntity
  8
TRMODEL1
  6
Continuous
 62
     4
100
AcDbLine
 10
1.4525436631
 20
5.805962501
 30
0.0
 11
1.5176205646
 21
5.8110571553
 31
0.0
  0
LINE
  5
D3
330
1F
100
AcDbEntity
  8
TRMODEL1
  6
Continuous
 62
     4
100
AcDbLine
 10
1.5176205646
 20
5.8110571553
 30
0.0
 11
1.5826652368
 21
5.8058271351
 31
0.0
  0
LINE
  5
D4
330
1F
100
AcDbEntity
  8
TRMODEL1
  6
Continuous
 62
     4
100
AcDbLine
 10
1.5826652368
 20
5.8058271351
 30
0.0
 11
1.6428536138
 21
5.7906603271
 31
0.0
  0
LINE
  5
D5
330
1F
100
AcDbEntity
  8
TRMODEL1
  6
Continuous
 62
     4
100
AcDbLine
 10
1.6428536138
 20
5.7906603271
 30
0.0
 11
1.6937217991
 21
5.7666815841
 31
0.0
  0
LINE
  5
D6
330
1F
100
AcDbEntity
  8
TRMODEL1
  6
Continuous
 62
     4
100
AcDbLine
 10
1.6937217991
 20
5.7666815841
 30
0.0
 11
1.7314971321
 21
5.7356692997
 31
0.0
  0
LINE
  5
D7
330
1F
100
AcDbEntity
  8
TRMODEL1
  6
Continuous
 62
     4
100
AcDbLine
 10
1.7314971321
 20
5.7356692997
 30
0.0
 11
1.7533779892
 21
5.6999235131
 31
0.0
  0
LINE
  5
D8
330
1F
100
AcDbEntity
  8
TRMODEL1
  6
Continuous
 62
     4
100
AcDbLine
 10
1.7533779892
 20
5.6999235131
 30
0.0
 11
1.7577415672
 21
5.6620953259
 31
0.0
  0
LINE
  5
D9
330
1F
100
AcDbEntity
  8
TRMODEL1
  6
Continuous
 62
     4
100
AcDbLine
 10
1.7577415672
 20
5.6620953259
 30
0.0
 11
1.7442642396
 21
5.6249902817
 31
0.0
  0
LINE
  5
DA
330
1F
100
AcDbEntity
  8
TRMODEL1
  6
Continuous
 62
     4
100
AcDbLine
 10
1.7442642396
 20
5.6249902817
 30
0.0
 11
1.7139455581
 21
5.5913602918
 31
0.0
  0
LINE
  5
DB
330
1F
100
AcDbEntity
  8
TRMODEL1
  6
Continuous
 62
     4
100
AcDbLine
 10
1.7139455581
 20
5.5913602918
 30
0.0
 11
1.6690341206
 21
5.5636995387
 31
0.0
  0
LINE
  5
DC
330
1F
100
AcDbEntity
  8
TRMODEL1
  6
Continuous
 62
     4
100
AcDbLine
 10
1.6690341206
 20
5.5636995387
 30
0.0
 11
1.612860803
 21
5.5440594939
 31
0.0
  0
LINE
  5
DD
330
1F
100
AcDbEntity
  8
TRMODEL1
  6
Continuous
 62
     4
100
AcDbLine
 10
1.612860803
 20
5.5440594939
 30
0.0
 11
1.5495917232
 21
5.5338967698
 31
0.0
  0
LINE
  5
DE
330
1F
100
AcDbEntity
  8
TRMODEL1
  6
Continuous
 62
     4
100
AcDbLine
 10
1.5495917232
 20
5.5338967698
 30
0.0
 11
1.4839192595
 21
5.5339650891
 31
0.0
  0
LINE
  5
DF
330
1F
100
AcDbEntity
  8
TRMODEL1
  6
Continuous
 62
     4
100
AcDbLine
 10
1.4839192595
 20
5.5339650891
 30
0.0
 11
1.420714038
 21
5.5442593848
 31
0.0
  0
LINE
  5
E0
330
1F
100
AcDbEntity
  8
TRMODEL1
  6
Continuous
 62
     4
100
AcDbLine
 10
1.420714038
 20
5.5442593848
 30
0.0
 11
1.364663701
 21
5.5640161762
 31
0.0
  0
LINE
  5
E1
330
1F
100
AcDbEntity
  8
TRMODEL1
  6
Continuous
 62
     4
100
AcDbLine
 10
1.364663701
 20
5.5640161762
 30
0.0
 11
1.3199252455
 21
5.5917701923
 31
0.0
  0
LINE
  5
E2
330
1F
100
AcDbEntity
  8
TRMODEL1
  6
Continuous
 62
     4
100
AcDbLine
 10
1.3199252455
 20
5.5917701923
 30
0.0
 11
1.289816718
 21
5.6254630448
 31
0.0
  0
LINE
  5
E3
330
1F
100
AcDbEntity
  8
TRMODEL1
  6
Continuous
 62
     4
100
AcDbLine
 10
1.289816718
 20
5.6254630448
 30
0.0
 11
1.2765711303
 21
5.662595889
 31
0.0
  0
LINE
  5
E4
330
1F
100
AcDbEntity
  8
TRMODEL1
  6
Continuous
 62
     4
100
AcDbLine
 10
1.2765711303
 20
5.662595889
 30
0.0
 11
1.2811708471
 21
5.7004147517
 31
0.0
  0
LINE
  5
E5
330
1F
100
AcDbEntity
  8
TRMODEL1
  6
Continuous
 62
     4
100
AcDbLine
 10
1.6136027343
 20
5.2949432311
 30
0.0
 11
1.5535756829
 21
5.2924427261
 31
0.0
  0
LINE
  5
E6
330
1F
100
AcDbEntity
  8
TRMODEL1
  6
Continuous
 62
     4
100
AcDbLine
 10
1.5535756829
 20
5.2924427261
 30
0.0
 11
1.4527853874
 21
5.2986927001
 31
0.0
  0
LINE
  5
E7
330
1F
100
AcDbEntity
  8
TRMODEL1
  6
Continuous
 62
     4
100
AcDbLine
 10
1.4527853874
 20
5.2986927001
 30
0.0
 11
1.3492463734
 21
5.32022137
 31
0.0
  0
LINE
  5
E8
330
1F
100
AcDbEntity
  8
TRMODEL1
  6
Continuous
 62
     4
100
AcDbLine
 10
1.3492463734
 20
5.32022137
 30
0.0
 11
1.3107951465
 21
5.3315973017
 31
0.0
  0
LINE
  5
E9
330
1F
100
AcDbEntity
  8
TRMODEL1
  6
Continuous
 62
     4
100
AcDbLine
 10
1.3107951465
 20
5.3315973017
 30
0.0
 11
1.2762191884
 21
5.3780264978
 31
0.0
  0
LINE
  5
EA
330
1F
100
AcDbEntity
  8
TRMODEL1
  6
Continuous
 62
     4
100
AcDbLine
 10
1.2762191884
 20
5.3780264978
 30
0.0
 11
1.2401574055
 21
5.4437689228
 31
0.0
  0
LINE
  5
EB
330
1F
100
AcDbEntity
  8
TRMODEL1
  6
Continuous
 62
     4
100
AcDbLine
 10
1.2401574055
 20
5.4437689228
 30
0.0
 11
1.2143784164
 21
5.5013117259
 31
0.0
  0
LINE
  5
EC
330
1F
100
AcDbEntity
  8
TRMODEL1
  6
Continuous
 62
     4
100
AcDbLine
 10
1.3967058859
 20
5.6864295359
 30
0.0
 11
1.4155444781
 21
5.71193569
 31
0.0
  0
LINE
  5
ED
330
1F
100
AcDbEntity
  8
TRMODEL1
  6
Continuous
 62
     4
100
AcDbLine
 10
1.4155444781
 20
5.71193569
 30
0.0
 11
1.4498570713
 21
5.7313385113
 31
0.0
  0
LINE
  5
EE
330
1F
100
AcDbEntity
  8
TRMODEL1
  6
Continuous
 62
     4
100
AcDbLine
 10
1.4498570713
 20
5.7313385113
 30
0.0
 11
1.4944198841
 21
5.7416840961
 31
0.0
  0
LINE
  5
EF
330
1F
100
AcDbEntity
  8
TRMODEL1
  6
Continuous
 62
     4
100
AcDbLine
 10
1.4944198841
 20
5.7416840961
 30
0.0
 11
1.5424486324
 21
5.7413974229
 31
0.0
  0
LINE
  5
F0
330
1F
100
AcDbEntity
  8
TRMODEL1
  6
Continuous
 62
     4
100
AcDbLine
 10
1.5424486324
 20
5.7413974229
 30
0.0
 11
1.5866313745
 21
5.7305221351
 31
0.0
  0
LINE
  5
F1
330
1F
100
AcDbEntity
  8
TRMODEL1
  6
Continuous
 62
     4
100
AcDbLine
 10
1.5866313745
 20
5.7305221351
 30
0.0
 11
1.6202416886
 21
5.7107138967
 31
0.0
  0
LINE
  5
F2
330
1F
100
AcDbEntity
  8
TRMODEL1
  6
Continuous
 62
     4
100
AcDbLine
 10
1.6202416886
 20
5.7107138967
 30
0.0
 11
1.6381627089
 21
5.6849883324
 31
0.0
  0
LINE
  5
F3
330
1F
100
AcDbEntity
  8
TRMODEL1
  6
Continuous
 62
     4
100
AcDbLine
 10
1.6381627089
 20
5.6849883324
 30
0.0
 11
1.6376661225
 21
5.6572619262
 31
0.0
  0
LINE
  5
F4
330
1F
100
AcDbEntity
  8
TRMODEL1
  6
Continuous
 62
     4
100
AcDbLine
 10
1.6376661225
 20
5.6572619262
 30
0.0
 11
1.6188275303
 21
5.6317557721
 31
0.0
  0
LINE
  5
F5
330
1F
100
AcDbEntity
  8
TRMODEL1
  6
Continuous
 62
     4
100
AcDbLine
 10
1.6188275303
 20
5.6317557721
 30
0.0
 11
1.5845149372
 21
5.6123529508
 31
0.0
  0
LINE
  5
F6
330
1F
100
AcDbEntity
  8
TRMODEL1
  6
Continuous
 62
     4
100
AcDbLine
 10
1.5845149372
 20
5.6123529508
 30
0.0
 11
1.5399521243
 21
5.602007366
 31
0.0
  0
LINE
  5
F7
330
1F
100
AcDbEntity
  8
TRMODEL1
  6
Continuous
 62
     4
100
AcDbLine
 10
1.5399521243
 20
5.602007366
 30
0.0
 11
1.491923376
 21
5.6022940392
 31
0.0
  0
LINE
  5
F8
330
1F
100
AcDbEntity
  8
TRMODEL1
  6
Continuous
 62
     4
100
AcDbLine
 10
1.491923376
 20
5.6022940392
 30
0.0
 11
1.4477406339
 21
5.613169327
 31
0.0
  0
LINE
  5
F9
330
1F
100
AcDbEntity
  8
TRMODEL1
  6
Continuous
 62
     4
100
AcDbLine
 10
1.4477406339
 20
5.613169327
 30
0.0
 11
1.4141303199
 21
5.6329775654
 31
0.0
  0
LINE
  5
FA
330
1F
100
AcDbEntity
  8
TRMODEL1
  6
Continuous
 62
     4
100
AcDbLine
 10
1.4141303199
 20
5.6329775654
 30
0.0
 11
1.3962092996
 21
5.6587031296
 31
0.0
  0
LINE
  5
FB
330
1F
100
AcDbEntity
  8
TRMODEL1
  6
Continuous
 62
     4
100
AcDbLine
 10
1.3962092996
 20
5.6587031296
 30
0.0
 11
1.3967058859
 21
5.6864295359
 31
0.0
  0
LINE
  5
FC
330
1F
100
AcDbEntity
  8
TRMODEL1
  6
Continuous
 62
     2
100
AcDbLine
 10
2.3009719066
 20
5.5267913678
 30
0.0
 11
4.098585748
 21
5.5267913678
 31
0.0
  0
LINE
  5
FD
330
1F
100
AcDbEntity
  8
TRMODEL1
  6
Continuous
 62
     2
100
AcDbLine
 10
2.2431870752
 20
11.7576612442
 30
0.0
 11
1.8916245752
 21
11.8162549942
 31
0.0
  0
LINE
  5
FE
330
1F
100
AcDbEntity
  8
TRMODEL1
  6
Continuous
 62
     2
100
AcDbLine
 10
1.8916245752
 20
11.8162549942
 30
0.0
 11
2.2431870752
 21
11.8748487442
 31
0.0
  0
LINE
  5
FF
330
1F
100
AcDbEntity
  8
TRMODEL1
  6
Continuous
 62
     2
100
AcDbLine
 10
2.2431870752
 20
11.8748487442
 30
0.0
 11
2.2431870752
 21
11.7576612442
 31
0.0
  0
LINE
  5
100
330
1F
100
AcDbEntity
  8
TRMODEL1
  6
Continuous
 62
     2
100
AcDbLine
 10
2.4229533364
 20
6.973325104
 30
0.0
 11
2.0713908364
 21
7.031918854
 31
0.0
  0
LINE
  5
101
330
1F
100
AcDbEntity
  8
TRMODEL1
  6
Continuous
 62
     2
100
AcDbLine
 10
2.0713908364
 20
7.031918854
 30
0.0
 11
2.4229533364
 21
7.090512604
 31
0.0
  0
LINE
  5
102
330
1F
100
AcDbEntity
  8
TRMODEL1
  6
Continuous
 62
     2
100
AcDbLine
 10
2.4229533364
 20
7.090512604
 30
0.0
 11
2.4229533364
 21
6.973325104
 31
0.0
  0
LINE
  5
103
330
1F
100
AcDbEntity
  8
TRMODEL1
  6
Continuous
 62
     4
100
AcDbLine
 10
2.123749654
 20
8.8361126497
 30
0.0
 11
1.6906900205
 21
8.5861126447
 31
0.0
  0
LINE
  5
104
330
1F
100
AcDbEntity
  8
TRMODEL1
  6
Continuous
 62
     4
100
AcDbLine
 10
2.0948329988
 20
8.3886840813
 30
0.0
 11
2.5278926323
 21
8.6386840863
 31
0.0
  0
LINE
  5
105
330
1F
100
AcDbEntity
  8
TRMODEL1
  6
Continuous
 62
     4
100
AcDbLine
 10
1.7657076774
 20
8.5786840851
 30
0.0
 11
2.1987673108
 21
8.8286840901
 31
0.0
  0
LINE
  5
106
330
1F
100
AcDbEntity
  8
TRMODEL1
  6
Continuous
 62
     4
100
AcDbLine
 10
2.0948329988
 20
8.3886840813
 30
0.0
 11
2.1155320059
 21
8.374380613
 31
0.0
  0
LINE
  5
107
330
1F
100
AcDbEntity
  8
TRMODEL1
  6
Continuous
 62
     4
100
AcDbLine
 10
2.1155320059
 20
8.374380613
 30
0.0
 11
2.1354355618
 21
8.3559184475
 31
0.0
  0
LINE
  5
108
330
1F
100
AcDbEntity
  8
TRMODEL1
  6
Continuous
 62
     4
100
AcDbLine
 10
2.1354355618
 20
8.3559184475
 30
0.0
 11
2.153778784
 21
8.3340070753
 31
0.0
  0
LINE
  5
109
330
1F
100
AcDbEntity
  8
TRMODEL1
  6
Continuous
 62
     4
100
AcDbLine
 10
2.153778784
 20
8.3340070753
 30
0.0
 11
2.1698567527
 21
8.3094885382
 31
0.0
  0
LINE
  5
10A
330
1F
100
AcDbEntity
  8
TRMODEL1
  6
Continuous
 62
     4
100
AcDbLine
 10
2.1698567527
 20
8.3094885382
 30
0.0
 11
2.1830516006
 21
8.2833050698
 31
0.0
  0
LINE
  5
10B
330
1F
100
AcDbEntity
  8
TRMODEL1
  6
Continuous
 62
     4
100
AcDbLine
 10
2.1830516006
 20
8.2833050698
 30
0.0
 11
2.1928562571
 21
8.2564628862
 31
0.0
  0
LINE
  5
10C
330
1F
100
AcDbEntity
  8
TRMODEL1
  6
Continuous
 62
     4
100
AcDbLine
 10
2.1928562571
 20
8.2564628862
 30
0.0
 11
2.1988939347
 21
8.2299935173
 31
0.0
  0
LINE
  5
10D
330
1F
100
AcDbEntity
  8
TRMODEL1
  6
Continuous
 62
     4
100
AcDbLine
 10
2.1988939347
 20
8.2299935173
 30
0.0
 11
2.200932609
 21
8.2049141663
 31
0.0
  0
LINE
  5
10E
330
1F
100
AcDbEntity
  8
TRMODEL1
  6
Continuous
 62
     4
100
AcDbLine
 10
2.0948329988
 20
8.3261739212
 30
0.0
 11
2.104971288
 21
8.3191681408
 31
0.0
  0
LINE
  5
10F
330
1F
100
AcDbEntity
  8
TRMODEL1
  6
Continuous
 62
     4
100
AcDbLine
 10
2.104971288
 20
8.3191681408
 30
0.0
 11
2.1147199684
 21
8.3101254475
 31
0.0
  0
LINE
  5
110
330
1F
100
AcDbEntity
  8
TRMODEL1
  6
Continuous
 62
     4
100
AcDbLine
 10
2.1147199684
 20
8.3101254475
 30
0.0
 11
2.1237044038
 21
8.2993933468
 31
0.0
  0
LINE
  5
111
330
1F
100
AcDbEntity
  8
TRMODEL1
  6
Continuous
 62
     4
100
AcDbLine
 10
2.1237044038
 20
8.2993933468
 30
0.0
 11
2.1315793272
 21
8.2873842674
 31
0.0
  0
LINE
  5
112
330
1F
100
AcDbEntity
  8
TRMODEL1
  6
Continuous
 62
     4
100
AcDbLine
 10
2.1315793272
 20
8.2873842674
 30
0.0
 11
2.1380421099
 21
8.2745597115
 31
0.0
  0
LINE
  5
113
330
1F
100
AcDbEntity
  8
TRMODEL1
  6
Continuous
 62
     4
100
AcDbLine
 10
2.1380421099
 20
8.2745597115
 30
0.0
 11
2.1428443906
 21
8.2614125195
 31
0.0
  0
LINE
  5
114
330
1F
100
AcDbEntity
  8
TRMODEL1
  6
Continuous
 62
     4
100
AcDbLine
 10
2.1428443906
 20
8.2614125195
 30
0.0
 11
2.1458016205
 21
8.2484479307
 31
0.0
  0
LINE
  5
115
330
1F
100
AcDbEntity
  8
TRMODEL1
  6
Continuous
 62
     4
100
AcDbLine
 10
2.1458016205
 20
8.2484479307
 30
0.0
 11
2.1468001548
 21
8.2361641669
 31
0.0
  0
LINE
  5
116
330
1F
100
AcDbEntity
  8
TRMODEL1
  6
Continuous
 62
     2
100
AcDbLine
 10
1.6629123014
 20
10.4748454462
 30
0.0
 11
1.6702804119
 21
10.4501085106
 31
0.0
  0
LINE
  5
117
330
1F
100
AcDbEntity
  8
TRMODEL1
  6
Continuous
 62
     2
100
AcDbLine
 10
1.6702804119
 20
10.4501085106
 30
0.0
 11
1.6608967879
 21
10.4235438916
 31
0.0
  0
LINE
  5
118
330
1F
100
AcDbEntity
  8
TRMODEL1
  6
Continuous
 62
     2
100
AcDbLine
 10
1.6608967879
 20
10.4235438916
 30
0.0
 11
1.6352470476
 21
10.4004581762
 31
0.0
  0
LINE
  5
119
330
1F
100
AcDbEntity
  8
TRMODEL1
  6
Continuous
 62
     2
100
AcDbLine
 10
1.6352470476
 20
10.4004581762
 30
0.0
 11
1.5962303403
 21
10.3837197727
 31
0.0
  0
LINE
  5
11A
330
1F
100
AcDbEntity
  8
TRMODEL1
  6
Continuous
 62
     2
100
AcDbLine
 10
1.5962303403
 20
10.3837197727
 30
0.0
 11
1.5482692014
 21
10.3755689809
 31
0.0
  0
LINE
  5
11B
330
1F
100
AcDbEntity
  8
TRMODEL1
  6
Continuous
 62
     2
100
AcDbLine
 10
1.5482692014
 20
10.3755689809
 30
0.0
 11
1.4967869136
 21
10.3772039391
 31
0.0
  0
LINE
  5
11C
330
1F
100
AcDbEntity
  8
TRMODEL1
  6
Continuous
 62
     2
100
AcDbLine
 10
1.4967869136
 20
10.3772039391
 30
0.0
 11
1.447615163
 21
10.3887562054
 31
0.0
  0
LINE
  5
11D
330
1F
100
AcDbEntity
  8
TRMODEL1
  6
Continuous
 62
     2
100
AcDbLine
 10
1.447615163
 20
10.3887562054
 30
0.0
 11
1.4063189154
 21
10.4092292641
 31
0.0
  0
LINE
  5
11E
330
1F
100
AcDbEntity
  8
TRMODEL1
  6
Continuous
 62
     2
100
AcDbLine
 10
1.4063189154
 20
10.4092292641
 30
0.0
 11
1.3775709425
 21
10.4365876427
 31
0.0
  0
LINE
  5
11F
330
1F
100
AcDbEntity
  8
TRMODEL1
  6
Continuous
 62
     2
100
AcDbLine
 10
1.3775709425
 20
10.4365876427
 30
0.0
 11
1.3646284827
 21
10.468071706
 31
0.0
  0
LINE
  5
120
330
1F
100
AcDbEntity
  8
TRMODEL1
  6
Continuous
 62
     2
100
AcDbLine
 10
1.3646284827
 20
10.468071706
 30
0.0
 11
1.3689548777
 21
10.5003860205
 31
0.0
  0
LINE
  5
121
330
1F
100
AcDbEntity
  8
TRMODEL1
  6
Continuous
 62
     2
100
AcDbLine
 10
1.3689548777
 20
10.5003860205
 30
0.0
 11
1.3701427917
 21
10.5020649095
 31
0.0
  0
LINE
  5
122
330
1F
100
AcDbEntity
  8
TRMODEL1
  6
Continuous
 62
     2
100
AcDbLine
 10
1.6617593247
 20
10.575103745
 30
0.0
 11
1.6701464672
 21
10.5548000378
 31
0.0
  0
LINE
  5
123
330
1F
100
AcDbEntity
  8
TRMODEL1
  6
Continuous
 62
     2
100
AcDbLine
 10
1.6701464672
 20
10.5548000378
 30
0.0
 11
1.6637310897
 21
10.5279920673
 31
0.0
  0
LINE
  5
124
330
1F
100
AcDbEntity
  8
TRMODEL1
  6
Continuous
 62
     2
100
AcDbLine
 10
1.6637310897
 20
10.5279920673
 30
0.0
 11
1.6407266536
 21
10.5040710352
 31
0.0
  0
LINE
  5
125
330
1F
100
AcDbEntity
  8
TRMODEL1
  6
Continuous
 62
     2
100
AcDbLine
 10
1.6407266536
 20
10.5040710352
 30
0.0
 11
1.6037383301
 21
10.4860627668
 31
0.0
  0
LINE
  5
126
330
1F
100
AcDbEntity
  8
TRMODEL1
  6
Continuous
 62
     2
100
AcDbLine
 10
1.6037383301
 20
10.4860627668
 30
0.0
 11
1.5569531391
 21
10.4763159796
 31
0.0
  0
LINE
  5
127
330
1F
100
AcDbEntity
  8
TRMODEL1
  6
Continuous
 62
     2
100
AcDbLine
 10
1.5569531391
 20
10.4763159796
 30
0.0
 11
1.5056640193
 21
10.4762124769
 31
0.0
  0
LINE
  5
128
330
1F
100
AcDbEntity
  8
TRMODEL1
  6
Continuous
 62
     2
100
AcDbLine
 10
1.5056640193
 20
10.4762124769
 30
0.0
 11
1.4556831854
 21
10.4861100635
 31
0.0
  0
LINE
  5
129
330
1F
100
AcDbEntity
  8
TRMODEL1
  6
Continuous
 62
     2
100
AcDbLine
 10
1.4556831854
 20
10.4861100635
 30
0.0
 11
1.4126594756
 21
10.5051451597
 31
0.0
  0
LINE
  5
12A
330
1F
100
AcDbEntity
  8
TRMODEL1
  6
Continuous
 62
     2
100
AcDbLine
 10
1.4126594756
 20
10.5051451597
 30
0.0
 11
1.3814717613
 21
10.5315133009
 31
0.0
  0
LINE
  5
12B
330
1F
100
AcDbEntity
  8
TRMODEL1
  6
Continuous
 62
     2
100
AcDbLine
 10
1.3814717613
 20
10.5315133009
 30
0.0
 11
1.3656445571
 21
10.5624971334
 31
0.0
  0
LINE
  5
12C
330
1F
100
AcDbEntity
  8
TRMODEL1
  6
Continuous
 62
     2
100
AcDbLine
 10
1.3656445571
 20
10.5624971334
 30
0.0
 11
1.3669720869
 21
10.5949196744
 31
0.0
  0
LINE
  5
12D
330
1F
100
AcDbEntity
  8
TRMODEL1
  6
Continuous
 62
     2
100
AcDbLine
 10
1.3669720869
 20
10.5949196744
 30
0.0
 11
1.370268845
 21
10.6004019157
 31
0.0
  0
LINE
  5
12E
330
1F
100
AcDbEntity
  8
TRMODEL1
  6
Continuous
 62
     2
100
AcDbLine
 10
1.3643152362
 20
10.5743723583
 30
0.0
 11
1.3722587847
 21
10.5432406306
 31
0.0
  0
LINE
  5
12F
330
1F
100
AcDbEntity
  8
TRMODEL1
  6
Continuous
 62
     2
100
AcDbLine
 10
1.3722587847
 20
10.5432406306
 30
0.0
 11
1.396837991
 21
10.5144051198
 31
0.0
  0
LINE
  5
130
330
1F
100
AcDbEntity
  8
TRMODEL1
  6
Continuous
 62
     2
100
AcDbLine
 10
1.396837991
 20
10.5144051198
 30
0.0
 11
1.4350430681
 21
10.4917747381
 31
0.0
  0
LINE
  5
131
330
1F
100
AcDbEntity
  8
TRMODEL1
  6
Continuous
 62
     2
100
AcDbLine
 10
1.4350430681
 20
10.4917747381
 30
0.0
 11
1.4825432927
 21
10.4775711459
 31
0.0
  0
LINE
  5
132
330
1F
100
AcDbEntity
  8
TRMODEL1
  6
Continuous
 62
     2
100
AcDbLine
 10
1.4825432927
 20
10.4775711459
 30
0.0
 11
1.5339676367
 21
10.4731241756
 31
0.0
  0
LINE
  5
133
330
1F
100
AcDbEntity
  8
TRMODEL1
  6
Continuous
 62
     2
100
AcDbLine
 10
1.5339676367
 20
10.4731241756
 30
0.0
 11
1.5834908179
 21
10.4786204602
 31
0.0
  0
LINE
  5
134
330
1F
100
AcDbEntity
  8
TRMODEL1
  6
Continuous
 62
     2
100
AcDbLine
 10
1.5834908179
 20
10.4786204602
 30
0.0
 11
1.6255083062
 21
10.4931269941
 31
0.0
  0
LINE
  5
135
330
1F
100
AcDbEntity
  8
TRMODEL1
  6
Continuous
 62
     2
100
AcDbLine
 10
1.6255083062
 20
10.4931269941
 30
0.0
 11
1.6552655718
 21
10.5147224989
 31
0.0
  0
LINE
  5
136
330
1F
100
AcDbEntity
  8
TRMODEL1
  6
Continuous
 62
     2
100
AcDbLine
 10
1.6552655718
 20
10.5147224989
 30
0.0
 11
1.6693910758
 21
10.5406181752
 31
0.0
  0
LINE
  5
137
330
1F
100
AcDbEntity
  8
TRMODEL1
  6
Continuous
 62
     2
100
AcDbLine
 10
1.6693910758
 20
10.5406181752
 30
0.0
 11
1.668395028
 21
10.5492859297
 31
0.0
  0
LINE
  5
138
330
1F
100
AcDbEntity
  8
TRMODEL1
  6
Continuous
 62
     2
100
AcDbLine
 10
1.3661416024
 20
10.5243016468
 30
0.0
 11
1.3653726539
 21
10.5118394527
 31
0.0
  0
LINE
  5
139
330
1F
100
AcDbEntity
  8
TRMODEL1
  6
Continuous
 62
     2
100
AcDbLine
 10
1.3653726539
 20
10.5118394527
 30
0.0
 11
1.3805579769
 21
10.4807230362
 31
0.0
  0
LINE
  5
13A
330
1F
100
AcDbEntity
  8
TRMODEL1
  6
Continuous
 62
     2
100
AcDbLine
 10
1.3805579769
 20
10.4807230362
 30
0.0
 11
1.4112109972
 21
10.4541386475
 31
0.0
  0
LINE
  5
13B
330
1F
100
AcDbEntity
  8
TRMODEL1
  6
Continuous
 62
     2
100
AcDbLine
 10
1.4112109972
 20
10.4541386475
 30
0.0
 11
1.4538581268
 21
10.4347658414
 31
0.0
  0
LINE
  5
13C
330
1F
100
AcDbEntity
  8
TRMODEL1
  6
Continuous
 62
     2
100
AcDbLine
 10
1.4538581268
 20
10.4347658414
 30
0.0
 11
1.503675004
 21
10.4245051628
 31
0.0
  0
LINE
  5
13D
330
1F
100
AcDbEntity
  8
TRMODEL1
  6
Continuous
 62
     2
100
AcDbLine
 10
1.503675004
 20
10.4245051628
 30
0.0
 11
1.5550214571
 21
10.4242146156
 31
0.0
  0
LINE
  5
13E
330
1F
100
AcDbEntity
  8
TRMODEL1
  6
Continuous
 62
     2
100
AcDbLine
 10
1.5550214571
 20
10.4242146156
 30
0.0
 11
1.6020837062
 21
10.4336081611
 31
0.0
  0
LINE
  5
13F
330
1F
100
AcDbEntity
  8
TRMODEL1
  6
Continuous
 62
     2
100
AcDbLine
 10
1.6020837062
 20
10.4336081611
 30
0.0
 11
1.6395376243
 21
10.4513454397
 31
0.0
  0
LINE
  5
140
330
1F
100
AcDbEntity
  8
TRMODEL1
  6
Continuous
 62
     2
100
AcDbLine
 10
1.6395376243
 20
10.4513454397
 30
0.0
 11
1.6631397207
 21
10.4750740849
 31
0.0
  0
LINE
  5
141
330
1F
100
AcDbEntity
  8
TRMODEL1
  6
Continuous
 62
     2
100
AcDbLine
 10
1.6631397207
 20
10.4750740849
 30
0.0
 11
1.6695739879
 21
10.4994044695
 31
0.0
  0
LINE
  5
142
330
1F
100
AcDbEntity
  8
TRMODEL1
  6
Continuous
 62
     2
100
AcDbLine
 10
1.6610682532
 20
10.5253603041
 30
0.0
 11
1.6677099447
 21
10.5159628215
 31
0.0
  0
LINE
  5
143
330
1F
100
AcDbEntity
  8
TRMODEL1
  6
Continuous
 62
     2
100
AcDbLine
 10
1.6677099447
 20
10.5159628215
 30
0.0
 11
1.6684831226
 21
10.4889067105
 31
0.0
  0
LINE
  5
144
330
1F
100
AcDbEntity
  8
TRMODEL1
  6
Continuous
 62
     2
100
AcDbLine
 10
1.6684831226
 20
10.4889067105
 30
0.0
 11
1.6521305512
 21
10.4634091797
 31
0.0
  0
LINE
  5
145
330
1F
100
AcDbEntity
  8
TRMODEL1
  6
Continuous
 62
     2
100
AcDbLine
 10
1.6521305512
 20
10.4634091797
 30
0.0
 11
1.6205007337
 21
10.4426181936
 31
0.0
  0
LINE
  5
146
330
1F
100
AcDbEntity
  8
TRMODEL1
  6
Continuous
 62
     2
100
AcDbLine
 10
1.6205007337
 20
10.4426181936
 30
0.0
 11
1.5771779866
 21
10.429223791
 31
0.0
  0
LINE
  5
147
330
1F
100
AcDbEntity
  8
TRMODEL1
  6
Continuous
 62
     2
100
AcDbLine
 10
1.5771779866
 20
10.429223791
 30
0.0
 11
1.5270631117
 21
10.4250310277
 31
0.0
  0
LINE
  5
148
330
1F
100
AcDbEntity
  8
TRMODEL1
  6
Continuous
 62
     2
100
AcDbLine
 10
1.5270631117
 20
10.4250310277
 30
0.0
 11
1.4758300511
 21
10.4308193428
 31
0.0
  0
LINE
  5
149
330
1F
100
AcDbEntity
  8
TRMODEL1
  6
Continuous
 62
     2
100
AcDbLine
 10
1.4758300511
 20
10.4308193428
 30
0.0
 11
1.429279674
 21
10.4462515992
 31
0.0
  0
LINE
  5
14A
330
1F
100
AcDbEntity
  8
TRMODEL1
  6
Continuous
 62
     2
100
AcDbLine
 10
1.429279674
 20
10.4462515992
 30
0.0
 11
1.3926781778
 21
10.4698594026
 31
0.0
  0
LINE
  5
14B
330
1F
100
AcDbEntity
  8
TRMODEL1
  6
Continuous
 62
     2
100
AcDbLine
 10
1.3926781778
 20
10.4698594026
 30
0.0
 11
1.3701725745
 21
10.4993110897
 31
0.0
  0
LINE
  5
14C
330
1F
100
AcDbEntity
  8
TRMODEL1
  6
Continuous
 62
     2
100
AcDbLine
 10
1.3701725745
 20
10.4993110897
 30
0.0
 11
1.3643072835
 21
10.5315355334
 31
0.0
  0
LINE
  5
14D
330
1F
100
AcDbEntity
  8
TRMODEL1
  6
Continuous
 62
     2
100
AcDbLine
 10
1.3643072835
 20
10.5315355334
 30
0.0
 11
1.3707154929
 21
10.5492889781
 31
0.0
  0
LINE
  5
14E
330
1F
100
AcDbEntity
  8
TRMODEL1
  6
Continuous
 62
     4
100
AcDbLine
 10
0.8245707536
 20
9.5861126647
 30
0.0
 11
0.3915111201
 21
9.3361126597
 31
0.0
  0
LINE
  5
14F
330
1F
100
AcDbEntity
  8
TRMODEL1
  6
Continuous
 62
     4
100
AcDbLine
 10
0.414561621
 20
8.9211129801
 30
0.0
 11
0.3604291668
 21
8.9523629807
 31
0.0
  0
LINE
  5
150
330
1F
100
AcDbEntity
  8
TRMODEL1
  6
Continuous
 62
     4
100
AcDbLine
 10
0.3604291668
 20
9.2674141876
 30
0.0
 11
0.362467841
 21
9.2901397354
 31
0.0
  0
LINE
  5
151
330
1F
100
AcDbEntity
  8
TRMODEL1
  6
Continuous
 62
     4
100
AcDbLine
 10
0.362467841
 20
9.2901397354
 30
0.0
 11
0.3685055187
 21
9.30963815
 31
0.0
  0
LINE
  5
152
330
1F
100
AcDbEntity
  8
TRMODEL1
  6
Continuous
 62
     4
100
AcDbLine
 10
0.3685055187
 20
9.30963815
 30
0.0
 11
0.3783101752
 21
9.3251601181
 31
0.0
  0
LINE
  5
153
330
1F
100
AcDbEntity
  8
TRMODEL1
  6
Continuous
 62
     4
100
AcDbLine
 10
0.3783101752
 20
9.3251601181
 30
0.0
 11
0.3915050231
 21
9.3361091394
 31
0.0
  0
LINE
  5
154
330
1F
100
AcDbEntity
  8
TRMODEL1
  6
Continuous
 62
     4
100
AcDbLine
 10
0.3915050231
 20
9.3361091394
 30
0.0
 11
0.4075829918
 21
9.342064449
 31
0.0
  0
LINE
  5
155
330
1F
100
AcDbEntity
  8
TRMODEL1
  6
Continuous
 62
     4
100
AcDbLine
 10
0.4075829918
 20
9.342064449
 30
0.0
 11
0.425926214
 21
9.3427971877
 31
0.0
  0
LINE
  5
156
330
1F
100
AcDbEntity
  8
TRMODEL1
  6
Continuous
 62
     4
100
AcDbLine
 10
0.425926214
 20
9.3427971877
 30
0.0
 11
0.4458297699
 21
9.3382791968
 31
0.0
  0
LINE
  5
157
330
1F
100
AcDbEntity
  8
TRMODEL1
  6
Continuous
 62
     4
100
AcDbLine
 10
0.4458297699
 20
9.3382791968
 30
0.0
 11
0.466528777
 21
9.3286841001
 31
0.0
  0
LINE
  5
158
330
1F
100
AcDbEntity
  8
TRMODEL1
  6
Continuous
 62
     4
100
AcDbLine
 10
0.3604291668
 20
8.9523629807
 30
0.0
 11
0.3604291668
 21
9.2674141876
 31
0.0
  0
LINE
  5
159
330
1F
100
AcDbEntity
  8
TRMODEL1
  6
Continuous
 62
     2
100
AcDbLine
 10
1.6623945075
 20
10.2249148363
 30
0.0
 11
1.6702893397
 21
10.201937062
 31
0.0
  0
LINE
  5
15A
330
1F
100
AcDbEntity
  8
TRMODEL1
  6
Continuous
 62
     2
100
AcDbLine
 10
1.6702893397
 20
10.201937062
 30
0.0
 11
1.662086177
 21
10.175256115
 31
0.0
  0
LINE
  5
15B
330
1F
100
AcDbEntity
  8
TRMODEL1
  6
Continuous
 62
     2
100
AcDbLine
 10
1.662086177
 20
10.175256115
 30
0.0
 11
1.6374820242
 21
10.1518324452
 31
0.0
  0
LINE
  5
15C
330
1F
100
AcDbEntity
  8
TRMODEL1
  6
Continuous
 62
     2
100
AcDbLine
 10
1.6374820242
 20
10.1518324452
 30
0.0
 11
1.5992580922
 21
10.1345750901
 31
0.0
  0
LINE
  5
15D
330
1F
100
AcDbEntity
  8
TRMODEL1
  6
Continuous
 62
     2
100
AcDbLine
 10
1.5992580922
 20
10.1345750901
 30
0.0
 11
1.5517471057
 21
10.1257850219
 31
0.0
  0
LINE
  5
15E
330
1F
100
AcDbEntity
  8
TRMODEL1
  6
Continuous
 62
     2
100
AcDbLine
 10
1.5517471057
 20
10.1257850219
 30
0.0
 11
1.5003206964
 21
10.1267265304
 31
0.0
  0
LINE
  5
15F
330
1F
100
AcDbEntity
  8
TRMODEL1
  6
Continuous
 62
     2
100
AcDbLine
 10
1.5003206964
 20
10.1267265304
 30
0.0
 11
1.4508057118
 21
10.1376193001
 31
0.0
  0
LINE
  5
160
330
1F
100
AcDbEntity
  8
TRMODEL1
  6
Continuous
 62
     2
100
AcDbLine
 10
1.4508057118
 20
10.1376193001
 30
0.0
 11
1.4088040553
 21
10.1575299959
 31
0.0
  0
LINE
  5
161
330
1F
100
AcDbEntity
  8
TRMODEL1
  6
Continuous
 62
     2
100
AcDbLine
 10
1.4088040553
 20
10.1575299959
 30
0.0
 11
1.3790702615
 21
10.1844985865
 31
0.0
  0
LINE
  5
162
330
1F
100
AcDbEntity
  8
TRMODEL1
  6
Continuous
 62
     2
100
AcDbLine
 10
1.3790702615
 20
10.1844985865
 30
0.0
 11
1.3649717947
 21
10.2157992748
 31
0.0
  0
LINE
  5
163
330
1F
100
AcDbEntity
  8
TRMODEL1
  6
Continuous
 62
     2
100
AcDbLine
 10
1.3649717947
 20
10.2157992748
 30
0.0
 11
1.368103368
 21
10.2481644835
 31
0.0
  0
LINE
  5
164
330
1F
100
AcDbEntity
  8
TRMODEL1
  6
Continuous
 62
     2
100
AcDbLine
 10
1.368103368
 20
10.2481644835
 30
0.0
 11
1.3702217681
 21
10.2513520814
 31
0.0
  0
LINE
  5
165
330
1F
100
AcDbEntity
  8
TRMODEL1
  6
Continuous
 62
     2
100
AcDbLine
 10
1.6620437433
 20
10.3755354324
 30
0.0
 11
1.6649270681
 21
10.3723066646
 31
0.0
  0
LINE
  5
166
330
1F
100
AcDbEntity
  8
TRMODEL1
  6
Continuous
 62
     2
100
AcDbLine
 10
1.6649270681
 20
10.3723066646
 30
0.0
 11
1.6698940374
 21
10.3454015671
 31
0.0
  0
LINE
  5
167
330
1F
100
AcDbEntity
  8
TRMODEL1
  6
Continuous
 62
     2
100
AcDbLine
 10
1.6698940374
 20
10.3454015671
 30
0.0
 11
1.6575750899
 21
10.3192179128
 31
0.0
  0
LINE
  5
168
330
1F
100
AcDbEntity
  8
TRMODEL1
  6
Continuous
 62
     2
100
AcDbLine
 10
1.6575750899
 20
10.3192179128
 30
0.0
 11
1.6293639624
 21
10.2970203038
 31
0.0
  0
LINE
  5
169
330
1F
100
AcDbEntity
  8
TRMODEL1
  6
Continuous
 62
     2
100
AcDbLine
 10
1.6293639624
 20
10.2970203038
 30
0.0
 11
1.5884560094
 21
10.2816457011
 31
0.0
  0
LINE
  5
16A
330
1F
100
AcDbEntity
  8
TRMODEL1
  6
Continuous
 62
     2
100
AcDbLine
 10
1.5884560094
 20
10.2816457011
 30
0.0
 11
1.5394778964
 21
10.2751095432
 31
0.0
  0
LINE
  5
16B
330
1F
100
AcDbEntity
  8
TRMODEL1
  6
Continuous
 62
     2
100
AcDbLine
 10
1.5394778964
 20
10.2751095432
 30
0.0
 11
1.4879797962
 21
10.2784920746
 31
0.0
  0
LINE
  5
16C
330
1F
100
AcDbEntity
  8
TRMODEL1
  6
Continuous
 62
     2
100
AcDbLine
 10
1.4879797962
 20
10.2784920746
 30
0.0
 11
1.4397840675
 21
10.2916752576
 31
0.0
  0
LINE
  5
16D
330
1F
100
AcDbEntity
  8
TRMODEL1
  6
Continuous
 62
     2
100
AcDbLine
 10
1.4397840675
 20
10.2916752576
 30
0.0
 11
1.4003534932
 21
10.3135099216
 31
0.0
  0
LINE
  5
16E
330
1F
100
AcDbEntity
  8
TRMODEL1
  6
Continuous
 62
     2
100
AcDbLine
 10
1.4003534932
 20
10.3135099216
 30
0.0
 11
1.3741455721
 21
10.3417972774
 31
0.0
  0
LINE
  5
16F
330
1F
100
AcDbEntity
  8
TRMODEL1
  6
Continuous
 62
     2
100
AcDbLine
 10
1.3741455721
 20
10.3417972774
 30
0.0
 11
1.3641306207
 21
10.3736595994
 31
0.0
  0
LINE
  5
170
330
1F
100
AcDbEntity
  8
TRMODEL1
  6
Continuous
 62
     2
100
AcDbLine
 10
1.3641306207
 20
10.3736595994
 30
0.0
 11
1.3705389349
 21
10.4018248785
 31
0.0
  0
LINE
  5
171
330
1F
100
AcDbEntity
  8
TRMODEL1
  6
Continuous
 62
     2
100
AcDbLine
 10
1.36546977
 20
10.4744274301
 30
0.0
 11
1.3696267787
 21
10.4486048051
 31
0.0
  0
LINE
  5
172
330
1F
100
AcDbEntity
  8
TRMODEL1
  6
Continuous
 62
     2
100
AcDbLine
 10
1.3696267787
 20
10.4486048051
 30
0.0
 11
1.3915276468
 21
10.4190000948
 31
0.0
  0
LINE
  5
173
330
1F
100
AcDbEntity
  8
TRMODEL1
  6
Continuous
 62
     2
100
AcDbLine
 10
1.3915276468
 20
10.4190000948
 30
0.0
 11
1.4276520975
 21
10.3951100338
 31
0.0
  0
LINE
  5
174
330
1F
100
AcDbEntity
  8
TRMODEL1
  6
Continuous
 62
     2
100
AcDbLine
 10
1.4276520975
 20
10.3951100338
 30
0.0
 11
1.4739110699
 21
10.3793290832
 31
0.0
  0
LINE
  5
175
330
1F
100
AcDbEntity
  8
TRMODEL1
  6
Continuous
 62
     2
100
AcDbLine
 10
1.4739110699
 20
10.3793290832
 30
0.0
 11
1.5250707804
 21
10.3731626611
 31
0.0
  0
LINE
  5
176
330
1F
100
AcDbEntity
  8
TRMODEL1
  6
Continuous
 62
     2
100
AcDbLine
 10
1.5250707804
 20
10.3731626611
 30
0.0
 11
1.5753340995
 21
10.3769639802
 31
0.0
  0
LINE
  5
177
330
1F
100
AcDbEntity
  8
TRMODEL1
  6
Continuous
 62
     2
100
AcDbLine
 10
1.5753340995
 20
10.3769639802
 30
0.0
 11
1.6190200712
 21
10.3900490164
 31
0.0
  0
LINE
  5
178
330
1F
100
AcDbEntity
  8
TRMODEL1
  6
Continuous
 62
     2
100
AcDbLine
 10
1.6190200712
 20
10.3900490164
 30
0.0
 11
1.6511746938
 21
10.4105791297
 31
0.0
  0
LINE
  5
179
330
1F
100
AcDbEntity
  8
TRMODEL1
  6
Continuous
 62
     2
100
AcDbLine
 10
1.6511746938
 20
10.4105791297
 30
0.0
 11
1.6681642784
 21
10.4359718997
 31
0.0
  0
LINE
  5
17A
330
1F
100
AcDbEntity
  8
TRMODEL1
  6
Continuous
 62
     2
100
AcDbLine
 10
1.6681642784
 20
10.4359718997
 30
0.0
 11
1.6681141191
 21
10.449334453
 31
0.0
  0
LINE
  5
17B
330
1F
100
AcDbEntity
  8
TRMODEL1
  6
Continuous
 62
     2
100
AcDbLine
 10
1.3655298107
 20
10.4242480767
 30
0.0
 11
1.3644719317
 21
10.4174099117
 31
0.0
  0
LINE
  5
17C
330
1F
100
AcDbEntity
  8
TRMODEL1
  6
Continuous
 62
     2
100
AcDbLine
 10
1.3644719317
 20
10.4174099117
 30
0.0
 11
1.3767632456
 21
10.3858357508
 31
0.0
  0
LINE
  5
17D
330
1F
100
AcDbEntity
  8
TRMODEL1
  6
Continuous
 62
     2
100
AcDbLine
 10
1.3767632456
 20
10.3858357508
 30
0.0
 11
1.404951046
 21
10.3582622303
 31
0.0
  0
LINE
  5
17E
330
1F
100
AcDbEntity
  8
TRMODEL1
  6
Continuous
 62
     2
100
AcDbLine
 10
1.404951046
 20
10.3582622303
 30
0.0
 11
1.445841246
 21
10.3374764116
 31
0.0
  0
LINE
  5
17F
330
1F
100
AcDbEntity
  8
TRMODEL1
  6
Continuous
 62
     2
100
AcDbLine
 10
1.445841246
 20
10.3374764116
 30
0.0
 11
1.4948111421
 21
10.3255631724
 31
0.0
  0
LINE
  5
180
330
1F
100
AcDbEntity
  8
TRMODEL1
  6
Continuous
 62
     2
100
AcDbLine
 10
1.4948111421
 20
10.3255631724
 30
0.0
 11
1.546309713
 21
10.3235266837
 31
0.0
  0
LINE
  5
181
330
1F
100
AcDbEntity
  8
TRMODEL1
  6
Continuous
 62
     2
100
AcDbLine
 10
1.546309713
 20
10.3235266837
 30
0.0
 11
1.5945153094
 21
10.3313330508
 31
0.0
  0
LINE
  5
182
330
1F
100
AcDbEntity
  8
TRMODEL1
  6
Continuous
 62
     2
100
AcDbLine
 10
1.5945153094
 20
10.3313330508
 30
0.0
 11
1.6339643538
 21
10.3477579371
 31
0.0
  0
LINE
  5
183
330
1F
100
AcDbEntity
  8
TRMODEL1
  6
Continuous
 62
     2
100
AcDbLine
 10
1.6339643538
 20
10.3477579371
 30
0.0
 11
1.6601962878
 21
10.3706644163
 31
0.0
  0
LINE
  5
184
330
1F
100
AcDbEntity
  8
TRMODEL1
  6
Continuous
 62
     2
100
AcDbLine
 10
1.6601962878
 20
10.3706644163
 30
0.0
 11
1.6702391327
 21
10.3971434624
 31
0.0
  0
LINE
  5
185
330
1F
100
AcDbEntity
  8
TRMODEL1
  6
Continuous
 62
     2
100
AcDbLine
 10
1.6702391327
 20
10.3971434624
 30
0.0
 11
1.6696578378
 21
10.3992782727
 31
0.0
  0
LINE
  5
186
330
1F
100
AcDbEntity
  8
TRMODEL1
  6
Continuous
 62
     2
100
AcDbLine
 10
1.3661164812
 20
10.3743758893
 30
0.0
 11
1.3674969196
 21
10.3540558702
 31
0.0
  0
LINE
  5
187
330
1F
100
AcDbEntity
  8
TRMODEL1
  6
Continuous
 62
     2
100
AcDbLine
 10
1.3674969196
 20
10.3540558702
 30
0.0
 11
1.3866434718
 21
10.3237653359
 31
0.0
  0
LINE
  5
188
330
1F
100
AcDbEntity
  8
TRMODEL1
  6
Continuous
 62
     2
100
AcDbLine
 10
1.3866434718
 20
10.3237653359
 30
0.0
 11
1.4205651961
 21
10.2986839944
 31
0.0
  0
LINE
  5
189
330
1F
100
AcDbEntity
  8
TRMODEL1
  6
Continuous
 62
     2
100
AcDbLine
 10
1.4205651961
 20
10.2986839944
 30
0.0
 11
1.4654276306
 21
10.281387366
 31
0.0
  0
LINE
  5
18A
330
1F
100
AcDbEntity
  8
TRMODEL1
  6
Continuous
 62
     2
100
AcDbLine
 10
1.4654276306
 20
10.281387366
 30
0.0
 11
1.5161445728
 21
10.2734848335
 31
0.0
  0
LINE
  5
18B
330
1F
100
AcDbEntity
  8
TRMODEL1
  6
Continuous
 62
     2
100
AcDbLine
 10
1.5161445728
 20
10.2734848335
 30
0.0
 11
1.5669836533
 21
10.2756054657
 31
0.0
  0
LINE
  5
18C
330
1F
100
AcDbEntity
  8
TRMODEL1
  6
Continuous
 62
     2
100
AcDbLine
 10
1.5669836533
 20
10.2756054657
 30
0.0
 11
1.6121828795
 21
10.2871759731
 31
0.0
  0
LINE
  5
18D
330
1F
100
AcDbEntity
  8
TRMODEL1
  6
Continuous
 62
     2
100
AcDbLine
 10
1.6121828795
 20
10.2871759731
 30
0.0
 11
1.6466298763
 21
10.3065963493
 31
0.0
  0
LINE
  5
18E
330
1F
100
AcDbEntity
  8
TRMODEL1
  6
Continuous
 62
     2
100
AcDbLine
 10
1.6466298763
 20
10.3065963493
 30
0.0
 11
1.6664239769
 21
10.3313653317
 31
0.0
  0
LINE
  5
18F
330
1F
100
AcDbEntity
  8
TRMODEL1
  6
Continuous
 62
     2
100
AcDbLine
 10
1.6664239769
 20
10.3313653317
 30
0.0
 11
1.6683598484
 21
10.3493777566
 31
0.0
  0
LINE
  5
190
330
1F
100
AcDbEntity
  8
TRMODEL1
  6
Continuous
 62
     2
100
AcDbLine
 10
1.3644082187
 20
10.3242776079
 30
0.0
 11
1.3640904319
 21
10.3229991302
 31
0.0
  0
LINE
  5
191
330
1F
100
AcDbEntity
  8
TRMODEL1
  6
Continuous
 62
     2
100
AcDbLine
 10
1.3640904319
 20
10.3229991302
 30
0.0
 11
1.3734463283
 21
10.2910772006
 31
0.0
  0
LINE
  5
192
330
1F
100
AcDbEntity
  8
TRMODEL1
  6
Continuous
 62
     2
100
AcDbLine
 10
1.3734463283
 20
10.2910772006
 30
0.0
 11
1.3990715333
 21
10.2625789665
 31
0.0
  0
LINE
  5
193
330
1F
100
AcDbEntity
  8
TRMODEL1
  6
Continuous
 62
     2
100
AcDbLine
 10
1.3990715333
 20
10.2625789665
 30
0.0
 11
1.4380697877
 21
10.2404659642
 31
0.0
  0
LINE
  5
194
330
1F
100
AcDbEntity
  8
TRMODEL1
  6
Continuous
 62
     2
100
AcDbLine
 10
1.4380697877
 20
10.2404659642
 30
0.0
 11
1.4860208369
 21
10.2269047963
 31
0.0
  0
LINE
  5
195
330
1F
100
AcDbEntity
  8
TRMODEL1
  6
Continuous
 62
     2
100
AcDbLine
 10
1.4860208369
 20
10.2269047963
 30
0.0
 11
1.5375017521
 21
10.2231463298
 31
0.0
  0
LINE
  5
196
330
1F
100
AcDbEntity
  8
TRMODEL1
  6
Continuous
 62
     2
100
AcDbLine
 10
1.5375017521
 20
10.2231463298
 30
0.0
 11
1.5866822494
 21
10.2293076999
 31
0.0
  0
LINE
  5
197
330
1F
100
AcDbEntity
  8
TRMODEL1
  6
Continuous
 62
     2
100
AcDbLine
 10
1.5866822494
 20
10.2293076999
 30
0.0
 11
1.6279949886
 21
10.2443708446
 31
0.0
  0
LINE
  5
198
330
1F
100
AcDbEntity
  8
TRMODEL1
  6
Continuous
 62
     2
100
AcDbLine
 10
1.6279949886
 20
10.2443708446
 30
0.0
 11
1.6567666556
 21
10.2663615634
 31
0.0
  0
LINE
  5
199
330
1F
100
AcDbEntity
  8
TRMODEL1
  6
Continuous
 62
     2
100
AcDbLine
 10
1.6567666556
 20
10.2663615634
 30
0.0
 11
1.6697363559
 21
10.2924375943
 31
0.0
  0
LINE
  5
19A
330
1F
100
AcDbEntity
  8
TRMODEL1
  6
Continuous
 62
     2
100
AcDbLine
 10
1.6697363559
 20
10.2924375943
 30
0.0
 11
1.6686530929
 21
10.2992313415
 31
0.0
  0
LINE
  5
19B
330
1F
100
AcDbEntity
  8
TRMODEL1
  6
Continuous
 62
     2
100
AcDbLine
 10
1.3662396807
 20
10.2742874359
 30
0.0
 11
1.3658760038
 21
10.2595780872
 31
0.0
  0
LINE
  5
19C
330
1F
100
AcDbEntity
  8
TRMODEL1
  6
Continuous
 62
     2
100
AcDbLine
 10
1.3658760038
 20
10.2595780872
 30
0.0
 11
1.3822018948
 21
10.228675152
 31
0.0
  0
LINE
  5
19D
330
1F
100
AcDbEntity
  8
TRMODEL1
  6
Continuous
 62
     2
100
AcDbLine
 10
1.3822018948
 20
10.228675152
 30
0.0
 11
1.4138089852
 21
10.2025057587
 31
0.0
  0
LINE
  5
19E
330
1F
100
AcDbEntity
  8
TRMODEL1
  6
Continuous
 62
     2
100
AcDbLine
 10
1.4138089852
 20
10.2025057587
 30
0.0
 11
1.4571169216
 21
10.18371327
 31
0.0
  0
LINE
  5
19F
330
1F
100
AcDbEntity
  8
TRMODEL1
  6
Continuous
 62
     2
100
AcDbLine
 10
1.4571169216
 20
10.18371327
 30
0.0
 11
1.5072245135
 21
10.1741201135
 31
0.0
  0
LINE
  5
1A0
330
1F
100
AcDbEntity
  8
TRMODEL1
  6
Continuous
 62
     2
100
AcDbLine
 10
1.5072245135
 20
10.1741201135
 30
0.0
 11
1.5584612385
 21
10.1745210589
 31
0.0
  0
LINE
  5
1A1
330
1F
100
AcDbEntity
  8
TRMODEL1
  6
Continuous
 62
     2
100
AcDbLine
 10
1.5584612385
 20
10.1745210589
 30
0.0
 11
1.6050233549
 21
10.1845413521
 31
0.0
  0
LINE
  5
1A2
330
1F
100
AcDbEntity
  8
TRMODEL1
  6
Continuous
 62
     2
100
AcDbLine
 10
1.6050233549
 20
10.1845413521
 30
0.0
 11
1.6416449285
 21
10.2027764696
 31
0.0
  0
LINE
  5
1A3
330
1F
100
AcDbEntity
  8
TRMODEL1
  6
Continuous
 62
     2
100
AcDbLine
 10
1.6416449285
 20
10.2027764696
 30
0.0
 11
1.6641759889
 21
10.2268155539
 31
0.0
  0
LINE
  5
1A4
330
1F
100
AcDbEntity
  8
TRMODEL1
  6
Continuous
 62
     2
100
AcDbLine
 10
1.6641759889
 20
10.2268155539
 30
0.0
 11
1.6691264133
 21
10.2493813853
 31
0.0
  0
LINE
  5
1A5
330
1F
100
AcDbEntity
  8
TRMODEL1
  6
Continuous
 62
     2
100
AcDbLine
 10
1.365068842
 20
10.2243762704
 30
0.0
 11
1.3706166736
 21
10.1964057679
 31
0.0
  0
LINE
  5
1A6
330
1F
100
AcDbEntity
  8
TRMODEL1
  6
Continuous
 62
     2
100
AcDbLine
 10
1.3706166736
 20
10.1964057679
 30
0.0
 11
1.3935956535
 21
10.1671003923
 31
0.0
  0
LINE
  5
1A7
330
1F
100
AcDbEntity
  8
TRMODEL1
  6
Continuous
 62
     2
100
AcDbLine
 10
1.3935956535
 20
10.1671003923
 30
0.0
 11
1.4305646041
 21
10.1437028582
 31
0.0
  0
LINE
  5
1A8
330
1F
100
AcDbEntity
  8
TRMODEL1
  6
Continuous
 62
     2
100
AcDbLine
 10
1.4305646041
 20
10.1437028582
 30
0.0
 11
1.4773377854
 21
10.1285449347
 31
0.0
  0
LINE
  5
1A9
330
1F
100
AcDbEntity
  8
TRMODEL1
  6
Continuous
 62
     2
100
AcDbLine
 10
1.4773377854
 20
10.1285449347
 30
0.0
 11
1.528624369
 21
10.123067033
 31
0.0
  0
LINE
  5
1AA
330
1F
100
AcDbEntity
  8
TRMODEL1
  6
Continuous
 62
     2
100
AcDbLine
 10
1.528624369
 20
10.123067033
 30
0.0
 11
1.5786119713
 21
10.1275410949
 31
0.0
  0
LINE
  5
1AB
330
1F
100
AcDbEntity
  8
TRMODEL1
  6
Continuous
 62
     2
100
AcDbLine
 10
1.5786119713
 20
10.1275410949
 30
0.0
 11
1.6216511941
 21
10.1412077397
 31
0.0
  0
LINE
  5
1AC
330
1F
100
AcDbEntity
  8
TRMODEL1
  6
Continuous
 62
     2
100
AcDbLine
 10
1.6216511941
 20
10.1412077397
 30
0.0
 11
1.6528614228
 21
10.1621645393
 31
0.0
  0
LINE
  5
1AD
330
1F
100
AcDbEntity
  8
TRMODEL1
  6
Continuous
 62
     2
100
AcDbLine
 10
1.6528614228
 20
10.1621645393
 30
0.0
 11
1.6687154328
 21
10.1877759879
 31
0.0
  0
LINE
  5
1AE
330
1F
100
AcDbEntity
  8
TRMODEL1
  6
Continuous
 62
     2
100
AcDbLine
 10
1.6687154328
 20
10.1877759879
 30
0.0
 11
1.668163179
 21
10.1992665192
 31
0.0
  0
LINE
  5
1AF
330
1F
100
AcDbEntity
  8
TRMODEL1
  6
Continuous
 62
     2
100
AcDbLine
 10
1.3658359539
 20
10.1742149297
 30
0.0
 11
1.3647690268
 21
10.1651371005
 31
0.0
  0
LINE
  5
1B0
330
1F
100
AcDbEntity
  8
TRMODEL1
  6
Continuous
 62
     2
100
AcDbLine
 10
1.3647690268
 20
10.1651371005
 30
0.0
 11
1.378220107
 21
10.1337332882
 31
0.0
  0
LINE
  5
1B1
330
1F
100
AcDbEntity
  8
TRMODEL1
  6
Continuous
 62
     2
100
AcDbLine
 10
1.378220107
 20
10.1337332882
 30
0.0
 11
1.4074032114
 21
10.1065470195
 31
0.0
  0
LINE
  5
1B2
330
1F
100
AcDbEntity
  8
TRMODEL1
  6
Continuous
 62
     2
100
AcDbLine
 10
1.4074032114
 20
10.1065470195
 30
0.0
 11
1.4490104818
 21
10.0863133954
 31
0.0
  0
LINE
  5
1B3
330
1F
100
AcDbEntity
  8
TRMODEL1
  6
Continuous
 62
     2
100
AcDbLine
 10
1.4490104818
 20
10.0863133954
 30
0.0
 11
1.4983393505
 21
10.0750608488
 31
0.0
  0
LINE
  5
1B4
330
1F
100
AcDbEntity
  8
TRMODEL1
  6
Continuous
 62
     2
100
AcDbLine
 10
1.4983393505
 20
10.0750608488
 30
0.0
 11
1.54979715
 21
10.0737158463
 31
0.0
  0
LINE
  5
1B5
330
1F
100
AcDbEntity
  8
TRMODEL1
  6
Continuous
 62
     2
100
AcDbLine
 10
1.54979715
 20
10.0737158463
 30
0.0
 11
1.5975671134
 21
10.0821648749
 31
0.0
  0
LINE
  5
1B6
330
1F
100
AcDbEntity
  8
TRMODEL1
  6
Continuous
 62
     2
100
AcDbLine
 10
1.5975671134
 20
10.0821648749
 30
0.0
 11
1.6362355054
 21
10.0991167819
 31
0.0
  0
LINE
  5
1B7
330
1F
100
AcDbEntity
  8
TRMODEL1
  6
Continuous
 62
     2
100
AcDbLine
 10
1.6362355054
 20
10.0991167819
 30
0.0
 11
1.6614291113
 21
10.1223646323
 31
0.0
  0
LINE
  5
1B8
330
1F
100
AcDbEntity
  8
TRMODEL1
  6
Continuous
 62
     2
100
AcDbLine
 10
1.6614291113
 20
10.1223646323
 30
0.0
 11
1.6702945245
 21
10.1489745481
 31
0.0
  0
LINE
  5
1B9
330
1F
100
AcDbEntity
  8
TRMODEL1
  6
Continuous
 62
     2
100
AcDbLine
 10
1.6702945245
 20
10.1489745481
 30
0.0
 11
1.6701970503
 21
10.149281212
 31
0.0
  0
LINE
  5
1BA
330
1F
100
AcDbEntity
  8
TRMODEL1
  6
Continuous
 62
     2
100
AcDbLine
 10
1.6625019202
 20
10.1255847138
 30
0.0
 11
1.663952675
 21
10.1240560994
 31
0.0
  0
LINE
  5
1BB
330
1F
100
AcDbEntity
  8
TRMODEL1
  6
Continuous
 62
     2
100
AcDbLine
 10
1.663952675
 20
10.1240560994
 30
0.0
 11
1.670110478
 21
10.0972291616
 31
0.0
  0
LINE
  5
1BC
330
1F
100
AcDbEntity
  8
TRMODEL1
  6
Continuous
 62
     2
100
AcDbLine
 10
1.670110478
 20
10.0972291616
 30
0.0
 11
1.6589577425
 21
10.0708837578
 31
0.0
  0
LINE
  5
1BD
330
1F
100
AcDbEntity
  8
TRMODEL1
  6
Continuous
 62
     2
100
AcDbLine
 10
1.6589577425
 20
10.0708837578
 30
0.0
 11
1.6317568635
 21
10.0483181839
 31
0.0
  0
LINE
  5
1BE
330
1F
100
AcDbEntity
  8
TRMODEL1
  6
Continuous
 62
     2
100
AcDbLine
 10
1.6317568635
 20
10.0483181839
 30
0.0
 11
1.5915874066
 21
10.0323964572
 31
0.0
  0
LINE
  5
1BF
330
1F
100
AcDbEntity
  8
TRMODEL1
  6
Continuous
 62
     2
100
AcDbLine
 10
1.5915874066
 20
10.0323964572
 30
0.0
 11
1.5429943019
 21
10.0252072201
 31
0.0
  0
LINE
  5
1C0
330
1F
100
AcDbEntity
  8
TRMODEL1
  6
Continuous
 62
     2
100
AcDbLine
 10
1.5429943019
 20
10.0252072201
 30
0.0
 11
1.4914825083
 21
10.0278979534
 31
0.0
  0
LINE
  5
1C1
330
1F
100
AcDbEntity
  8
TRMODEL1
  6
Continuous
 62
     2
100
AcDbLine
 10
1.4914825083
 20
10.0278979534
 30
0.0
 11
1.4428767259
 21
10.0404303469
 31
0.0
  0
LINE
  5
1C2
330
1F
100
AcDbEntity
  8
TRMODEL1
  6
Continuous
 62
     2
100
AcDbLine
 10
1.4428767259
 20
10.0404303469
 30
0.0
 11
1.4026862905
 21
10.0617324041
 31
0.0
  0
LINE
  5
1C3
330
1F
100
AcDbEntity
  8
TRMODEL1
  6
Continuous
 62
     2
100
AcDbLine
 10
1.4026862905
 20
10.0617324041
 30
0.0
 11
1.3754539085
 21
10.089658484
 31
0.0
  0
LINE
  5
1C4
330
1F
100
AcDbEntity
  8
TRMODEL1
  6
Continuous
 62
     2
100
AcDbLine
 10
1.3754539085
 20
10.089658484
 30
0.0
 11
1.3642668424
 21
10.1213812483
 31
0.0
  0
LINE
  5
1C5
330
1F
100
AcDbEntity
  8
TRMODEL1
  6
Continuous
 62
     2
100
AcDbLine
 10
1.3642668424
 20
10.1213812483
 30
0.0
 11
1.370181083
 21
10.1525017436
 31
0.0
  0
LINE
  5
1C6
330
1F
100
AcDbEntity
  8
TRMODEL1
  6
Continuous
 62
     2
100
AcDbLine
 10
1.365920765
 20
10.1243568882
 30
0.0
 11
1.3682856803
 21
10.1018252515
 31
0.0
  0
LINE
  5
1C7
330
1F
100
AcDbEntity
  8
TRMODEL1
  6
Continuous
 62
     2
100
AcDbLine
 10
1.3682856803
 20
10.1018252515
 30
0.0
 11
1.3885392215
 21
10.0717999101
 31
0.0
  0
LINE
  5
1C8
330
1F
100
AcDbEntity
  8
TRMODEL1
  6
Continuous
 62
     2
100
AcDbLine
 10
1.3885392215
 20
10.0717999101
 30
0.0
 11
1.4233531751
 21
10.0471803084
 31
0.0
  0
LINE
  5
1C9
330
1F
100
AcDbEntity
  8
TRMODEL1
  6
Continuous
 62
     2
100
AcDbLine
 10
1.4233531751
 20
10.0471803084
 30
0.0
 11
1.4687921534
 21
10.030488381
 31
0.0
  0
LINE
  5
1CA
330
1F
100
AcDbEntity
  8
TRMODEL1
  6
Continuous
 62
     2
100
AcDbLine
 10
1.4687921534
 20
10.030488381
 30
0.0
 11
1.5197052464
 21
10.0232702448
 31
0.0
  0
LINE
  5
1CB
330
1F
100
AcDbEntity
  8
TRMODEL1
  6
Continuous
 62
     2
100
AcDbLine
 10
1.5197052464
 20
10.0232702448
 30
0.0
 11
1.5703365569
 21
10.0260692569
 31
0.0
  0
LINE
  5
1CC
330
1F
100
AcDbEntity
  8
TRMODEL1
  6
Continuous
 62
     2
100
AcDbLine
 10
1.5703365569
 20
10.0260692569
 30
0.0
 11
1.61494949
 21
10.0382456312
 31
0.0
  0
LINE
  5
1CD
330
1F
100
AcDbEntity
  8
TRMODEL1
  6
Continuous
 62
     2
100
AcDbLine
 10
1.61494949
 20
10.0382456312
 30
0.0
 11
1.6484962043
 21
10.0581199235
 31
0.0
  0
LINE
  5
1CE
330
1F
100
AcDbEntity
  8
TRMODEL1
  6
Continuous
 62
     2
100
AcDbLine
 10
1.6484962043
 20
10.0581199235
 30
0.0
 11
1.6671792441
 21
10.0831492117
 31
0.0
  0
LINE
  5
1CF
330
1F
100
AcDbEntity
  8
TRMODEL1
  6
Continuous
 62
     2
100
AcDbLine
 10
1.6671792441
 20
10.0831492117
 30
0.0
 11
1.6681987871
 21
10.0993158165
 31
0.0
  0
LINE
  5
1D0
330
1F
100
AcDbEntity
  8
TRMODEL1
  6
Continuous
 62
     2
100
AcDbLine
 10
1.6568884866
 20
10.0693628933
 30
0.0
 11
1.6625578806
 21
10.0538684288
 31
0.0
  0
LINE
  5
1D1
330
1F
100
AcDbEntity
  8
TRMODEL1
  6
Continuous
 62
     2
100
AcDbLine
 10
1.6625578806
 20
10.0538684288
 30
0.0
 11
1.6559510863
 21
10.0278177379
 31
0.0
  0
LINE
  5
1D2
330
1F
100
AcDbEntity
  8
TRMODEL1
  6
Continuous
 62
     2
100
AcDbLine
 10
1.6559510863
 20
10.0278177379
 30
0.0
 11
1.6336954148
 21
10.0041912792
 31
0.0
  0
LINE
  5
1D3
330
1F
100
AcDbEntity
  8
TRMODEL1
  6
Continuous
 62
     2
100
AcDbLine
 10
1.6336954148
 20
10.0041912792
 30
0.0
 11
1.59788943
 21
9.9858929252
 31
0.0
  0
LINE
  5
1D4
330
1F
100
AcDbEntity
  8
TRMODEL1
  6
Continuous
 62
     2
100
AcDbLine
 10
1.59788943
 20
9.9858929252
 30
0.0
 11
1.5637812379
 21
9.9770218023
 31
0.0
  0
LINE
  5
1D5
330
1F
100
AcDbEntity
  8
TRMODEL1
  6
Continuous
 62
     2
100
AcDbLine
 10
1.527723638
 20
9.9730389519
 30
0.0
 11
1.5323073137
 21
9.9732614834
 31
0.0
  0
LINE
  5
1D6
330
1F
100
AcDbEntity
  8
TRMODEL1
  6
Continuous
 62
     2
100
AcDbLine
 10
1.5323073137
 20
9.9732614834
 30
0.0
 11
1.5368773412
 21
9.973563402
 31
0.0
  0
LINE
  5
1D7
330
1F
100
AcDbEntity
  8
TRMODEL1
  6
Continuous
 62
     2
100
AcDbLine
 10
1.5368773412
 20
9.973563402
 30
0.0
 11
1.5414295958
 21
9.9739444352
 31
0.0
  0
LINE
  5
1D8
330
1F
100
AcDbEntity
  8
TRMODEL1
  6
Continuous
 62
     2
100
AcDbLine
 10
1.5414295958
 20
9.9739444352
 30
0.0
 11
1.5459599688
 21
9.974404239
 31
0.0
  0
LINE
  5
1D9
330
1F
100
AcDbEntity
  8
TRMODEL1
  6
Continuous
 62
     2
100
AcDbLine
 10
1.5459599688
 20
9.974404239
 30
0.0
 11
1.5504643712
 21
9.9749423984
 31
0.0
  0
LINE
  5
1DA
330
1F
100
AcDbEntity
  8
TRMODEL1
  6
Continuous
 62
     2
100
AcDbLine
 10
1.5504643712
 20
9.9749423984
 30
0.0
 11
1.5549387373
 21
9.9755584278
 31
0.0
  0
LINE
  5
1DB
330
1F
100
AcDbEntity
  8
TRMODEL1
  6
Continuous
 62
     2
100
AcDbLine
 10
1.5549387373
 20
9.9755584278
 30
0.0
 11
1.5593790288
 21
9.976251771
 31
0.0
  0
LINE
  5
1DC
330
1F
100
AcDbEntity
  8
TRMODEL1
  6
Continuous
 62
     2
100
AcDbLine
 10
1.5593790288
 20
9.976251771
 30
0.0
 11
1.5637812379
 21
9.9770218023
 31
0.0
  0
LINE
  5
1DD
330
1F
100
AcDbEntity
  8
TRMODEL1
  6
Continuous
 62
     2
100
AcDbLine
 10
1.527723638
 20
9.9730389519
 30
0.0
 11
1.5745870599
 21
9.9777970143
 31
0.0
  0
LINE
  5
1DE
330
1F
100
AcDbEntity
  8
TRMODEL1
  6
Continuous
 62
     2
100
AcDbLine
 10
1.5745870599
 20
9.9777970143
 30
0.0
 11
1.6114309568
 21
9.9906673987
 31
0.0
  0
LINE
  5
1DF
330
1F
100
AcDbEntity
  8
TRMODEL1
  6
Continuous
 62
     2
100
AcDbLine
 10
1.6114309568
 20
9.9906673987
 30
0.0
 11
1.6132731778
 21
9.9922002585
 31
0.0
  0
LINE
  5
1E0
330
1F
100
AcDbEntity
  8
TRMODEL1
  6
Continuous
 62
     2
100
AcDbLine
 10
1.3649151525
 20
10.074202495
 30
0.0
 11
1.3641801958
 21
10.070718574
 31
0.0
  0
LINE
  5
1E1
330
1F
100
AcDbEntity
  8
TRMODEL1
  6
Continuous
 62
     2
100
AcDbLine
 10
1.3641801958
 20
10.070718574
 30
0.0
 11
1.3747115839
 21
10.038929907
 31
0.0
  0
LINE
  5
1E2
330
1F
100
AcDbEntity
  8
TRMODEL1
  6
Continuous
 62
     2
100
AcDbLine
 10
1.3747115839
 20
10.038929907
 30
0.0
 11
1.4013690061
 21
10.0107835288
 31
0.0
  0
LINE
  5
1E3
330
1F
100
AcDbEntity
  8
TRMODEL1
  6
Continuous
 62
     2
100
AcDbLine
 10
1.4013690061
 20
10.0107835288
 30
0.0
 11
1.4411392415
 21
9.9891979595
 31
0.0
  0
LINE
  5
1E4
330
1F
100
AcDbEntity
  8
TRMODEL1
  6
Continuous
 62
     2
100
AcDbLine
 10
1.4411392415
 20
9.9891979595
 30
0.0
 11
1.4895152666
 21
9.9762853213
 31
0.0
  0
LINE
  5
1E5
330
1F
100
AcDbEntity
  8
TRMODEL1
  6
Continuous
 62
     2
100
AcDbLine
 10
1.4895152666
 20
9.9762853213
 30
0.0
 11
1.527723638
 21
9.9730389519
 31
0.0
  0
LINE
  5
1E6
330
1F
100
AcDbEntity
  8
TRMODEL1
  6
Continuous
 62
     2
100
AcDbLine
 10
1.6267671488
 20
9.999477807
 30
0.0
 11
1.6135291586
 21
9.9918331938
 31
0.0
  0
LINE
  5
1E7
330
1F
100
AcDbEntity
  8
TRMODEL1
  6
Continuous
 62
     4
100
AcDbLine
 10
0.466528777
 20
9.26617394
 30
0.0
 11
0.7956540984
 21
9.0761739362
 31
0.0
  0
LINE
  5
1E8
330
1F
100
AcDbEntity
  8
TRMODEL1
  6
Continuous
 62
     4
100
AcDbLine
 10
0.466528777
 20
9.3286841001
 30
0.0
 11
0.7956540984
 21
9.1386840963
 31
0.0
  0
LINE
  5
1E9
330
1F
100
AcDbEntity
  8
TRMODEL1
  6
Continuous
 62
     4
100
AcDbLine
 10
0.466528777
 20
9.3286841001
 30
0.0
 11
0.8995884104
 21
9.5786841051
 31
0.0
  0
LINE
  5
1EA
330
1F
100
AcDbEntity
  8
TRMODEL1
  6
Continuous
 62
     4
100
AcDbLine
 10
0.414561621
 20
9.2361641869
 30
0.0
 11
0.466528777
 21
9.26617394
 31
0.0
  0
LINE
  5
1EB
330
1F
100
AcDbEntity
  8
TRMODEL1
  6
Continuous
 62
     4
100
AcDbLine
 10
1.3348133421
 20
9.2049141863
 30
0.0
 11
1.3348133421
 21
8.8873625731
 31
0.0
  0
LINE
  5
1EC
330
1F
100
AcDbEntity
  8
TRMODEL1
  6
Continuous
 62
     4
100
AcDbLine
 10
0.9017537086
 20
8.9549141813
 30
0.0
 11
1.3348133421
 21
9.2049141863
 31
0.0
  0
LINE
  5
1ED
330
1F
100
AcDbEntity
  8
TRMODEL1
  6
Continuous
 62
     4
100
AcDbLine
 10
0.7956540984
 20
9.1386840963
 30
0.0
 11
1.2287137319
 21
9.3886841013
 31
0.0
  0
LINE
  5
1EE
330
1F
100
AcDbEntity
  8
TRMODEL1
  6
Continuous
 62
     4
100
AcDbLine
 10
0.8995884104
 20
9.5786841051
 30
0.0
 11
1.2287137319
 21
9.3886841013
 31
0.0
  0
LINE
  5
1EF
330
1F
100
AcDbEntity
  8
TRMODEL1
  6
Continuous
 62
     4
100
AcDbLine
 10
0.7394091386
 20
9.1086434604
 30
0.0
 11
0.414561621
 21
8.9211129801
 31
0.0
  0
LINE
  5
1F0
330
1F
100
AcDbEntity
  8
TRMODEL1
  6
Continuous
 62
     4
100
AcDbLine
 10
0.414561621
 20
8.9211129801
 30
0.0
 11
0.414561621
 21
9.2361641869
 31
0.0
  0
LINE
  5
1F1
330
1F
100
AcDbEntity
  8
TRMODEL1
  6
Continuous
 62
     4
100
AcDbLine
 10
0.414561621
 20
9.2361641869
 30
0.0
 11
0.4155601553
 21
9.2472950675
 31
0.0
  0
LINE
  5
1F2
330
1F
100
AcDbEntity
  8
TRMODEL1
  6
Continuous
 62
     4
100
AcDbLine
 10
0.4155601553
 20
9.2472950675
 30
0.0
 11
0.4185173852
 21
9.2568453114
 31
0.0
  0
LINE
  5
1F3
330
1F
100
AcDbEntity
  8
TRMODEL1
  6
Continuous
 62
     4
100
AcDbLine
 10
0.4185173852
 20
9.2568453114
 30
0.0
 11
0.4233196659
 21
9.264447908
 31
0.0
  0
LINE
  5
1F4
330
1F
100
AcDbEntity
  8
TRMODEL1
  6
Continuous
 62
     4
100
AcDbLine
 10
0.4233196659
 20
9.264447908
 30
0.0
 11
0.4297824486
 21
9.2698106939
 31
0.0
  0
LINE
  5
1F5
330
1F
100
AcDbEntity
  8
TRMODEL1
  6
Continuous
 62
     4
100
AcDbLine
 10
0.4297824486
 20
9.2698106939
 30
0.0
 11
0.437657372
 21
9.2727275803
 31
0.0
  0
LINE
  5
1F6
330
1F
100
AcDbEntity
  8
TRMODEL1
  6
Continuous
 62
     4
100
AcDbLine
 10
0.437657372
 20
9.2727275803
 30
0.0
 11
0.4466418073
 21
9.2730864727
 31
0.0
  0
LINE
  5
1F7
330
1F
100
AcDbEntity
  8
TRMODEL1
  6
Continuous
 62
     4
100
AcDbLine
 10
0.4466418073
 20
9.2730864727
 30
0.0
 11
0.4563904878
 21
9.2708735792
 31
0.0
  0
LINE
  5
1F8
330
1F
100
AcDbEntity
  8
TRMODEL1
  6
Continuous
 62
     4
100
AcDbLine
 10
0.4563904878
 20
9.2708735792
 30
0.0
 11
0.466528777
 21
9.26617394
 31
0.0
  0
LINE
  5
1F9
330
1F
100
AcDbEntity
  8
TRMODEL1
  6
Continuous
 62
     4
100
AcDbLine
 10
1.2287137319
 20
9.3886841013
 30
0.0
 11
1.249412739
 21
9.374380633
 31
0.0
  0
LINE
  5
1FA
330
1F
100
AcDbEntity
  8
TRMODEL1
  6
Continuous
 62
     4
100
AcDbLine
 10
1.249412739
 20
9.374380633
 30
0.0
 11
1.2693162949
 21
9.3559184675
 31
0.0
  0
LINE
  5
1FB
330
1F
100
AcDbEntity
  8
TRMODEL1
  6
Continuous
 62
     4
100
AcDbLine
 10
1.2693162949
 20
9.3559184675
 30
0.0
 11
1.287659517
 21
9.3340070953
 31
0.0
  0
LINE
  5
1FC
330
1F
100
AcDbEntity
  8
TRMODEL1
  6
Continuous
 62
     4
100
AcDbLine
 10
1.287659517
 20
9.3340070953
 30
0.0
 11
1.3037374857
 21
9.3094885582
 31
0.0
  0
LINE
  5
1FD
330
1F
100
AcDbEntity
  8
TRMODEL1
  6
Continuous
 62
     4
100
AcDbLine
 10
1.3037374857
 20
9.3094885582
 30
0.0
 11
1.3169323336
 21
9.2833050898
 31
0.0
  0
LINE
  5
1FE
330
1F
100
AcDbEntity
  8
TRMODEL1
  6
Continuous
 62
     4
100
AcDbLine
 10
1.3169323336
 20
9.2833050898
 30
0.0
 11
1.3267369901
 21
9.2564629062
 31
0.0
  0
LINE
  5
1FF
330
1F
100
AcDbEntity
  8
TRMODEL1
  6
Continuous
 62
     4
100
AcDbLine
 10
1.3267369901
 20
9.2564629062
 30
0.0
 11
1.3327746678
 21
9.2299935373
 31
0.0
  0
LINE
  5
200
330
1F
100
AcDbEntity
  8
TRMODEL1
  6
Continuous
 62
     4
100
AcDbLine
 10
1.3327746678
 20
9.2299935373
 30
0.0
 11
1.3348133421
 21
9.2049141863
 31
0.0
  0
LINE
  5
201
330
1F
100
AcDbEntity
  8
TRMODEL1
  6
Continuous
 62
     4
100
AcDbLine
 10
0.7956540984
 20
9.0761739362
 30
0.0
 11
0.8057923876
 21
9.0691681558
 31
0.0
  0
LINE
  5
202
330
1F
100
AcDbEntity
  8
TRMODEL1
  6
Continuous
 62
     4
100
AcDbLine
 10
0.8057923876
 20
9.0691681558
 30
0.0
 11
0.815541068
 21
9.0601254625
 31
0.0
  0
LINE
  5
203
330
1F
100
AcDbEntity
  8
TRMODEL1
  6
Continuous
 62
     4
100
AcDbLine
 10
0.815541068
 20
9.0601254625
 30
0.0
 11
0.8245255034
 21
9.0493933618
 31
0.0
  0
LINE
  5
204
330
1F
100
AcDbEntity
  8
TRMODEL1
  6
Continuous
 62
     4
100
AcDbLine
 10
0.8245255034
 20
9.0493933618
 30
0.0
 11
0.8324004268
 21
9.0373842824
 31
0.0
  0
LINE
  5
205
330
1F
100
AcDbEntity
  8
TRMODEL1
  6
Continuous
 62
     4
100
AcDbLine
 10
0.8324004268
 20
9.0373842824
 30
0.0
 11
0.8388632095
 21
9.0245597265
 31
0.0
  0
LINE
  5
206
330
1F
100
AcDbEntity
  8
TRMODEL1
  6
Continuous
 62
     4
100
AcDbLine
 10
0.8388632095
 20
9.0245597265
 30
0.0
 11
0.8436654902
 21
9.0114125345
 31
0.0
  0
LINE
  5
207
330
1F
100
AcDbEntity
  8
TRMODEL1
  6
Continuous
 62
     4
100
AcDbLine
 10
0.8436654902
 20
9.0114125345
 30
0.0
 11
0.8466227201
 21
8.9984479457
 31
0.0
  0
LINE
  5
208
330
1F
100
AcDbEntity
  8
TRMODEL1
  6
Continuous
 62
     4
100
AcDbLine
 10
0.8466227201
 20
8.9984479457
 30
0.0
 11
0.8476212544
 21
8.9861641819
 31
0.0
  0
LINE
  5
209
330
1F
100
AcDbEntity
  8
TRMODEL1
  6
Continuous
 62
     4
100
AcDbLine
 10
0.7956540984
 20
9.1386840963
 30
0.0
 11
0.8163531055
 21
9.124380628
 31
0.0
  0
LINE
  5
20A
330
1F
100
AcDbEntity
  8
TRMODEL1
  6
Continuous
 62
     4
100
AcDbLine
 10
0.8163531055
 20
9.124380628
 30
0.0
 11
0.8362566614
 21
9.1059184625
 31
0.0
  0
LINE
  5
20B
330
1F
100
AcDbEntity
  8
TRMODEL1
  6
Continuous
 62
     4
100
AcDbLine
 10
0.8362566614
 20
9.1059184625
 30
0.0
 11
0.8545998836
 21
9.0840070903
 31
0.0
  0
LINE
  5
20C
330
1F
100
AcDbEntity
  8
TRMODEL1
  6
Continuous
 62
     4
100
AcDbLine
 10
0.8545998836
 20
9.0840070903
 30
0.0
 11
0.8706778523
 21
9.0594885532
 31
0.0
  0
LINE
  5
20D
330
1F
100
AcDbEntity
  8
TRMODEL1
  6
Continuous
 62
     4
100
AcDbLine
 10
0.8706778523
 20
9.0594885532
 30
0.0
 11
0.8838727002
 21
9.0333050848
 31
0.0
  0
LINE
  5
20E
330
1F
100
AcDbEntity
  8
TRMODEL1
  6
Continuous
 62
     4
100
AcDbLine
 10
0.8838727002
 20
9.0333050848
 30
0.0
 11
0.8936773567
 21
9.0064629012
 31
0.0
  0
LINE
  5
20F
330
1F
100
AcDbEntity
  8
TRMODEL1
  6
Continuous
 62
     4
100
AcDbLine
 10
0.8936773567
 20
9.0064629012
 30
0.0
 11
0.8997150343
 21
8.9799935323
 31
0.0
  0
LINE
  5
210
330
1F
100
AcDbEntity
  8
TRMODEL1
  6
Continuous
 62
     4
100
AcDbLine
 10
0.8997150343
 20
8.9799935323
 30
0.0
 11
0.9017537086
 21
8.9549141813
 31
0.0
  0
LINE
  5
211
330
1F
100
AcDbEntity
  8
TRMODEL1
  6
Continuous
 62
     4
100
AcDbLine
 10
0.8245707536
 20
9.5861126647
 30
0.0
 11
0.8406426253
 21
9.592064454
 31
0.0
  0
LINE
  5
212
330
1F
100
AcDbEntity
  8
TRMODEL1
  6
Continuous
 62
     4
100
AcDbLine
 10
0.8406426253
 20
9.592064454
 30
0.0
 11
0.8589858474
 21
9.5927971927
 31
0.0
  0
LINE
  5
213
330
1F
100
AcDbEntity
  8
TRMODEL1
  6
Continuous
 62
     4
100
AcDbLine
 10
0.8589858474
 20
9.5927971927
 30
0.0
 11
0.8788894033
 21
9.5882792018
 31
0.0
  0
LINE
  5
214
330
1F
100
AcDbEntity
  8
TRMODEL1
  6
Continuous
 62
     4
100
AcDbLine
 10
0.8788894033
 20
9.5882792018
 30
0.0
 11
0.8995884104
 21
9.5786841051
 31
0.0
  0
LINE
  5
215
330
1F
100
AcDbEntity
  8
TRMODEL1
  6
Continuous
 62
     2
100
AcDbLine
 10
1.5637812379
 20
9.9770218023
 30
0.0
 11
1.5127753785
 21
9.9755487913
 31
0.0
  0
LINE
  5
216
330
1F
100
AcDbEntity
  8
TRMODEL1
  6
Continuous
 62
     2
100
AcDbLine
 10
1.5127753785
 20
9.9755487913
 30
0.0
 11
1.4622685501
 21
9.9840943061
 31
0.0
  0
LINE
  5
217
330
1F
100
AcDbEntity
  8
TRMODEL1
  6
Continuous
 62
     2
100
AcDbLine
 10
1.4622685501
 20
9.9840943061
 30
0.0
 11
1.4179743393
 21
10.0019582214
 31
0.0
  0
LINE
  5
218
330
1F
100
AcDbEntity
  8
TRMODEL1
  6
Continuous
 62
     2
100
AcDbLine
 10
1.4179743393
 20
10.0019582214
 30
0.0
 11
1.3849141397
 21
10.0274642129
 31
0.0
  0
LINE
  5
219
330
1F
100
AcDbEntity
  8
TRMODEL1
  6
Continuous
 62
     2
100
AcDbLine
 10
1.3849141397
 20
10.0274642129
 30
0.0
 11
1.3668246736
 21
10.0579906292
 31
0.0
  0
LINE
  5
21A
330
1F
100
AcDbEntity
  8
TRMODEL1
  6
Continuous
 62
     2
100
AcDbLine
 10
1.3668246736
 20
10.0579906292
 30
0.0
 11
1.3657565234
 21
10.0904201603
 31
0.0
  0
LINE
  5
21B
330
1F
100
AcDbEntity
  8
TRMODEL1
  6
Continuous
 62
     2
100
AcDbLine
 10
1.3657565234
 20
10.0904201603
 30
0.0
 11
1.3702040223
 21
10.09898136
 31
0.0
  0
LINE
  5
21C
330
1F
100
AcDbEntity
  8
TRMODEL1
  6
Continuous
 62
     2
100
AcDbLine
 10
1.6609588924
 20
10.1752456415
 30
0.0
 11
1.6685996241
 21
10.1631237438
 31
0.0
  0
LINE
  5
21D
330
1F
100
AcDbEntity
  8
TRMODEL1
  6
Continuous
 62
     2
100
AcDbLine
 10
1.6685996241
 20
10.1631237438
 30
0.0
 11
1.6675671335
 21
10.1360843404
 31
0.0
  0
LINE
  5
21E
330
1F
100
AcDbEntity
  8
TRMODEL1
  6
Continuous
 62
     2
100
AcDbLine
 10
1.6675671335
 20
10.1360843404
 30
0.0
 11
1.6495115796
 21
10.1109164546
 31
0.0
  0
LINE
  5
21F
330
1F
100
AcDbEntity
  8
TRMODEL1
  6
Continuous
 62
     2
100
AcDbLine
 10
1.6495115796
 20
10.1109164546
 30
0.0
 11
1.6164786992
 21
10.0908009618
 31
0.0
  0
LINE
  5
220
330
1F
100
AcDbEntity
  8
TRMODEL1
  6
Continuous
 62
     2
100
AcDbLine
 10
1.6164786992
 20
10.0908009618
 30
0.0
 11
1.5722026913
 21
10.0782746133
 31
0.0
  0
LINE
  5
221
330
1F
100
AcDbEntity
  8
TRMODEL1
  6
Continuous
 62
     2
100
AcDbLine
 10
1.5722026913
 20
10.0782746133
 30
0.0
 11
1.5217037039
 21
10.0751130195
 31
0.0
  0
LINE
  5
222
330
1F
100
AcDbEntity
  8
TRMODEL1
  6
Continuous
 62
     2
100
AcDbLine
 10
1.5217037039
 20
10.0751130195
 30
0.0
 11
1.4706882254
 21
10.0819287203
 31
0.0
  0
LINE
  5
223
330
1F
100
AcDbEntity
  8
TRMODEL1
  6
Continuous
 62
     2
100
AcDbLine
 10
1.4706882254
 20
10.0819287203
 30
0.0
 11
1.4249402754
 21
10.0982951577
 31
0.0
  0
LINE
  5
224
330
1F
100
AcDbEntity
  8
TRMODEL1
  6
Continuous
 62
     2
100
AcDbLine
 10
1.4249402754
 20
10.0982951577
 30
0.0
 11
1.3896319618
 21
10.1226371764
 31
0.0
  0
LINE
  5
225
330
1F
100
AcDbEntity
  8
TRMODEL1
  6
Continuous
 62
     2
100
AcDbLine
 10
1.3896319618
 20
10.1226371764
 30
0.0
 11
1.3687634464
 21
10.1525151446
 31
0.0
  0
LINE
  5
226
330
1F
100
AcDbEntity
  8
TRMODEL1
  6
Continuous
 62
     2
100
AcDbLine
 10
1.3687634464
 20
10.1525151446
 30
0.0
 11
1.3646956427
 21
10.18485744
 31
0.0
  0
LINE
  5
227
330
1F
100
AcDbEntity
  8
TRMODEL1
  6
Continuous
 62
     2
100
AcDbLine
 10
1.3646956427
 20
10.18485744
 30
0.0
 11
1.3702725545
 21
10.1981407132
 31
0.0
  0
LINE
  5
228
330
1F
100
AcDbEntity
  8
TRMODEL1
  6
Continuous
 62
     2
100
AcDbLine
 10
1.6612443709
 20
10.2753641648
 30
0.0
 11
1.6670177202
 21
10.2677532235
 31
0.0
  0
LINE
  5
229
330
1F
100
AcDbEntity
  8
TRMODEL1
  6
Continuous
 62
     2
100
AcDbLine
 10
1.6670177202
 20
10.2677532235
 30
0.0
 11
1.6689884108
 21
10.240715013
 31
0.0
  0
LINE
  5
22A
330
1F
100
AcDbEntity
  8
TRMODEL1
  6
Continuous
 62
     2
100
AcDbLine
 10
1.6689884108
 20
10.240715013
 30
0.0
 11
1.6537761778
 21
10.2150073175
 31
0.0
  0
LINE
  5
22B
330
1F
100
AcDbEntity
  8
TRMODEL1
  6
Continuous
 62
     2
100
AcDbLine
 10
1.6537761778
 20
10.2150073175
 30
0.0
 11
1.6231001288
 21
10.1937953269
 31
0.0
  0
LINE
  5
22C
330
1F
100
AcDbEntity
  8
TRMODEL1
  6
Continuous
 62
     2
100
AcDbLine
 10
1.6231001288
 20
10.1937953269
 30
0.0
 11
1.5804375491
 21
10.1798268251
 31
0.0
  0
LINE
  5
22D
330
1F
100
AcDbEntity
  8
TRMODEL1
  6
Continuous
 62
     2
100
AcDbLine
 10
1.5804375491
 20
10.1798268251
 30
0.0
 11
1.5306128882
 21
10.174960338
 31
0.0
  0
LINE
  5
22E
330
1F
100
AcDbEntity
  8
TRMODEL1
  6
Continuous
 62
     2
100
AcDbLine
 10
1.5306128882
 20
10.174960338
 30
0.0
 11
1.4792693469
 21
10.1800626074
 31
0.0
  0
LINE
  5
22F
330
1F
100
AcDbEntity
  8
TRMODEL1
  6
Continuous
 62
     2
100
AcDbLine
 10
1.4792693469
 20
10.1800626074
 30
0.0
 11
1.4322182689
 21
10.194865014
 31
0.0
  0
LINE
  5
230
330
1F
100
AcDbEntity
  8
TRMODEL1
  6
Continuous
 62
     2
100
AcDbLine
 10
1.4322182689
 20
10.194865014
 30
0.0
 11
1.3947839496
 21
10.2179764265
 31
0.0
  0
LINE
  5
231
330
1F
100
AcDbEntity
  8
TRMODEL1
  6
Continuous
 62
     2
100
AcDbLine
 10
1.3947839496
 20
10.2179764265
 30
0.0
 11
1.3712069775
 21
10.2471189883
 31
0.0
  0
LINE
  5
232
330
1F
100
AcDbEntity
  8
TRMODEL1
  6
Continuous
 62
     2
100
AcDbLine
 10
1.3712069775
 20
10.2471189883
 30
0.0
 11
1.3641531346
 21
10.2792555796
 31
0.0
  0
LINE
  5
233
330
1F
100
AcDbEntity
  8
TRMODEL1
  6
Continuous
 62
     2
100
AcDbLine
 10
1.3641531346
 20
10.2792555796
 30
0.0
 11
1.3708369746
 21
10.299980207
 31
0.0
  0
LINE
  5
234
330
1F
100
AcDbEntity
  8
TRMODEL1
  6
Continuous
 62
     2
100
AcDbLine
 10
1.6614377287
 20
10.3251258822
 30
0.0
 11
1.6699479548
 21
10.3066258812
 31
0.0
  0
LINE
  5
235
330
1F
100
AcDbEntity
  8
TRMODEL1
  6
Continuous
 62
     2
100
AcDbLine
 10
1.6699479548
 20
10.3066258812
 30
0.0
 11
1.6647228551
 21
10.2797416606
 31
0.0
  0
LINE
  5
236
330
1F
100
AcDbEntity
  8
TRMODEL1
  6
Continuous
 62
     2
100
AcDbLine
 10
1.6647228551
 20
10.2797416606
 30
0.0
 11
1.6427963008
 21
10.2555168878
 31
0.0
  0
LINE
  5
237
330
1F
100
AcDbEntity
  8
TRMODEL1
  6
Continuous
 62
     2
100
AcDbLine
 10
1.6427963008
 20
10.2555168878
 30
0.0
 11
1.6066519854
 21
10.237019931
 31
0.0
  0
LINE
  5
238
330
1F
100
AcDbEntity
  8
TRMODEL1
  6
Continuous
 62
     2
100
AcDbLine
 10
1.6066519854
 20
10.237019931
 30
0.0
 11
1.560380349
 21
10.226646344
 31
0.0
  0
LINE
  5
239
330
1F
100
AcDbEntity
  8
TRMODEL1
  6
Continuous
 62
     2
100
AcDbLine
 10
1.560380349
 20
10.226646344
 30
0.0
 11
1.5092175359
 21
10.2258566133
 31
0.0
  0
LINE
  5
23A
330
1F
100
AcDbEntity
  8
TRMODEL1
  6
Continuous
 62
     2
100
AcDbLine
 10
1.5092175359
 20
10.2258566133
 30
0.0
 11
1.4589601927
 21
10.2350803151
 31
0.0
  0
LINE
  5
23B
330
1F
100
AcDbEntity
  8
TRMODEL1
  6
Continuous
 62
     2
100
AcDbLine
 10
1.4589601927
 20
10.2350803151
 30
0.0
 11
1.4152893401
 21
10.2535336939
 31
0.0
  0
LINE
  5
23C
330
1F
100
AcDbEntity
  8
TRMODEL1
  6
Continuous
 62
     2
100
AcDbLine
 10
1.4152893401
 20
10.2535336939
 30
0.0
 11
1.3831567361
 21
10.2794773439
 31
0.0
  0
LINE
  5
23D
330
1F
100
AcDbEntity
  8
TRMODEL1
  6
Continuous
 62
     2
100
AcDbLine
 10
1.3831567361
 20
10.2794773439
 30
0.0
 11
1.3661937886
 21
10.3102398962
 31
0.0
  0
LINE
  5
23E
330
1F
100
AcDbEntity
  8
TRMODEL1
  6
Continuous
 62
     2
100
AcDbLine
 10
1.3661937886
 20
10.3102398962
 30
0.0
 11
1.3663235043
 21
10.3426740108
 31
0.0
  0
LINE
  5
23F
330
1F
100
AcDbEntity
  8
TRMODEL1
  6
Continuous
 62
     2
100
AcDbLine
 10
1.3663235043
 20
10.3426740108
 30
0.0
 11
1.3702548728
 21
10.3496926891
 31
0.0
  0
LINE
  5
240
330
1F
100
AcDbEntity
  8
TRMODEL1
  6
Continuous
 62
     2
100
AcDbLine
 10
1.6609910765
 20
10.4252507744
 30
0.0
 11
1.6690871752
 21
10.411311984
 31
0.0
  0
LINE
  5
241
330
1F
100
AcDbEntity
  8
TRMODEL1
  6
Continuous
 62
     2
100
AcDbLine
 10
1.6690871752
 20
10.411311984
 30
0.0
 11
1.6668573648
 21
10.384296664
 31
0.0
  0
LINE
  5
242
330
1F
100
AcDbEntity
  8
TRMODEL1
  6
Continuous
 62
     2
100
AcDbLine
 10
1.6668573648
 20
10.384296664
 30
0.0
 11
1.6476846805
 21
10.3593771011
 31
0.0
  0
LINE
  5
243
330
1F
100
AcDbEntity
  8
TRMODEL1
  6
Continuous
 62
     2
100
AcDbLine
 10
1.6476846805
 20
10.3593771011
 30
0.0
 11
1.6137417393
 21
10.3397120407
 31
0.0
  0
LINE
  5
244
330
1F
100
AcDbEntity
  8
TRMODEL1
  6
Continuous
 62
     2
100
AcDbLine
 10
1.6137417393
 20
10.3397120407
 30
0.0
 11
1.5688652605
 21
10.3277842799
 31
0.0
  0
LINE
  5
245
330
1F
100
AcDbEntity
  8
TRMODEL1
  6
Continuous
 62
     2
100
AcDbLine
 10
1.5688652605
 20
10.3277842799
 30
0.0
 11
1.5181435975
 21
10.32530136
 31
0.0
  0
LINE
  5
246
330
1F
100
AcDbEntity
  8
TRMODEL1
  6
Continuous
 62
     2
100
AcDbLine
 10
1.5181435975
 20
10.32530136
 30
0.0
 11
1.4673087514
 21
10.3328021341
 31
0.0
  0
LINE
  5
247
330
1F
100
AcDbEntity
  8
TRMODEL1
  6
Continuous
 62
     2
100
AcDbLine
 10
1.4673087514
 20
10.3328021341
 30
0.0
 11
1.4221234499
 21
10.3497771607
 31
0.0
  0
LINE
  5
248
330
1F
100
AcDbEntity
  8
TRMODEL1
  6
Continuous
 62
     2
100
AcDbLine
 10
1.4221234499
 20
10.3497771607
 30
0.0
 11
1.3876972009
 21
10.3745891555
 31
0.0
  0
LINE
  5
249
330
1F
100
AcDbEntity
  8
TRMODEL1
  6
Continuous
 62
     2
100
AcDbLine
 10
1.3876972009
 20
10.3745891555
 30
0.0
 11
1.3679293347
 21
10.4047381218
 31
0.0
  0
LINE
  5
24A
330
1F
100
AcDbEntity
  8
TRMODEL1
  6
Continuous
 62
     2
100
AcDbLine
 10
1.3679293347
 20
10.4047381218
 30
0.0
 11
1.3650567677
 21
10.4371286257
 31
0.0
  0
LINE
  5
24B
330
1F
100
AcDbEntity
  8
TRMODEL1
  6
Continuous
 62
     2
100
AcDbLine
 10
1.3650567677
 20
10.4371286257
 30
0.0
 11
1.3700592482
 21
10.4480202103
 31
0.0
  0
LINE
  5
24C
330
1F
100
AcDbEntity
  8
TRMODEL1
  6
Continuous
 62
     4
100
AcDbLine
 10
1.7657076774
 20
8.516173925
 30
0.0
 11
2.0948329988
 21
8.3261739212
 31
0.0
  0
LINE
  5
24D
330
1F
100
AcDbEntity
  8
TRMODEL1
  6
Continuous
 62
     4
100
AcDbLine
 10
1.7657076774
 20
8.5786840851
 30
0.0
 11
2.0948329988
 21
8.3886840813
 31
0.0
  0
LINE
  5
24E
330
1F
100
AcDbEntity
  8
TRMODEL1
  6
Continuous
 62
     4
100
AcDbLine
 10
1.7137405214
 20
8.4861641719
 30
0.0
 11
1.7657076774
 21
8.516173925
 31
0.0
  0
LINE
  5
24F
330
1F
100
AcDbEntity
  8
TRMODEL1
  6
Continuous
 62
     4
100
AcDbLine
 10
2.0847137816
 20
8.332015621
 30
0.0
 11
1.682658568
 21
8.0999140866
 31
0.0
  0
LINE
  5
250
330
1F
100
AcDbEntity
  8
TRMODEL1
  6
Continuous
 62
     4
100
AcDbLine
 10
2.0407536891
 20
8.3573932422
 30
0.0
 11
1.7137405214
 21
8.1686125587
 31
0.0
  0
LINE
  5
251
330
1F
100
AcDbEntity
  8
TRMODEL1
  6
Continuous
 62
     4
100
AcDbLine
 10
1.7137405214
 20
8.1686125587
 30
0.0
 11
1.7137405214
 21
8.4861641719
 31
0.0
  0
LINE
  5
252
330
1F
100
AcDbEntity
  8
TRMODEL1
  6
Continuous
 62
     4
100
AcDbLine
 10
1.6596080672
 20
8.1998625593
 30
0.0
 11
1.6596080672
 21
8.5174141726
 31
0.0
  0
LINE
  5
253
330
1F
100
AcDbEntity
  8
TRMODEL1
  6
Continuous
 62
     4
100
AcDbLine
 10
0.9537208646
 20
8.5473528138
 30
0.0
 11
1.3867804981
 21
8.7973528188
 31
0.0
  0
LINE
  5
254
330
1F
100
AcDbEntity
  8
TRMODEL1
  6
Continuous
 62
     4
100
AcDbLine
 10
0.9017537086
 20
8.6373625681
 30
0.0
 11
1.3348133421
 21
8.8873625731
 31
0.0
  0
LINE
  5
255
330
1F
100
AcDbEntity
  8
TRMODEL1
  6
Continuous
 62
     4
100
AcDbLine
 10
0.8476212544
 20
8.9861641819
 30
0.0
 11
0.8476212544
 21
8.638013413
 31
0.0
  0
LINE
  5
256
330
1F
100
AcDbEntity
  8
TRMODEL1
  6
Continuous
 62
     4
100
AcDbLine
 10
0.9017537086
 20
8.9549141813
 30
0.0
 11
0.9017537086
 21
8.6373625681
 31
0.0
  0
LINE
  5
257
330
1F
100
AcDbEntity
  8
TRMODEL1
  6
Continuous
 62
     4
100
AcDbLine
 10
0.9537208646
 20
8.4848426537
 30
0.0
 11
1.6076409112
 21
8.1073426462
 31
0.0
  0
LINE
  5
258
330
1F
100
AcDbEntity
  8
TRMODEL1
  6
Continuous
 62
     4
100
AcDbLine
 10
0.9537208646
 20
8.5473528138
 30
0.0
 11
1.6076409112
 21
8.1698528062
 31
0.0
  0
LINE
  5
259
330
1F
100
AcDbEntity
  8
TRMODEL1
  6
Continuous
 62
     4
100
AcDbLine
 10
1.3867804981
 20
8.7973528188
 30
0.0
 11
1.7216944404
 21
8.6040111153
 31
0.0
  0
LINE
  5
25A
330
1F
100
AcDbEntity
  8
TRMODEL1
  6
Continuous
 62
     4
100
AcDbLine
 10
1.6596080665
 20
8.1998528064
 30
0.0
 11
1.6076409112
 21
8.1698528062
 31
0.0
  0
LINE
  5
25B
330
1F
100
AcDbEntity
  8
TRMODEL1
  6
Continuous
 62
     4
100
AcDbLine
 10
1.8999602586
 20
7.06137157
 30
0.0
 11
1.8999602586
 21
6.9963610035
 31
0.0
  0
LINE
  5
25C
330
1F
100
AcDbEntity
  8
TRMODEL1
  6
Continuous
 62
     4
100
AcDbLine
 10
1.1344117499
 20
6.9963610035
 30
0.0
 11
1.1344117499
 21
7.06137157
 31
0.0
  0
LINE
  5
25D
330
1F
100
AcDbEntity
  8
TRMODEL1
  6
Continuous
 62
     4
100
AcDbLine
 10
1.2465237333
 20
7.2176215731
 30
0.0
 11
1.1946672793
 21
7.1803794029
 31
0.0
  0
LINE
  5
25E
330
1F
100
AcDbEntity
  8
TRMODEL1
  6
Continuous
 62
     4
100
AcDbLine
 10
1.1946672793
 20
7.1803794029
 30
0.0
 11
1.1578914423
 21
7.1375725587
 31
0.0
  0
LINE
  5
25F
330
1F
100
AcDbEntity
  8
TRMODEL1
  6
Continuous
 62
     4
100
AcDbLine
 10
1.1578914423
 20
7.1375725587
 30
0.0
 11
1.1379158198
 21
7.091202641
 31
0.0
  0
LINE
  5
260
330
1F
100
AcDbEntity
  8
TRMODEL1
  6
Continuous
 62
     4
100
AcDbLine
 10
1.1379158198
 20
7.091202641
 30
0.0
 11
1.1356744496
 21
7.0434378555
 31
0.0
  0
LINE
  5
261
330
1F
100
AcDbEntity
  8
TRMODEL1
  6
Continuous
 62
     4
100
AcDbLine
 10
1.1356744496
 20
7.0434378555
 30
0.0
 11
1.1512721356
 21
6.9965116306
 31
0.0
  0
LINE
  5
262
330
1F
100
AcDbEntity
  8
TRMODEL1
  6
Continuous
 62
     4
100
AcDbLine
 10
1.1512721356
 20
6.9965116306
 30
0.0
 11
1.1839795475
 21
6.9526181844
 31
0.0
  0
LINE
  5
263
330
1F
100
AcDbEntity
  8
TRMODEL1
  6
Continuous
 62
     4
100
AcDbLine
 10
1.1839795475
 20
6.9526181844
 30
0.0
 11
1.2322673229
 21
6.9138099256
 31
0.0
  0
LINE
  5
264
330
1F
100
AcDbEntity
  8
TRMODEL1
  6
Continuous
 62
     4
100
AcDbLine
 10
1.2322673229
 20
6.9138099256
 30
0.0
 11
1.2938775792
 21
6.8819014853
 31
0.0
  0
LINE
  5
265
330
1F
100
AcDbEntity
  8
TRMODEL1
  6
Continuous
 62
     4
100
AcDbLine
 10
1.2938775792
 20
6.8819014853
 30
0.0
 11
1.3659294893
 21
6.8583848667
 31
0.0
  0
LINE
  5
266
330
1F
100
AcDbEntity
  8
TRMODEL1
  6
Continuous
 62
     4
100
AcDbLine
 10
1.3659294893
 20
6.8583848667
 30
0.0
 11
1.4450539859
 21
6.8443596807
 31
0.0
  0
LINE
  5
267
330
1F
100
AcDbEntity
  8
TRMODEL1
  6
Continuous
 62
     4
100
AcDbLine
 10
1.4450539859
 20
6.8443596807
 30
0.0
 11
1.5275512955
 21
6.8404817295
 31
0.0
  0
LINE
  5
268
330
1F
100
AcDbEntity
  8
TRMODEL1
  6
Continuous
 62
     4
100
AcDbLine
 10
1.5275512955
 20
6.8404817295
 30
0.0
 11
1.6095639356
 21
6.8469323417
 31
0.0
  0
LINE
  5
269
330
1F
100
AcDbEntity
  8
TRMODEL1
  6
Continuous
 62
     4
100
AcDbLine
 10
1.6095639356
 20
6.8469323417
 30
0.0
 11
1.6872570863
 21
6.8634098939
 31
0.0
  0
LINE
  5
26A
330
1F
100
AcDbEntity
  8
TRMODEL1
  6
Continuous
 62
     4
100
AcDbLine
 10
1.6872570863
 20
6.8634098939
 30
0.0
 11
1.7569979023
 21
6.8891439141
 31
0.0
  0
LINE
  5
26B
330
1F
100
AcDbEntity
  8
TRMODEL1
  6
Continuous
 62
     4
100
AcDbLine
 10
1.7569979023
 20
6.8891439141
 30
0.0
 11
1.8155253804
 21
6.922931108
 31
0.0
  0
LINE
  5
26C
330
1F
100
AcDbEntity
  8
TRMODEL1
  6
Continuous
 62
     4
100
AcDbLine
 10
1.8155253804
 20
6.922931108
 30
0.0
 11
1.8601028408
 21
6.9631916241
 31
0.0
  0
LINE
  5
26D
330
1F
100
AcDbEntity
  8
TRMODEL1
  6
Continuous
 62
     4
100
AcDbLine
 10
1.8601028408
 20
6.9631916241
 30
0.0
 11
1.8886458911
 21
7.0080429253
 31
0.0
  0
LINE
  5
26E
330
1F
100
AcDbEntity
  8
TRMODEL1
  6
Continuous
 62
     4
100
AcDbLine
 10
1.8886458911
 20
7.0080429253
 30
0.0
 11
1.89981989
 21
7.0553878147
 31
0.0
  0
LINE
  5
26F
330
1F
100
AcDbEntity
  8
TRMODEL1
  6
Continuous
 62
     4
100
AcDbLine
 10
1.89981989
 20
7.0553878147
 30
0.0
 11
1.8931023536
 21
7.1030124978
 31
0.0
  0
LINE
  5
270
330
1F
100
AcDbEntity
  8
TRMODEL1
  6
Continuous
 62
     4
100
AcDbLine
 10
1.8931023536
 20
7.1030124978
 30
0.0
 11
1.8688073865
 21
7.1486900974
 31
0.0
  0
LINE
  5
271
330
1F
100
AcDbEntity
  8
TRMODEL1
  6
Continuous
 62
     4
100
AcDbLine
 10
1.8688073865
 20
7.1486900974
 30
0.0
 11
1.8280709944
 21
7.1902847797
 31
0.0
  0
LINE
  5
272
330
1F
100
AcDbEntity
  8
TRMODEL1
  6
Continuous
 62
     4
100
AcDbLine
 10
1.8280709944
 20
7.1902847797
 30
0.0
 11
1.7727979657
 21
7.2258516236
 31
0.0
  0
LINE
  5
273
330
1F
100
AcDbEntity
  8
TRMODEL1
  6
Continuous
 62
     4
100
AcDbLine
 10
1.7727979657
 20
7.2258516236
 30
0.0
 11
1.7055728057
 21
7.253727563
 31
0.0
  0
LINE
  5
274
330
1F
100
AcDbEntity
  8
TRMODEL1
  6
Continuous
 62
     4
100
AcDbLine
 10
1.7055728057
 20
7.253727563
 30
0.0
 11
1.6295388883
 21
7.27260915
 31
0.0
  0
LINE
  5
275
330
1F
100
AcDbEntity
  8
TRMODEL1
  6
Continuous
 62
     4
100
AcDbLine
 10
1.6295388883
 20
7.27260915
 30
0.0
 11
1.5482514749
 21
7.2816135025
 31
0.0
  0
LINE
  5
276
330
1F
100
AcDbEntity
  8
TRMODEL1
  6
Continuous
 62
     4
100
AcDbLine
 10
1.5482514749
 20
7.2816135025
 30
0.0
 11
1.4655114746
 21
7.280319587
 31
0.0
  0
LINE
  5
277
330
1F
100
AcDbEntity
  8
TRMODEL1
  6
Continuous
 62
     4
100
AcDbLine
 10
1.4655114746
 20
7.280319587
 30
0.0
 11
1.3851877179
 21
7.2687879056
 31
0.0
  0
LINE
  5
278
330
1F
100
AcDbEntity
  8
TRMODEL1
  6
Continuous
 62
     4
100
AcDbLine
 10
1.3851877179
 20
7.2687879056
 30
0.0
 11
1.3110360543
 21
7.2475576668
 31
0.0
  0
LINE
  5
279
330
1F
100
AcDbEntity
  8
TRMODEL1
  6
Continuous
 62
     4
100
AcDbLine
 10
1.3110360543
 20
7.2475576668
 30
0.0
 11
1.2465237333
 21
7.2176215731
 31
0.0
  0
LINE
  5
27A
330
1F
100
AcDbEntity
  8
TRMODEL1
  6
Continuous
 62
     4
100
AcDbLine
 10
1.1344117499
 20
6.9963610035
 30
0.0
 11
1.1356744496
 21
6.978427289
 31
0.0
  0
LINE
  5
27B
330
1F
100
AcDbEntity
  8
TRMODEL1
  6
Continuous
 62
     4
100
AcDbLine
 10
1.1356744496
 20
6.978427289
 30
0.0
 11
1.1512721356
 21
6.9315010641
 31
0.0
  0
LINE
  5
27C
330
1F
100
AcDbEntity
  8
TRMODEL1
  6
Continuous
 62
     4
100
AcDbLine
 10
1.1512721356
 20
6.9315010641
 30
0.0
 11
1.1839795475
 21
6.8876076179
 31
0.0
  0
LINE
  5
27D
330
1F
100
AcDbEntity
  8
TRMODEL1
  6
Continuous
 62
     4
100
AcDbLine
 10
1.1839795475
 20
6.8876076179
 30
0.0
 11
1.2322673229
 21
6.8487993591
 31
0.0
  0
LINE
  5
27E
330
1F
100
AcDbEntity
  8
TRMODEL1
  6
Continuous
 62
     4
100
AcDbLine
 10
1.2322673229
 20
6.8487993591
 30
0.0
 11
1.2938775792
 21
6.8168909188
 31
0.0
  0
LINE
  5
27F
330
1F
100
AcDbEntity
  8
TRMODEL1
  6
Continuous
 62
     4
100
AcDbLine
 10
1.2938775792
 20
6.8168909188
 30
0.0
 11
1.3659294893
 21
6.7933743002
 31
0.0
  0
LINE
  5
280
330
1F
100
AcDbEntity
  8
TRMODEL1
  6
Continuous
 62
     4
100
AcDbLine
 10
1.3659294893
 20
6.7933743002
 30
0.0
 11
1.4450539859
 21
6.7793491142
 31
0.0
  0
LINE
  5
281
330
1F
100
AcDbEntity
  8
TRMODEL1
  6
Continuous
 62
     4
100
AcDbLine
 10
1.4450539859
 20
6.7793491142
 30
0.0
 11
1.5275512955
 21
6.775471163
 31
0.0
  0
LINE
  5
282
330
1F
100
AcDbEntity
  8
TRMODEL1
  6
Continuous
 62
     4
100
AcDbLine
 10
1.5275512955
 20
6.775471163
 30
0.0
 11
1.6095639356
 21
6.7819217752
 31
0.0
  0
LINE
  5
283
330
1F
100
AcDbEntity
  8
TRMODEL1
  6
Continuous
 62
     4
100
AcDbLine
 10
1.6095639356
 20
6.7819217752
 30
0.0
 11
1.6872570863
 21
6.7983993274
 31
0.0
  0
LINE
  5
284
330
1F
100
AcDbEntity
  8
TRMODEL1
  6
Continuous
 62
     4
100
AcDbLine
 10
1.6872570863
 20
6.7983993274
 30
0.0
 11
1.7569979023
 21
6.8241333476
 31
0.0
  0
LINE
  5
285
330
1F
100
AcDbEntity
  8
TRMODEL1
  6
Continuous
 62
     4
100
AcDbLine
 10
1.7569979023
 20
6.8241333476
 30
0.0
 11
1.8155253804
 21
6.8579205415
 31
0.0
  0
LINE
  5
286
330
1F
100
AcDbEntity
  8
TRMODEL1
  6
Continuous
 62
     4
100
AcDbLine
 10
1.8155253804
 20
6.8579205415
 30
0.0
 11
1.8601028408
 21
6.8981810576
 31
0.0
  0
LINE
  5
287
330
1F
100
AcDbEntity
  8
TRMODEL1
  6
Continuous
 62
     4
100
AcDbLine
 10
1.8601028408
 20
6.8981810576
 30
0.0
 11
1.8886458911
 21
6.9430323588
 31
0.0
  0
LINE
  5
288
330
1F
100
AcDbEntity
  8
TRMODEL1
  6
Continuous
 62
     4
100
AcDbLine
 10
1.8886458911
 20
6.9430323588
 30
0.0
 11
1.89981989
 21
6.9903772482
 31
0.0
  0
LINE
  5
289
330
1F
100
AcDbEntity
  8
TRMODEL1
  6
Continuous
 62
     4
100
AcDbLine
 10
1.89981989
 20
6.9903772482
 30
0.0
 11
1.8999602586
 21
6.9963610035
 31
0.0
  0
LINE
  5
28A
330
1F
100
AcDbEntity
  8
TRMODEL1
  6
Continuous
 62
     4
100
AcDbLine
 10
1.3954962472
 20
7.1316215714
 30
0.0
 11
1.3625771344
 21
7.1050050944
 31
0.0
  0
LINE
  5
28B
330
1F
100
AcDbEntity
  8
TRMODEL1
  6
Continuous
 62
     4
100
AcDbLine
 10
1.3625771344
 20
7.1050050944
 30
0.0
 11
1.3464122916
 21
7.0736602479
 31
0.0
  0
LINE
  5
28C
330
1F
100
AcDbEntity
  8
TRMODEL1
  6
Continuous
 62
     4
100
AcDbLine
 10
1.3464122916
 20
7.0736602479
 30
0.0
 11
1.3487534305
 21
7.0409837326
 31
0.0
  0
LINE
  5
28D
330
1F
100
AcDbEntity
  8
TRMODEL1
  6
Continuous
 62
     4
100
AcDbLine
 10
1.3487534305
 20
7.0409837326
 30
0.0
 11
1.3693468521
 21
7.0105165557
 31
0.0
  0
LINE
  5
28E
330
1F
100
AcDbEntity
  8
TRMODEL1
  6
Continuous
 62
     4
100
AcDbLine
 10
1.3693468521
 20
7.0105165557
 30
0.0
 11
1.4059609399
 21
6.9855603088
 31
0.0
  0
LINE
  5
28F
330
1F
100
AcDbEntity
  8
TRMODEL1
  6
Continuous
 62
     4
100
AcDbLine
 10
1.4059609399
 20
6.9855603088
 30
0.0
 11
1.4546279892
 21
6.9688193883
 31
0.0
  0
LINE
  5
290
330
1F
100
AcDbEntity
  8
TRMODEL1
  6
Continuous
 62
     4
100
AcDbLine
 10
1.4546279892
 20
6.9688193883
 30
0.0
 11
1.5100741702
 21
6.9621079328
 31
0.0
  0
LINE
  5
291
330
1F
100
AcDbEntity
  8
TRMODEL1
  6
Continuous
 62
     4
100
AcDbLine
 10
1.5100741702
 20
6.9621079328
 30
0.0
 11
1.5662910287
 21
6.9661532327
 31
0.0
  0
LINE
  5
292
330
1F
100
AcDbEntity
  8
TRMODEL1
  6
Continuous
 62
     4
100
AcDbLine
 10
1.5662910287
 20
6.9661532327
 30
0.0
 11
1.6171865959
 21
6.9805169168
 31
0.0
  0
LINE
  5
293
330
1F
100
AcDbEntity
  8
TRMODEL1
  6
Continuous
 62
     4
100
AcDbLine
 10
1.6171865959
 20
6.9805169168
 30
0.0
 11
1.6572455472
 21
7.0036424572
 31
0.0
  0
LINE
  5
294
330
1F
100
AcDbEntity
  8
TRMODEL1
  6
Continuous
 62
     4
100
AcDbLine
 10
1.6572455472
 20
7.0036424572
 30
0.0
 11
1.6821268739
 21
7.0330238427
 31
0.0
  0
LINE
  5
295
330
1F
100
AcDbEntity
  8
TRMODEL1
  6
Continuous
 62
     4
100
AcDbLine
 10
1.6821268739
 20
7.0330238427
 30
0.0
 11
1.689134298
 21
7.0654771444
 31
0.0
  0
LINE
  5
296
330
1F
100
AcDbEntity
  8
TRMODEL1
  6
Continuous
 62
     4
100
AcDbLine
 10
1.689134298
 20
7.0654771444
 30
0.0
 11
1.6775084564
 21
7.0974855433
 31
0.0
  0
LINE
  5
297
330
1F
100
AcDbEntity
  8
TRMODEL1
  6
Continuous
 62
     4
100
AcDbLine
 10
1.6775084564
 20
7.0974855433
 30
0.0
 11
1.6485091895
 21
7.1255804329
 31
0.0
  0
LINE
  5
298
330
1F
100
AcDbEntity
  8
TRMODEL1
  6
Continuous
 62
     4
100
AcDbLine
 10
1.6485091895
 20
7.1255804329
 30
0.0
 11
1.6052790177
 21
7.1467172958
 31
0.0
  0
LINE
  5
299
330
1F
100
AcDbEntity
  8
TRMODEL1
  6
Continuous
 62
     4
100
AcDbLine
 10
1.6052790177
 20
7.1467172958
 30
0.0
 11
1.5525026011
 21
7.1586056251
 31
0.0
  0
LINE
  5
29A
330
1F
100
AcDbEntity
  8
TRMODEL1
  6
Continuous
 62
     4
100
AcDbLine
 10
1.5525026011
 20
7.1586056251
 30
0.0
 11
1.4958990831
 21
7.1599571358
 31
0.0
  0
LINE
  5
29B
330
1F
100
AcDbEntity
  8
TRMODEL1
  6
Continuous
 62
     4
100
AcDbLine
 10
1.4958990831
 20
7.1599571358
 30
0.0
 11
1.4416023334
 21
7.1506253707
 31
0.0
  0
LINE
  5
29C
330
1F
100
AcDbEntity
  8
TRMODEL1
  6
Continuous
 62
     4
100
AcDbLine
 10
1.4416023334
 20
7.1506253707
 30
0.0
 11
1.3954962472
 21
7.1316215714
 31
0.0
  0
LINE
  5
29D
330
1F
100
AcDbEntity
  8
TRMODEL1
  6
Continuous
 62
     4
100
AcDbLine
 10
1.67980927
 20
7.0288662867
 30
0.0
 11
1.6775084564
 21
7.0324749768
 31
0.0
  0
LINE
  5
29E
330
1F
100
AcDbEntity
  8
TRMODEL1
  6
Continuous
 62
     4
100
AcDbLine
 10
1.6775084564
 20
7.0324749768
 30
0.0
 11
1.6485091895
 21
7.0605698664
 31
0.0
  0
LINE
  5
29F
330
1F
100
AcDbEntity
  8
TRMODEL1
  6
Continuous
 62
     4
100
AcDbLine
 10
1.6485091895
 20
7.0605698664
 30
0.0
 11
1.6052790177
 21
7.0817067293
 31
0.0
  0
LINE
  5
2A0
330
1F
100
AcDbEntity
  8
TRMODEL1
  6
Continuous
 62
     4
100
AcDbLine
 10
1.6052790177
 20
7.0817067293
 30
0.0
 11
1.5525026011
 21
7.0935950586
 31
0.0
  0
LINE
  5
2A1
330
1F
100
AcDbEntity
  8
TRMODEL1
  6
Continuous
 62
     4
100
AcDbLine
 10
1.5525026011
 20
7.0935950586
 30
0.0
 11
1.4958990831
 21
7.0949465693
 31
0.0
  0
LINE
  5
2A2
330
1F
100
AcDbEntity
  8
TRMODEL1
  6
Continuous
 62
     4
100
AcDbLine
 10
1.4958990831
 20
7.0949465693
 30
0.0
 11
1.4416023334
 21
7.0856148042
 31
0.0
  0
LINE
  5
2A3
330
1F
100
AcDbEntity
  8
TRMODEL1
  6
Continuous
 62
     4
100
AcDbLine
 10
1.4416023334
 20
7.0856148042
 30
0.0
 11
1.3954962472
 21
7.0666110049
 31
0.0
  0
LINE
  5
2A4
330
1F
100
AcDbEntity
  8
TRMODEL1
  6
Continuous
 62
     4
100
AcDbLine
 10
1.6076409112
 20
8.1073426462
 30
0.0
 11
1.6283399183
 21
8.0977475495
 31
0.0
  0
LINE
  5
2A5
330
1F
100
AcDbEntity
  8
TRMODEL1
  6
Continuous
 62
     4
100
AcDbLine
 10
1.6283399183
 20
8.0977475495
 30
0.0
 11
1.6482434742
 21
8.0932295586
 31
0.0
  0
LINE
  5
2A6
330
1F
100
AcDbEntity
  8
TRMODEL1
  6
Continuous
 62
     4
100
AcDbLine
 10
1.6482434742
 20
8.0932295586
 30
0.0
 11
1.6665866963
 21
8.0939622973
 31
0.0
  0
LINE
  5
2A7
330
1F
100
AcDbEntity
  8
TRMODEL1
  6
Continuous
 62
     4
100
AcDbLine
 10
1.6665866963
 20
8.0939622973
 30
0.0
 11
1.682664665
 21
8.0999176069
 31
0.0
  0
LINE
  5
2A8
330
1F
100
AcDbEntity
  8
TRMODEL1
  6
Continuous
 62
     4
100
AcDbLine
 10
1.682664665
 20
8.0999176069
 30
0.0
 11
1.6958595129
 21
8.1108666281
 31
0.0
  0
LINE
  5
2A9
330
1F
100
AcDbEntity
  8
TRMODEL1
  6
Continuous
 62
     4
100
AcDbLine
 10
1.6958595129
 20
8.1108666281
 30
0.0
 11
1.7056641694
 21
8.1263885963
 31
0.0
  0
LINE
  5
2AA
330
1F
100
AcDbEntity
  8
TRMODEL1
  6
Continuous
 62
     4
100
AcDbLine
 10
1.7056641694
 20
8.1263885963
 30
0.0
 11
1.7117018471
 21
8.1458870109
 31
0.0
  0
LINE
  5
2AB
330
1F
100
AcDbEntity
  8
TRMODEL1
  6
Continuous
 62
     4
100
AcDbLine
 10
1.7117018471
 20
8.1458870109
 30
0.0
 11
1.7137405214
 21
8.1686125587
 31
0.0
  0
LINE
  5
2AC
330
1F
100
AcDbEntity
  8
TRMODEL1
  6
Continuous
 62
     4
100
AcDbLine
 10
1.6076409112
 20
8.1698528062
 30
0.0
 11
1.6177792004
 21
8.1651531671
 31
0.0
  0
LINE
  5
2AD
330
1F
100
AcDbEntity
  8
TRMODEL1
  6
Continuous
 62
     4
100
AcDbLine
 10
1.6177792004
 20
8.1651531671
 30
0.0
 11
1.6275278808
 21
8.1629402735
 31
0.0
  0
LINE
  5
2AE
330
1F
100
AcDbEntity
  8
TRMODEL1
  6
Continuous
 62
     4
100
AcDbLine
 10
1.6275278808
 20
8.1629402735
 30
0.0
 11
1.6365123161
 21
8.163299166
 31
0.0
  0
LINE
  5
2AF
330
1F
100
AcDbEntity
  8
TRMODEL1
  6
Continuous
 62
     4
100
AcDbLine
 10
1.6365123161
 20
8.163299166
 30
0.0
 11
1.6443872396
 21
8.1662160523
 31
0.0
  0
LINE
  5
2B0
330
1F
100
AcDbEntity
  8
TRMODEL1
  6
Continuous
 62
     4
100
AcDbLine
 10
1.6443872396
 20
8.1662160523
 30
0.0
 11
1.6508500222
 21
8.1715788382
 31
0.0
  0
LINE
  5
2B1
330
1F
100
AcDbEntity
  8
TRMODEL1
  6
Continuous
 62
     4
100
AcDbLine
 10
1.6508500222
 20
8.1715788382
 30
0.0
 11
1.655652303
 21
8.1791814349
 31
0.0
  0
LINE
  5
2B2
330
1F
100
AcDbEntity
  8
TRMODEL1
  6
Continuous
 62
     4
100
AcDbLine
 10
1.655652303
 20
8.1791814349
 30
0.0
 11
1.6586095328
 21
8.1887316788
 31
0.0
  0
LINE
  5
2B3
330
1F
100
AcDbEntity
  8
TRMODEL1
  6
Continuous
 62
     4
100
AcDbLine
 10
1.6586095328
 20
8.1887316788
 30
0.0
 11
1.6596080672
 21
8.1998625593
 31
0.0
  0
LINE
  5
2B4
330
1F
100
AcDbEntity
  8
TRMODEL1
  6
Continuous
 62
     4
100
AcDbLine
 10
1.6624535745
 20
8.5439561744
 30
0.0
 11
1.6303479275
 21
8.5612491494
 31
0.0
  0
LINE
  5
2B5
330
1F
100
AcDbEntity
  8
TRMODEL1
  6
Continuous
 62
     4
100
AcDbLine
 10
1.6303479275
 20
8.5612491494
 30
0.0
 11
1.579909549
 21
8.5766381743
 31
0.0
  0
LINE
  5
2B6
330
1F
100
AcDbEntity
  8
TRMODEL1
  6
Continuous
 62
     4
100
AcDbLine
 10
1.579909549
 20
8.5766381743
 30
0.0
 11
1.5238545814
 21
8.5827609871
 31
0.0
  0
LINE
  5
2B7
330
1F
100
AcDbEntity
  8
TRMODEL1
  6
Continuous
 62
     4
100
AcDbLine
 10
1.5238545814
 20
8.5827609871
 30
0.0
 11
1.4671637546
 21
8.5790735491
 31
0.0
  0
LINE
  5
2B8
330
1F
100
AcDbEntity
  8
TRMODEL1
  6
Continuous
 62
     4
100
AcDbLine
 10
1.4671637546
 20
8.5790735491
 30
0.0
 11
1.4148742974
 21
8.5659035053
 31
0.0
  0
LINE
  5
2B9
330
1F
100
AcDbEntity
  8
TRMODEL1
  6
Continuous
 62
     4
100
AcDbLine
 10
1.4148742974
 20
8.5659035053
 30
0.0
 11
1.3716323576
 21
8.5444210718
 31
0.0
  0
LINE
  5
2BA
330
1F
100
AcDbEntity
  8
TRMODEL1
  6
Continuous
 62
     4
100
AcDbLine
 10
1.3716323576
 20
8.5444210718
 30
0.0
 11
1.3412801711
 21
8.5165350573
 31
0.0
  0
LINE
  5
2BB
330
1F
100
AcDbEntity
  8
TRMODEL1
  6
Continuous
 62
     4
100
AcDbLine
 10
1.3412801711
 20
8.5165350573
 30
0.0
 11
1.326514663
 21
8.4847232563
 31
0.0
  0
LINE
  5
2BC
330
1F
100
AcDbEntity
  8
TRMODEL1
  6
Continuous
 62
     4
100
AcDbLine
 10
1.326514663
 20
8.4847232563
 30
0.0
 11
1.3286478136
 21
8.4518122872
 31
0.0
  0
LINE
  5
2BD
330
1F
100
AcDbEntity
  8
TRMODEL1
  6
Continuous
 62
     4
100
AcDbLine
 10
1.3286478136
 20
8.4518122872
 30
0.0
 11
1.3474900829
 21
8.4207264338
 31
0.0
  0
LINE
  5
2BE
330
1F
100
AcDbEntity
  8
TRMODEL1
  6
Continuous
 62
     4
100
AcDbLine
 10
1.3474900829
 20
8.4207264338
 30
0.0
 11
1.3813672527
 21
8.3942278107
 31
0.0
  0
LINE
  5
2BF
330
1F
100
AcDbEntity
  8
TRMODEL1
  6
Continuous
 62
     4
100
AcDbLine
 10
1.6596080672
 20
8.4833326615
 30
0.0
 11
1.6303479275
 21
8.4987389893
 31
0.0
  0
LINE
  5
2C0
330
1F
100
AcDbEntity
  8
TRMODEL1
  6
Continuous
 62
     4
100
AcDbLine
 10
1.6303479275
 20
8.4987389893
 30
0.0
 11
1.579909549
 21
8.5141280142
 31
0.0
  0
LINE
  5
2C1
330
1F
100
AcDbEntity
  8
TRMODEL1
  6
Continuous
 62
     4
100
AcDbLine
 10
1.579909549
 20
8.5141280142
 30
0.0
 11
1.5238545814
 21
8.520250827
 31
0.0
  0
LINE
  5
2C2
330
1F
100
AcDbEntity
  8
TRMODEL1
  6
Continuous
 62
     4
100
AcDbLine
 10
1.5238545814
 20
8.520250827
 30
0.0
 11
1.4671637546
 21
8.516563389
 31
0.0
  0
LINE
  5
2C3
330
1F
100
AcDbEntity
  8
TRMODEL1
  6
Continuous
 62
     4
100
AcDbLine
 10
1.4671637546
 20
8.516563389
 30
0.0
 11
1.4148742974
 21
8.5033933452
 31
0.0
  0
LINE
  5
2C4
330
1F
100
AcDbEntity
  8
TRMODEL1
  6
Continuous
 62
     4
100
AcDbLine
 10
1.4148742974
 20
8.5033933452
 30
0.0
 11
1.3716323576
 21
8.4819109117
 31
0.0
  0
LINE
  5
2C5
330
1F
100
AcDbEntity
  8
TRMODEL1
  6
Continuous
 62
     4
100
AcDbLine
 10
1.3716323576
 20
8.4819109117
 30
0.0
 11
1.3412801711
 21
8.4540248972
 31
0.0
  0
LINE
  5
2C6
330
1F
100
AcDbEntity
  8
TRMODEL1
  6
Continuous
 62
     4
100
AcDbLine
 10
1.3412801711
 20
8.4540248972
 30
0.0
 11
1.3331288994
 21
8.4410977323
 31
0.0
  0
LINE
  5
2C7
330
1F
100
AcDbEntity
  8
TRMODEL1
  6
Continuous
 62
     4
100
AcDbLine
 10
1.3954962472
 20
7.0666110049
 30
0.0
 11
1.3625771344
 21
7.0399945279
 31
0.0
  0
LINE
  5
2C8
330
1F
100
AcDbEntity
  8
TRMODEL1
  6
Continuous
 62
     4
100
AcDbLine
 10
1.3625771344
 20
7.0399945279
 30
0.0
 11
1.3545627384
 21
7.0288662867
 31
0.0
  0
LINE
  5
2C9
330
1F
100
AcDbEntity
  8
TRMODEL1
  6
Continuous
 62
     4
100
AcDbLine
 10
0.8476212544
 20
8.6686125687
 30
0.0
 11
0.8496599287
 21
8.6435332177
 31
0.0
  0
LINE
  5
2CA
330
1F
100
AcDbEntity
  8
TRMODEL1
  6
Continuous
 62
     4
100
AcDbLine
 10
0.8496599287
 20
8.6435332177
 30
0.0
 11
0.8556976063
 21
8.6170638488
 31
0.0
  0
LINE
  5
2CB
330
1F
100
AcDbEntity
  8
TRMODEL1
  6
Continuous
 62
     4
100
AcDbLine
 10
0.8556976063
 20
8.6170638488
 30
0.0
 11
0.8655022629
 21
8.5902216652
 31
0.0
  0
LINE
  5
2CC
330
1F
100
AcDbEntity
  8
TRMODEL1
  6
Continuous
 62
     4
100
AcDbLine
 10
0.8655022629
 20
8.5902216652
 30
0.0
 11
0.8786971108
 21
8.5640381968
 31
0.0
  0
LINE
  5
2CD
330
1F
100
AcDbEntity
  8
TRMODEL1
  6
Continuous
 62
     4
100
AcDbLine
 10
0.8786971108
 20
8.5640381968
 30
0.0
 11
0.8947750795
 21
8.5395196597
 31
0.0
  0
LINE
  5
2CE
330
1F
100
AcDbEntity
  8
TRMODEL1
  6
Continuous
 62
     4
100
AcDbLine
 10
0.8947750795
 20
8.5395196597
 30
0.0
 11
0.9131183016
 21
8.5176082875
 31
0.0
  0
LINE
  5
2CF
330
1F
100
AcDbEntity
  8
TRMODEL1
  6
Continuous
 62
     4
100
AcDbLine
 10
0.9131183016
 20
8.5176082875
 30
0.0
 11
0.9330218575
 21
8.499146122
 31
0.0
  0
LINE
  5
2D0
330
1F
100
AcDbEntity
  8
TRMODEL1
  6
Continuous
 62
     4
100
AcDbLine
 10
0.9330218575
 20
8.499146122
 30
0.0
 11
0.9537208646
 21
8.4848426537
 31
0.0
  0
LINE
  5
2D1
330
1F
100
AcDbEntity
  8
TRMODEL1
  6
Continuous
 62
     4
100
AcDbLine
 10
1.3348133421
 20
8.8873625731
 30
0.0
 11
1.3358118764
 21
8.8750788093
 31
0.0
  0
LINE
  5
2D2
330
1F
100
AcDbEntity
  8
TRMODEL1
  6
Continuous
 62
     4
100
AcDbLine
 10
1.3358118764
 20
8.8750788093
 30
0.0
 11
1.3387691063
 21
8.8621142205
 31
0.0
  0
LINE
  5
2D3
330
1F
100
AcDbEntity
  8
TRMODEL1
  6
Continuous
 62
     4
100
AcDbLine
 10
1.3387691063
 20
8.8621142205
 30
0.0
 11
1.343571387
 21
8.8489670285
 31
0.0
  0
LINE
  5
2D4
330
1F
100
AcDbEntity
  8
TRMODEL1
  6
Continuous
 62
     4
100
AcDbLine
 10
1.343571387
 20
8.8489670285
 30
0.0
 11
1.3500341697
 21
8.8361424726
 31
0.0
  0
LINE
  5
2D5
330
1F
100
AcDbEntity
  8
TRMODEL1
  6
Continuous
 62
     4
100
AcDbLine
 10
1.3500341697
 20
8.8361424726
 30
0.0
 11
1.3579090931
 21
8.8241333932
 31
0.0
  0
LINE
  5
2D6
330
1F
100
AcDbEntity
  8
TRMODEL1
  6
Continuous
 62
     4
100
AcDbLine
 10
1.3579090931
 20
8.8241333932
 30
0.0
 11
1.3668935285
 21
8.8134012925
 31
0.0
  0
LINE
  5
2D7
330
1F
100
AcDbEntity
  8
TRMODEL1
  6
Continuous
 62
     4
100
AcDbLine
 10
1.3668935285
 20
8.8134012925
 30
0.0
 11
1.3766422089
 21
8.8043585992
 31
0.0
  0
LINE
  5
2D8
330
1F
100
AcDbEntity
  8
TRMODEL1
  6
Continuous
 62
     4
100
AcDbLine
 10
1.3766422089
 20
8.8043585992
 30
0.0
 11
1.3867804981
 21
8.7973528188
 31
0.0
  0
LINE
  5
2D9
330
1F
100
AcDbEntity
  8
TRMODEL1
  6
Continuous
 62
     4
100
AcDbLine
 10
1.3813672527
 20
8.3942278107
 30
0.0
 11
1.4272691877
 21
8.3746709369
 31
0.0
  0
LINE
  5
2DA
330
1F
100
AcDbEntity
  8
TRMODEL1
  6
Continuous
 62
     4
100
AcDbLine
 10
1.4272691877
 20
8.3746709369
 30
0.0
 11
1.4811172997
 21
8.3637935263
 31
0.0
  0
LINE
  5
2DB
330
1F
100
AcDbEntity
  8
TRMODEL1
  6
Continuous
 62
     4
100
AcDbLine
 10
1.4811172997
 20
8.3637935263
 30
0.0
 11
1.5238545814
 21
8.3628703762
 31
0.0
  0
LINE
  5
2DC
330
1F
100
AcDbEntity
  8
TRMODEL1
  6
Continuous
 62
     4
100
AcDbLine
 10
0.9017537086
 20
8.6373625681
 30
0.0
 11
0.9027522429
 21
8.6250788043
 31
0.0
  0
LINE
  5
2DD
330
1F
100
AcDbEntity
  8
TRMODEL1
  6
Continuous
 62
     4
100
AcDbLine
 10
0.9027522429
 20
8.6250788043
 30
0.0
 11
0.9057094728
 21
8.6121142155
 31
0.0
  0
LINE
  5
2DE
330
1F
100
AcDbEntity
  8
TRMODEL1
  6
Continuous
 62
     4
100
AcDbLine
 10
0.9057094728
 20
8.6121142155
 30
0.0
 11
0.9105117536
 21
8.5989670235
 31
0.0
  0
LINE
  5
2DF
330
1F
100
AcDbEntity
  8
TRMODEL1
  6
Continuous
 62
     4
100
AcDbLine
 10
0.9105117536
 20
8.5989670235
 30
0.0
 11
0.9169745362
 21
8.5861424676
 31
0.0
  0
LINE
  5
2E0
330
1F
100
AcDbEntity
  8
TRMODEL1
  6
Continuous
 62
     4
100
AcDbLine
 10
0.9169745362
 20
8.5861424676
 30
0.0
 11
0.9248494596
 21
8.5741333882
 31
0.0
  0
LINE
  5
2E1
330
1F
100
AcDbEntity
  8
TRMODEL1
  6
Continuous
 62
     4
100
AcDbLine
 10
0.9248494596
 20
8.5741333882
 30
0.0
 11
0.933833895
 21
8.5634012875
 31
0.0
  0
LINE
  5
2E2
330
1F
100
AcDbEntity
  8
TRMODEL1
  6
Continuous
 62
     4
100
AcDbLine
 10
0.933833895
 20
8.5634012875
 30
0.0
 11
0.9435825754
 21
8.5543585942
 31
0.0
  0
LINE
  5
2E3
330
1F
100
AcDbEntity
  8
TRMODEL1
  6
Continuous
 62
     4
100
AcDbLine
 10
0.9435825754
 20
8.5543585942
 30
0.0
 11
0.9537208646
 21
8.5473528138
 31
0.0
  0
LINE
  5
2E4
330
1F
100
AcDbEntity
  8
TRMODEL1
  6
Continuous
 62
     4
100
AcDbLine
 10
1.7137405214
 20
8.4861641719
 30
0.0
 11
1.7147390557
 21
8.4972950525
 31
0.0
  0
LINE
  5
2E5
330
1F
100
AcDbEntity
  8
TRMODEL1
  6
Continuous
 62
     4
100
AcDbLine
 10
1.7147390557
 20
8.4972950525
 30
0.0
 11
1.7176962856
 21
8.5068452964
 31
0.0
  0
LINE
  5
2E6
330
1F
100
AcDbEntity
  8
TRMODEL1
  6
Continuous
 62
     4
100
AcDbLine
 10
1.7176962856
 20
8.5068452964
 30
0.0
 11
1.7224985663
 21
8.514447893
 31
0.0
  0
LINE
  5
2E7
330
1F
100
AcDbEntity
  8
TRMODEL1
  6
Continuous
 62
     4
100
AcDbLine
 10
1.7224985663
 20
8.514447893
 30
0.0
 11
1.7289613489
 21
8.5198106789
 31
0.0
  0
LINE
  5
2E8
330
1F
100
AcDbEntity
  8
TRMODEL1
  6
Continuous
 62
     4
100
AcDbLine
 10
1.7289613489
 20
8.5198106789
 30
0.0
 11
1.7368362724
 21
8.5227275653
 31
0.0
  0
LINE
  5
2E9
330
1F
100
AcDbEntity
  8
TRMODEL1
  6
Continuous
 62
     4
100
AcDbLine
 10
1.7368362724
 20
8.5227275653
 30
0.0
 11
1.7458207077
 21
8.5230864577
 31
0.0
  0
LINE
  5
2EA
330
1F
100
AcDbEntity
  8
TRMODEL1
  6
Continuous
 62
     4
100
AcDbLine
 10
1.7458207077
 20
8.5230864577
 30
0.0
 11
1.7555693882
 21
8.5208735642
 31
0.0
  0
LINE
  5
2EB
330
1F
100
AcDbEntity
  8
TRMODEL1
  6
Continuous
 62
     4
100
AcDbLine
 10
1.7555693882
 20
8.5208735642
 30
0.0
 11
1.7657076774
 21
8.516173925
 31
0.0
  0
LINE
  5
2EC
330
1F
100
AcDbEntity
  8
TRMODEL1
  6
Continuous
 62
     4
100
AcDbLine
 10
1.6596080672
 20
8.5174141726
 30
0.0
 11
1.6616467414
 21
8.5401397204
 31
0.0
  0
LINE
  5
2ED
330
1F
100
AcDbEntity
  8
TRMODEL1
  6
Continuous
 62
     4
100
AcDbLine
 10
1.6616467414
 20
8.5401397204
 30
0.0
 11
1.6676844191
 21
8.559638135
 31
0.0
  0
LINE
  5
2EE
330
1F
100
AcDbEntity
  8
TRMODEL1
  6
Continuous
 62
     4
100
AcDbLine
 10
1.6676844191
 20
8.559638135
 30
0.0
 11
1.6774890756
 21
8.5751601031
 31
0.0
  0
LINE
  5
2EF
330
1F
100
AcDbEntity
  8
TRMODEL1
  6
Continuous
 62
     4
100
AcDbLine
 10
1.6774890756
 20
8.5751601031
 30
0.0
 11
1.6906839235
 21
8.5861091244
 31
0.0
  0
LINE
  5
2F0
330
1F
100
AcDbEntity
  8
TRMODEL1
  6
Continuous
 62
     4
100
AcDbLine
 10
1.6906839235
 20
8.5861091244
 30
0.0
 11
1.7067618922
 21
8.592064434
 31
0.0
  0
LINE
  5
2F1
330
1F
100
AcDbEntity
  8
TRMODEL1
  6
Continuous
 62
     4
100
AcDbLine
 10
1.7067618922
 20
8.592064434
 30
0.0
 11
1.7251051144
 21
8.5927971727
 31
0.0
  0
LINE
  5
2F2
330
1F
100
AcDbEntity
  8
TRMODEL1
  6
Continuous
 62
     4
100
AcDbLine
 10
1.7251051144
 20
8.5927971727
 30
0.0
 11
1.7450086702
 21
8.5882791818
 31
0.0
  0
LINE
  5
2F3
330
1F
100
AcDbEntity
  8
TRMODEL1
  6
Continuous
 62
     4
100
AcDbLine
 10
1.7450086702
 20
8.5882791818
 30
0.0
 11
1.7657076774
 21
8.5786840851
 31
0.0
  0
LINE
  5
2F4
330
1F
100
AcDbEntity
  8
TRMODEL1
  6
Continuous
 62
     2
100
AcDbLine
 10
1.6627642603
 20
10.7257345713
 30
0.0
 11
1.6634278247
 21
10.7250561485
 31
0.0
  0
LINE
  5
2F5
330
1F
100
AcDbEntity
  8
TRMODEL1
  6
Continuous
 62
     2
100
AcDbLine
 10
1.6634278247
 20
10.7250561485
 30
0.0
 11
1.6701886989
 21
10.6982800358
 31
0.0
  0
LINE
  5
2F6
330
1F
100
AcDbEntity
  8
TRMODEL1
  6
Continuous
 62
     2
100
AcDbLine
 10
1.6701886989
 20
10.6982800358
 30
0.0
 11
1.6596296863
 21
10.6718485115
 31
0.0
  0
LINE
  5
2F7
330
1F
100
AcDbEntity
  8
TRMODEL1
  6
Continuous
 62
     2
100
AcDbLine
 10
1.6596296863
 20
10.6718485115
 30
0.0
 11
1.6329481452
 21
10.6491139037
 31
0.0
  0
LINE
  5
2F8
330
1F
100
AcDbEntity
  8
TRMODEL1
  6
Continuous
 62
     2
100
AcDbLine
 10
1.6329481452
 20
10.6491139037
 30
0.0
 11
1.5931598572
 21
10.632905497
 31
0.0
  0
LINE
  5
2F9
330
1F
100
AcDbEntity
  8
TRMODEL1
  6
Continuous
 62
     2
100
AcDbLine
 10
1.5931598572
 20
10.632905497
 30
0.0
 11
1.5447744307
 21
10.6253996401
 31
0.0
  0
LINE
  5
2FA
330
1F
100
AcDbEntity
  8
TRMODEL1
  6
Continuous
 62
     2
100
AcDbLine
 10
1.5447744307
 20
10.6253996401
 30
0.0
 11
1.4932640987
 21
10.6277284109
 31
0.0
  0
LINE
  5
2FB
330
1F
100
AcDbEntity
  8
TRMODEL1
  6
Continuous
 62
     2
100
AcDbLine
 10
1.4932640987
 20
10.6277284109
 30
0.0
 11
1.4444622334
 21
10.6399358743
 31
0.0
  0
LINE
  5
2FC
330
1F
100
AcDbEntity
  8
TRMODEL1
  6
Continuous
 62
     2
100
AcDbLine
 10
1.4444622334
 20
10.6399358743
 30
0.0
 11
1.4038936078
 21
10.6609609778
 31
0.0
  0
LINE
  5
2FD
330
1F
100
AcDbEntity
  8
TRMODEL1
  6
Continuous
 62
     2
100
AcDbLine
 10
1.4038936078
 20
10.6609609778
 30
0.0
 11
1.3761471387
 21
10.68869662
 31
0.0
  0
LINE
  5
2FE
330
1F
100
AcDbEntity
  8
TRMODEL1
  6
Continuous
 62
     2
100
AcDbLine
 10
1.3761471387
 20
10.68869662
 30
0.0
 11
1.3643676465
 21
10.7203477983
 31
0.0
  0
LINE
  5
2FF
330
1F
100
AcDbEntity
  8
TRMODEL1
  6
Continuous
 62
     2
100
AcDbLine
 10
1.3643676465
 20
10.7203477983
 30
0.0
 11
1.3698865468
 21
10.7525957094
 31
0.0
  0
LINE
  5
300
330
1F
100
AcDbEntity
  8
TRMODEL1
  6
Continuous
 62
     2
100
AcDbLine
 10
1.3698865468
 20
10.7525957094
 30
0.0
 11
1.3700272638
 21
10.7527829971
 31
0.0
  0
LINE
  5
301
330
1F
100
AcDbEntity
  8
TRMODEL1
  6
Continuous
 62
     2
100
AcDbLine
 10
1.3659600053
 20
10.7743214984
 30
0.0
 11
1.3649513953
 21
10.764106688
 31
0.0
  0
LINE
  5
302
330
1F
100
AcDbEntity
  8
TRMODEL1
  6
Continuous
 62
     2
100
AcDbLine
 10
1.3649513953
 20
10.764106688
 30
0.0
 11
1.3789879739
 21
10.7327926624
 31
0.0
  0
LINE
  5
303
330
1F
100
AcDbEntity
  8
TRMODEL1
  6
Continuous
 62
     2
100
AcDbLine
 10
1.3789879739
 20
10.7327926624
 30
0.0
 11
1.4086702436
 21
10.7058056374
 31
0.0
  0
LINE
  5
304
330
1F
100
AcDbEntity
  8
TRMODEL1
  6
Continuous
 62
     2
100
AcDbLine
 10
1.4086702436
 20
10.7058056374
 30
0.0
 11
1.4506335983
 21
10.685862044
 31
0.0
  0
LINE
  5
305
330
1F
100
AcDbEntity
  8
TRMODEL1
  6
Continuous
 62
     2
100
AcDbLine
 10
1.4506335983
 20
10.685862044
 30
0.0
 11
1.5001327136
 21
10.6749375419
 31
0.0
  0
LINE
  5
306
330
1F
100
AcDbEntity
  8
TRMODEL1
  6
Continuous
 62
     2
100
AcDbLine
 10
1.5001327136
 20
10.6749375419
 30
0.0
 11
1.5515611953
 21
10.6739543911
 31
0.0
  0
LINE
  5
307
330
1F
100
AcDbEntity
  8
TRMODEL1
  6
Continuous
 62
     2
100
AcDbLine
 10
1.5515611953
 20
10.6739543911
 30
0.0
 11
1.5990981288
 21
10.6827147576
 31
0.0
  0
LINE
  5
308
330
1F
100
AcDbEntity
  8
TRMODEL1
  6
Continuous
 62
     2
100
AcDbLine
 10
1.5990981288
 20
10.6827147576
 30
0.0
 11
1.637364112
 21
10.699942807
 31
0.0
  0
LINE
  5
309
330
1F
100
AcDbEntity
  8
TRMODEL1
  6
Continuous
 62
     2
100
AcDbLine
 10
1.637364112
 20
10.699942807
 30
0.0
 11
1.6620245259
 21
10.7233473196
 31
0.0
  0
LINE
  5
30A
330
1F
100
AcDbEntity
  8
TRMODEL1
  6
Continuous
 62
     2
100
AcDbLine
 10
1.6620245259
 20
10.7233473196
 30
0.0
 11
1.6701000523
 21
10.7494084494
 31
0.0
  0
LINE
  5
30B
330
1F
100
AcDbEntity
  8
TRMODEL1
  6
Continuous
 62
     2
100
AcDbLine
 10
1.36578971
 20
10.7244631828
 30
0.0
 11
1.3687166919
 21
10.7008167555
 31
0.0
  0
LINE
  5
30C
330
1F
100
AcDbEntity
  8
TRMODEL1
  6
Continuous
 62
     2
100
AcDbLine
 10
1.3687166919
 20
10.7008167555
 30
0.0
 11
1.3895275431
 21
10.6709270722
 31
0.0
  0
LINE
  5
30D
330
1F
100
AcDbEntity
  8
TRMODEL1
  6
Continuous
 62
     2
100
AcDbLine
 10
1.3895275431
 20
10.6709270722
 30
0.0
 11
1.4247879877
 21
10.6465558975
 31
0.0
  0
LINE
  5
30E
330
1F
100
AcDbEntity
  8
TRMODEL1
  6
Continuous
 62
     2
100
AcDbLine
 10
1.4247879877
 20
10.6465558975
 30
0.0
 11
1.4705077792
 21
10.6301593558
 31
0.0
  0
LINE
  5
30F
330
1F
100
AcDbEntity
  8
TRMODEL1
  6
Continuous
 62
     2
100
AcDbLine
 10
1.4705077792
 20
10.6301593558
 30
0.0
 11
1.5215128726
 21
10.6233057103
 31
0.0
  0
LINE
  5
310
330
1F
100
AcDbEntity
  8
TRMODEL1
  6
Continuous
 62
     2
100
AcDbLine
 10
1.5215128726
 20
10.6233057103
 30
0.0
 11
1.5720248671
 21
10.6264315326
 31
0.0
  0
LINE
  5
311
330
1F
100
AcDbEntity
  8
TRMODEL1
  6
Continuous
 62
     2
100
AcDbLine
 10
1.5720248671
 20
10.6264315326
 30
0.0
 11
1.6163338163
 21
10.6389255953
 31
0.0
  0
LINE
  5
312
330
1F
100
AcDbEntity
  8
TRMODEL1
  6
Continuous
 62
     2
100
AcDbLine
 10
1.6163338163
 20
10.6389255953
 30
0.0
 11
1.6494155319
 21
10.6590171812
 31
0.0
  0
LINE
  5
313
330
1F
100
AcDbEntity
  8
TRMODEL1
  6
Continuous
 62
     2
100
AcDbLine
 10
1.6494155319
 20
10.6590171812
 30
0.0
 11
1.6675314718
 21
10.6841755987
 31
0.0
  0
LINE
  5
314
330
1F
100
AcDbEntity
  8
TRMODEL1
  6
Continuous
 62
     2
100
AcDbLine
 10
1.6675314718
 20
10.6841755987
 30
0.0
 11
1.6681490126
 21
10.6994023324
 31
0.0
  0
LINE
  5
315
330
1F
100
AcDbEntity
  8
TRMODEL1
  6
Continuous
 62
     2
100
AcDbLine
 10
1.3651424388
 20
10.6742951136
 30
0.0
 11
1.3642574347
 21
10.6696860305
 31
0.0
  0
LINE
  5
316
330
1F
100
AcDbEntity
  8
TRMODEL1
  6
Continuous
 62
     2
100
AcDbLine
 10
1.3642574347
 20
10.6696860305
 30
0.0
 11
1.3753823611
 21
10.637957731
 31
0.0
  0
LINE
  5
317
330
1F
100
AcDbEntity
  8
TRMODEL1
  6
Continuous
 62
     2
100
AcDbLine
 10
1.3753823611
 20
10.637957731
 30
0.0
 11
1.4025595758
 21
10.6100096626
 31
0.0
  0
LINE
  5
318
330
1F
100
AcDbEntity
  8
TRMODEL1
  6
Continuous
 62
     2
100
AcDbLine
 10
1.4025595758
 20
10.6100096626
 30
0.0
 11
1.4427107318
 21
10.5886822195
 31
0.0
  0
LINE
  5
319
330
1F
100
AcDbEntity
  8
TRMODEL1
  6
Continuous
 62
     2
100
AcDbLine
 10
1.4427107318
 20
10.5886822195
 30
0.0
 11
1.4912950093
 21
10.5761125622
 31
0.0
  0
LINE
  5
31A
330
1F
100
AcDbEntity
  8
TRMODEL1
  6
Continuous
 62
     2
100
AcDbLine
 10
1.4912950093
 20
10.5761125622
 30
0.0
 11
1.5428066151
 21
10.5733847387
 31
0.0
  0
LINE
  5
31B
330
1F
100
AcDbEntity
  8
TRMODEL1
  6
Continuous
 62
     2
100
AcDbLine
 10
1.5428066151
 20
10.5733847387
 30
0.0
 11
1.5914216903
 21
10.5805425263
 31
0.0
  0
LINE
  5
31C
330
1F
100
AcDbEntity
  8
TRMODEL1
  6
Continuous
 62
     2
100
AcDbLine
 10
1.5914216903
 20
10.5805425263
 30
0.0
 11
1.6316300516
 21
10.5964300789
 31
0.0
  0
LINE
  5
31D
330
1F
100
AcDbEntity
  8
TRMODEL1
  6
Continuous
 62
     2
100
AcDbLine
 10
1.6316300516
 20
10.5964300789
 30
0.0
 11
1.6588861562
 21
10.6189813335
 31
0.0
  0
LINE
  5
31E
330
1F
100
AcDbEntity
  8
TRMODEL1
  6
Continuous
 62
     2
100
AcDbLine
 10
1.6588861562
 20
10.6189813335
 30
0.0
 11
1.6701009621
 21
10.6453136261
 31
0.0
  0
LINE
  5
31F
330
1F
100
AcDbEntity
  8
TRMODEL1
  6
Continuous
 62
     2
100
AcDbLine
 10
1.6701009621
 20
10.6453136261
 30
0.0
 11
1.6691967788
 21
10.6492952036
 31
0.0
  0
LINE
  5
320
330
1F
100
AcDbEntity
  8
TRMODEL1
  6
Continuous
 62
     2
100
AcDbLine
 10
1.3662287735
 20
10.6243887847
 30
0.0
 11
1.3667890855
 21
10.6062965491
 31
0.0
  0
LINE
  5
321
330
1F
100
AcDbEntity
  8
TRMODEL1
  6
Continuous
 62
     2
100
AcDbLine
 10
1.3667890855
 20
10.6062965491
 30
0.0
 11
1.384818286
 21
10.5757554937
 31
0.0
  0
LINE
  5
322
330
1F
100
AcDbEntity
  8
TRMODEL1
  6
Continuous
 62
     2
100
AcDbLine
 10
1.384818286
 20
10.5757554937
 30
0.0
 11
1.417829477
 21
10.5502250006
 31
0.0
  0
LINE
  5
323
330
1F
100
AcDbEntity
  8
TRMODEL1
  6
Continuous
 62
     2
100
AcDbLine
 10
1.417829477
 20
10.5502250006
 30
0.0
 11
1.4620909881
 21
10.5323309495
 31
0.0
  0
LINE
  5
324
330
1F
100
AcDbEntity
  8
TRMODEL1
  6
Continuous
 62
     2
100
AcDbLine
 10
1.4620909881
 20
10.5323309495
 30
0.0
 11
1.5125844705
 21
10.5237474819
 31
0.0
  0
LINE
  5
325
330
1F
100
AcDbEntity
  8
TRMODEL1
  6
Continuous
 62
     2
100
AcDbLine
 10
1.5125844705
 20
10.5237474819
 30
0.0
 11
1.5636036949
 21
10.5251864971
 31
0.0
  0
LINE
  5
326
330
1F
100
AcDbEntity
  8
TRMODEL1
  6
Continuous
 62
     2
100
AcDbLine
 10
1.5636036949
 20
10.5251864971
 30
0.0
 11
1.6093648696
 21
10.5361438642
 31
0.0
  0
LINE
  5
327
330
1F
100
AcDbEntity
  8
TRMODEL1
  6
Continuous
 62
     2
100
AcDbLine
 10
1.6093648696
 20
10.5361438642
 30
0.0
 11
1.6446935146
 21
10.5550982053
 31
0.0
  0
LINE
  5
328
330
1F
100
AcDbEntity
  8
TRMODEL1
  6
Continuous
 62
     2
100
AcDbLine
 10
1.6446935146
 20
10.5550982053
 30
0.0
 11
1.6655879819
 21
10.5795919208
 31
0.0
  0
LINE
  5
329
330
1F
100
AcDbEntity
  8
TRMODEL1
  6
Continuous
 62
     2
100
AcDbLine
 10
1.6655879819
 20
10.5795919208
 30
0.0
 11
1.6686039444
 21
10.5994321165
 31
0.0
  0
LINE
  5
32A
330
1F
100
AcDbEntity
  8
TRMODEL1
  6
Continuous
 62
     4
100
AcDbLine
 10
1.7359597132
 20
11.6804560521
 30
0.0
 11
1.7359597132
 21
11.8009420825
 31
0.0
  0
LINE
  5
32B
330
1F
100
AcDbEntity
  8
TRMODEL1
  6
Continuous
 62
     4
100
AcDbLine
 10
1.7359597132
 20
11.6804560521
 30
0.0
 11
1.7759980808
 21
11.7667173967
 31
0.0
  0
LINE
  5
32C
330
1F
100
AcDbEntity
  8
TRMODEL1
  6
Continuous
 62
     4
100
AcDbLine
 10
1.7759980808
 20
11.7667173967
 30
0.0
 11
1.8160364483
 21
11.8529787413
 31
0.0
  0
LINE
  5
32D
330
1F
100
AcDbEntity
  8
TRMODEL1
  6
Continuous
 62
     4
100
AcDbLine
 10
1.8160364483
 20
11.8529787413
 30
0.0
 11
1.8160364483
 21
11.9734647717
 31
0.0
  0
LINE
  5
32E
330
1F
100
AcDbEntity
  8
TRMODEL1
  6
Continuous
 62
     4
100
AcDbLine
 10
1.4371092691
 20
11.6342287369
 30
0.0
 11
1.5865344911
 21
11.6573423945
 31
0.0
  0
LINE
  5
32F
330
1F
100
AcDbEntity
  8
TRMODEL1
  6
Continuous
 62
     4
100
AcDbLine
 10
1.4371092691
 20
11.6342287369
 30
0.0
 11
1.4371092691
 21
11.7547147673
 31
0.0
  0
LINE
  5
330
330
1F
100
AcDbEntity
  8
TRMODEL1
  6
Continuous
 62
     4
100
AcDbLine
 10
1.2183355601
 20
11.7605241108
 30
0.0
 11
1.3277224146
 21
11.6973764239
 31
0.0
  0
LINE
  5
331
330
1F
100
AcDbEntity
  8
TRMODEL1
  6
Continuous
 62
     4
100
AcDbLine
 10
1.3277224146
 20
11.6973764239
 30
0.0
 11
1.4371092691
 21
11.6342287369
 31
0.0
  0
LINE
  5
332
330
1F
100
AcDbEntity
  8
TRMODEL1
  6
Continuous
 62
     4
100
AcDbLine
 10
1.2183355601
 20
11.7605241108
 30
0.0
 11
1.2183355601
 21
11.8810101412
 31
0.0
  0
LINE
  5
333
330
1F
100
AcDbEntity
  8
TRMODEL1
  6
Continuous
 62
     4
100
AcDbLine
 10
1.5865344911
 20
11.6573423945
 30
0.0
 11
1.7359597132
 21
11.6804560521
 31
0.0
  0
LINE
  5
334
330
1F
100
AcDbEntity
  8
TRMODEL1
  6
Continuous
 62
     4
100
AcDbLine
 10
1.3640763025
 20
10.7743890799
 30
0.0
 11
1.3640763025
 21
11.6548092594
 31
0.0
  0
LINE
  5
335
330
1F
100
AcDbEntity
  8
TRMODEL1
  6
Continuous
 62
     4
100
AcDbLine
 10
1.7359597132
 20
11.8009420825
 30
0.0
 11
1.6287890963
 21
11.7987965404
 31
0.0
  0
LINE
  5
336
330
1F
100
AcDbEntity
  8
TRMODEL1
  6
Continuous
 62
     4
100
AcDbLine
 10
1.6287890963
 20
11.7987965404
 30
0.0
 11
1.5170130609
 21
11.7792407607
 31
0.0
  0
LINE
  5
337
330
1F
100
AcDbEntity
  8
TRMODEL1
  6
Continuous
 62
     4
100
AcDbLine
 10
1.5170130609
 20
11.7792407607
 30
0.0
 11
1.4371092691
 21
11.7547147673
 31
0.0
  0
LINE
  5
338
330
1F
100
AcDbEntity
  8
TRMODEL1
  6
Continuous
 62
     4
100
AcDbLine
 10
1.5972627394
 20
12.0997601456
 30
0.0
 11
1.624941344
 21
12.0904814415
 31
0.0
  0
LINE
  5
339
330
1F
100
AcDbEntity
  8
TRMODEL1
  6
Continuous
 62
     4
100
AcDbLine
 10
1.624941344
 20
12.0904814415
 30
0.0
 11
1.6975824898
 21
12.057512788
 31
0.0
  0
LINE
  5
33A
330
1F
100
AcDbEntity
  8
TRMODEL1
  6
Continuous
 62
     4
100
AcDbLine
 10
1.6975824898
 20
12.057512788
 30
0.0
 11
1.7725988584
 21
12.0083196005
 31
0.0
  0
LINE
  5
33B
330
1F
100
AcDbEntity
  8
TRMODEL1
  6
Continuous
 62
     4
100
AcDbLine
 10
1.7725988584
 20
12.0083196005
 30
0.0
 11
1.8160364483
 21
11.9734647717
 31
0.0
  0
LINE
  5
33C
330
1F
100
AcDbEntity
  8
TRMODEL1
  6
Continuous
 62
     4
100
AcDbLine
 10
1.3309790945
 20
12.0522688204
 30
0.0
 11
1.2891300465
 21
12.0207842753
 31
0.0
  0
LINE
  5
33D
330
1F
100
AcDbEntity
  8
TRMODEL1
  6
Continuous
 62
     4
100
AcDbLine
 10
1.2891300465
 20
12.0207842753
 30
0.0
 11
1.2628226352
 21
11.984119746
 31
0.0
  0
LINE
  5
33E
330
1F
100
AcDbEntity
  8
TRMODEL1
  6
Continuous
 62
     4
100
AcDbLine
 10
1.2628226352
 20
11.984119746
 30
0.0
 11
1.2538496671
 21
11.9447738595
 31
0.0
  0
LINE
  5
33F
330
1F
100
AcDbEntity
  8
TRMODEL1
  6
Continuous
 62
     4
100
AcDbLine
 10
1.2538496671
 20
11.9447738595
 30
0.0
 11
1.2628226352
 21
11.9054279731
 31
0.0
  0
LINE
  5
340
330
1F
100
AcDbEntity
  8
TRMODEL1
  6
Continuous
 62
     4
100
AcDbLine
 10
1.2628226352
 20
11.9054279731
 30
0.0
 11
1.2891300465
 21
11.8687634437
 31
0.0
  0
LINE
  5
341
330
1F
100
AcDbEntity
  8
TRMODEL1
  6
Continuous
 62
     4
100
AcDbLine
 10
1.2891300465
 20
11.8687634437
 30
0.0
 11
1.3309790945
 21
11.8372788986
 31
0.0
  0
LINE
  5
342
330
1F
100
AcDbEntity
  8
TRMODEL1
  6
Continuous
 62
     4
100
AcDbLine
 10
1.3309790945
 20
11.8372788986
 30
0.0
 11
1.3855178357
 21
11.8131199575
 31
0.0
  0
LINE
  5
343
330
1F
100
AcDbEntity
  8
TRMODEL1
  6
Continuous
 62
     4
100
AcDbLine
 10
1.3855178357
 20
11.8131199575
 30
0.0
 11
1.4490295449
 21
11.7979330122
 31
0.0
  0
LINE
  5
344
330
1F
100
AcDbEntity
  8
TRMODEL1
  6
Continuous
 62
     4
100
AcDbLine
 10
1.4490295449
 20
11.7979330122
 30
0.0
 11
1.5171860042
 21
11.7927530279
 31
0.0
  0
LINE
  5
345
330
1F
100
AcDbEntity
  8
TRMODEL1
  6
Continuous
 62
     4
100
AcDbLine
 10
1.5171860042
 20
11.7927530279
 30
0.0
 11
1.5853424635
 21
11.7979330122
 31
0.0
  0
LINE
  5
346
330
1F
100
AcDbEntity
  8
TRMODEL1
  6
Continuous
 62
     4
100
AcDbLine
 10
1.5853424635
 20
11.7979330122
 30
0.0
 11
1.6488541728
 21
11.8131199575
 31
0.0
  0
LINE
  5
347
330
1F
100
AcDbEntity
  8
TRMODEL1
  6
Continuous
 62
     4
100
AcDbLine
 10
1.6488541728
 20
11.8131199575
 30
0.0
 11
1.7033929139
 21
11.8372788986
 31
0.0
  0
LINE
  5
348
330
1F
100
AcDbEntity
  8
TRMODEL1
  6
Continuous
 62
     4
100
AcDbLine
 10
1.7033929139
 20
11.8372788986
 30
0.0
 11
1.7452419619
 21
11.8687634437
 31
0.0
  0
LINE
  5
349
330
1F
100
AcDbEntity
  8
TRMODEL1
  6
Continuous
 62
     4
100
AcDbLine
 10
1.7452419619
 20
11.8687634437
 30
0.0
 11
1.7715493733
 21
11.9054279731
 31
0.0
  0
LINE
  5
34A
330
1F
100
AcDbEntity
  8
TRMODEL1
  6
Continuous
 62
     4
100
AcDbLine
 10
1.7715493733
 20
11.9054279731
 30
0.0
 11
1.7805223413
 21
11.9447738595
 31
0.0
  0
LINE
  5
34B
330
1F
100
AcDbEntity
  8
TRMODEL1
  6
Continuous
 62
     4
100
AcDbLine
 10
1.7805223413
 20
11.9447738595
 30
0.0
 11
1.7715493733
 21
11.984119746
 31
0.0
  0
LINE
  5
34C
330
1F
100
AcDbEntity
  8
TRMODEL1
  6
Continuous
 62
     4
100
AcDbLine
 10
1.7715493733
 20
11.984119746
 30
0.0
 11
1.7452419619
 21
12.0207842753
 31
0.0
  0
LINE
  5
34D
330
1F
100
AcDbEntity
  8
TRMODEL1
  6
Continuous
 62
     4
100
AcDbLine
 10
1.7452419619
 20
12.0207842753
 30
0.0
 11
1.7033929139
 21
12.0522688204
 31
0.0
  0
LINE
  5
34E
330
1F
100
AcDbEntity
  8
TRMODEL1
  6
Continuous
 62
     4
100
AcDbLine
 10
1.7033929139
 20
12.0522688204
 30
0.0
 11
1.6488541728
 21
12.0764277616
 31
0.0
  0
LINE
  5
34F
330
1F
100
AcDbEntity
  8
TRMODEL1
  6
Continuous
 62
     4
100
AcDbLine
 10
1.6488541728
 20
12.0764277616
 30
0.0
 11
1.5853424635
 21
12.0916147069
 31
0.0
  0
LINE
  5
350
330
1F
100
AcDbEntity
  8
TRMODEL1
  6
Continuous
 62
     4
100
AcDbLine
 10
1.5853424635
 20
12.0916147069
 30
0.0
 11
1.5171860042
 21
12.0967946911
 31
0.0
  0
LINE
  5
351
330
1F
100
AcDbEntity
  8
TRMODEL1
  6
Continuous
 62
     4
100
AcDbLine
 10
1.5171860042
 20
12.0967946911
 30
0.0
 11
1.4490295449
 21
12.0916147069
 31
0.0
  0
LINE
  5
352
330
1F
100
AcDbEntity
  8
TRMODEL1
  6
Continuous
 62
     4
100
AcDbLine
 10
1.4490295449
 20
12.0916147069
 30
0.0
 11
1.3855178357
 21
12.0764277616
 31
0.0
  0
LINE
  5
353
330
1F
100
AcDbEntity
  8
TRMODEL1
  6
Continuous
 62
     4
100
AcDbLine
 10
1.3855178357
 20
12.0764277616
 30
0.0
 11
1.3309790945
 21
12.0522688204
 31
0.0
  0
LINE
  5
354
330
1F
100
AcDbEntity
  8
TRMODEL1
  6
Continuous
 62
     4
100
AcDbLine
 10
1.2614173738
 20
11.7356535091
 30
0.0
 11
1.2851414445
 21
11.7044075563
 31
0.0
  0
LINE
  5
355
330
1F
100
AcDbEntity
  8
TRMODEL1
  6
Continuous
 62
     4
100
AcDbLine
 10
1.2851414445
 20
11.7044075563
 30
0.0
 11
1.3277224146
 21
11.6723723598
 31
0.0
  0
LINE
  5
356
330
1F
100
AcDbEntity
  8
TRMODEL1
  6
Continuous
 62
     4
100
AcDbLine
 10
1.3277224146
 20
11.6723723598
 30
0.0
 11
1.3832150152
 21
11.647790889
 31
0.0
  0
LINE
  5
357
330
1F
100
AcDbEntity
  8
TRMODEL1
  6
Continuous
 62
     4
100
AcDbLine
 10
1.3832150152
 20
11.647790889
 30
0.0
 11
1.4478375173
 21
11.6323383305
 31
0.0
  0
LINE
  5
358
330
1F
100
AcDbEntity
  8
TRMODEL1
  6
Continuous
 62
     4
100
AcDbLine
 10
1.4478375173
 20
11.6323383305
 30
0.0
 11
1.5171860042
 21
11.6270677505
 31
0.0
  0
LINE
  5
359
330
1F
100
AcDbEntity
  8
TRMODEL1
  6
Continuous
 62
     4
100
AcDbLine
 10
1.5171860042
 20
11.6270677505
 30
0.0
 11
1.5865344911
 21
11.6323383305
 31
0.0
  0
LINE
  5
35A
330
1F
100
AcDbEntity
  8
TRMODEL1
  6
Continuous
 62
     4
100
AcDbLine
 10
1.5865344911
 20
11.6323383305
 30
0.0
 11
1.6511569932
 21
11.647790889
 31
0.0
  0
LINE
  5
35B
330
1F
100
AcDbEntity
  8
TRMODEL1
  6
Continuous
 62
     4
100
AcDbLine
 10
1.6511569932
 20
11.647790889
 30
0.0
 11
1.7066495939
 21
11.6723723598
 31
0.0
  0
LINE
  5
35C
330
1F
100
AcDbEntity
  8
TRMODEL1
  6
Continuous
 62
     4
100
AcDbLine
 10
1.7066495939
 20
11.6723723598
 30
0.0
 11
1.7145763765
 21
11.6771483969
 31
0.0
  0
LINE
  5
35D
330
1F
100
AcDbEntity
  8
TRMODEL1
  6
Continuous
 62
     4
100
AcDbLine
 10
1.2183355601
 20
11.8810101412
 30
0.0
 11
1.2470518404
 21
11.9573104351
 31
0.0
  0
LINE
  5
35E
330
1F
100
AcDbEntity
  8
TRMODEL1
  6
Continuous
 62
     4
100
AcDbLine
 10
1.2470518404
 20
11.9573104351
 30
0.0
 11
1.2770021388
 21
12.0195715263
 31
0.0
  0
LINE
  5
35F
330
1F
100
AcDbEntity
  8
TRMODEL1
  6
Continuous
 62
     4
100
AcDbLine
 10
1.2770021388
 20
12.0195715263
 30
0.0
 11
1.2984122953
 21
12.0535328304
 31
0.0
  0
LINE
  5
360
330
1F
100
AcDbEntity
  8
TRMODEL1
  6
Continuous
 62
     4
100
AcDbLine
 10
1.4371092691
 20
11.7547147673
 30
0.0
 11
1.3936716791
 21
11.7895695961
 31
0.0
  0
LINE
  5
361
330
1F
100
AcDbEntity
  8
TRMODEL1
  6
Continuous
 62
     4
100
AcDbLine
 10
1.3936716791
 20
11.7895695961
 30
0.0
 11
1.3208353568
 21
11.8375536505
 31
0.0
  0
LINE
  5
362
330
1F
100
AcDbEntity
  8
TRMODEL1
  6
Continuous
 62
     4
100
AcDbLine
 10
1.3208353568
 20
11.8375536505
 30
0.0
 11
1.2460141647
 21
11.8717314371
 31
0.0
  0
LINE
  5
363
330
1F
100
AcDbEntity
  8
TRMODEL1
  6
Continuous
 62
     4
100
AcDbLine
 10
1.2460141647
 20
11.8717314371
 30
0.0
 11
1.2183355601
 21
11.8810101412
 31
0.0
  0
LINE
  5
364
330
1F
100
AcDbEntity
  8
TRMODEL1
  6
Continuous
 62
     4
100
AcDbLine
 10
1.2984122953
 20
12.0535328304
 30
0.0
 11
1.4055829122
 21
12.0845423997
 31
0.0
  0
LINE
  5
365
330
1F
100
AcDbEntity
  8
TRMODEL1
  6
Continuous
 62
     4
100
AcDbLine
 10
1.4055829122
 20
12.0845423997
 30
0.0
 11
1.5173589475
 21
12.0995664985
 31
0.0
  0
LINE
  5
366
330
1F
100
AcDbEntity
  8
TRMODEL1
  6
Continuous
 62
     4
100
AcDbLine
 10
1.5173589475
 20
12.0995664985
 30
0.0
 11
1.5972627394
 21
12.0997601456
 31
0.0
  0
LINE
  5
367
330
1F
100
AcDbEntity
  8
TRMODEL1
  6
Continuous
 62
     4
100
AcDbLine
 10
1.8160364483
 20
11.9734647717
 30
0.0
 11
1.7873201681
 21
11.926028505
 31
0.0
  0
LINE
  5
368
330
1F
100
AcDbEntity
  8
TRMODEL1
  6
Continuous
 62
     4
100
AcDbLine
 10
1.7873201681
 20
11.926028505
 30
0.0
 11
1.7573698697
 21
11.8592357329
 31
0.0
  0
LINE
  5
369
330
1F
100
AcDbEntity
  8
TRMODEL1
  6
Continuous
 62
     4
100
AcDbLine
 10
1.7573698697
 20
11.8592357329
 30
0.0
 11
1.7359597132
 21
11.8009420825
 31
0.0
  0
LINE
  5
36A
330
1F
100
AcDbEntity
  8
TRMODEL1
  6
Continuous
 62
     4
100
AcDbLine
 10
1.7453203952
 20
11.7006233333
 30
0.0
 11
1.7492305639
 21
11.7044075563
 31
0.0
  0
LINE
  5
36B
330
1F
100
AcDbEntity
  8
TRMODEL1
  6
Continuous
 62
     4
100
AcDbLine
 10
1.7492305639
 20
11.7044075563
 30
0.0
 11
1.7759980808
 21
11.7417133327
 31
0.0
  0
LINE
  5
36C
330
1F
100
AcDbEntity
  8
TRMODEL1
  6
Continuous
 62
     4
100
AcDbLine
 10
1.7759980808
 20
11.7417133327
 30
0.0
 11
1.7851279823
 21
11.781747362
 31
0.0
  0
LINE
  5
36D
330
1F
100
AcDbEntity
  8
TRMODEL1
  6
Continuous
 62
     4
100
AcDbLine
 10
1.670295706
 20
11.6548092594
 30
0.0
 11
1.670295706
 21
10.7506637159
 31
0.0
  0
LINE
  5
36E
330
1F
100
AcDbEntity
  8
TRMODEL1
  6
Continuous
 62
     2
100
AcDbLine
 10
1.6616640532
 20
10.6255038179
 30
0.0
 11
1.6658215832
 21
10.6205444979
 31
0.0
  0
LINE
  5
36F
330
1F
100
AcDbEntity
  8
TRMODEL1
  6
Continuous
 62
     2
100
AcDbLine
 10
1.6658215832
 20
10.6205444979
 30
0.0
 11
1.6695950033
 21
10.5935774526
 31
0.0
  0
LINE
  5
370
330
1F
100
AcDbEntity
  8
TRMODEL1
  6
Continuous
 62
     2
100
AcDbLine
 10
1.6695950033
 20
10.5935774526
 30
0.0
 11
1.6561165169
 21
10.567570995
 31
0.0
  0
LINE
  5
371
330
1F
100
AcDbEntity
  8
TRMODEL1
  6
Continuous
 62
     2
100
AcDbLine
 10
1.6561165169
 20
10.567570995
 30
0.0
 11
1.6269103797
 21
10.5457550826
 31
0.0
  0
LINE
  5
372
330
1F
100
AcDbEntity
  8
TRMODEL1
  6
Continuous
 62
     2
100
AcDbLine
 10
1.6269103797
 20
10.5457550826
 30
0.0
 11
1.5852860362
 21
10.5309372545
 31
0.0
  0
LINE
  5
373
330
1F
100
AcDbEntity
  8
TRMODEL1
  6
Continuous
 62
     2
100
AcDbLine
 10
1.5852860362
 20
10.5309372545
 30
0.0
 11
1.5359494211
 21
10.5250593994
 31
0.0
  0
LINE
  5
374
330
1F
100
AcDbEntity
  8
TRMODEL1
  6
Continuous
 62
     2
100
AcDbLine
 10
1.5359494211
 20
10.5250593994
 30
0.0
 11
1.4844928262
 21
10.5291330126
 31
0.0
  0
LINE
  5
375
330
1F
100
AcDbEntity
  8
TRMODEL1
  6
Continuous
 62
     2
100
AcDbLine
 10
1.4844928262
 20
10.5291330126
 30
0.0
 11
1.4367332991
 21
10.5429617919
 31
0.0
  0
LINE
  5
376
330
1F
100
AcDbEntity
  8
TRMODEL1
  6
Continuous
 62
     2
100
AcDbLine
 10
1.4367332991
 20
10.5429617919
 30
0.0
 11
1.3980838529
 21
10.5653181609
 31
0.0
  0
LINE
  5
377
330
1F
100
AcDbEntity
  8
TRMODEL1
  6
Continuous
 62
     2
100
AcDbLine
 10
1.3980838529
 20
10.5653181609
 30
0.0
 11
1.3729146044
 21
10.5939534749
 31
0.0
  0
LINE
  5
378
330
1F
100
AcDbEntity
  8
TRMODEL1
  6
Continuous
 62
     2
100
AcDbLine
 10
1.3729146044
 20
10.5939534749
 30
0.0
 11
1.3640771777
 21
10.6259391586
 31
0.0
  0
LINE
  5
379
330
1F
100
AcDbEntity
  8
TRMODEL1
  6
Continuous
 62
     2
100
AcDbLine
 10
1.3640771777
 20
10.6259391586
 30
0.0
 11
1.3707606095
 21
10.6511389706
 31
0.0
  0
LINE
  5
37A
330
1F
100
AcDbEntity
  8
TRMODEL1
  6
Continuous
 62
     2
100
AcDbLine
 10
1.661106607
 20
10.6752531011
 30
0.0
 11
1.6694925667
 21
10.6594942823
 31
0.0
  0
LINE
  5
37B
330
1F
100
AcDbEntity
  8
TRMODEL1
  6
Continuous
 62
     2
100
AcDbLine
 10
1.6694925667
 20
10.6594942823
 30
0.0
 11
1.666066677
 21
10.6325190211
 31
0.0
  0
LINE
  5
37C
330
1F
100
AcDbEntity
  8
TRMODEL1
  6
Continuous
 62
     2
100
AcDbLine
 10
1.666066677
 20
10.6325190211
 30
0.0
 11
1.6457872427
 21
10.6078630494
 31
0.0
  0
LINE
  5
37D
330
1F
100
AcDbEntity
  8
TRMODEL1
  6
Continuous
 62
     2
100
AcDbLine
 10
1.6457872427
 20
10.6078630494
 30
0.0
 11
1.610952542
 21
10.5886598816
 31
0.0
  0
LINE
  5
37E
330
1F
100
AcDbEntity
  8
TRMODEL1
  6
Continuous
 62
     2
100
AcDbLine
 10
1.610952542
 20
10.5886598816
 30
0.0
 11
1.5654999839
 21
10.5773393542
 31
0.0
  0
LINE
  5
37F
330
1F
100
AcDbEntity
  8
TRMODEL1
  6
Continuous
 62
     2
100
AcDbLine
 10
1.5654999839
 20
10.5773393542
 30
0.0
 11
1.5145829413
 21
10.5755371895
 31
0.0
  0
LINE
  5
380
330
1F
100
AcDbEntity
  8
TRMODEL1
  6
Continuous
 62
     2
100
AcDbLine
 10
1.5145829413
 20
10.5755371895
 30
0.0
 11
1.4639563611
 21
10.5837210178
 31
0.0
  0
LINE
  5
381
330
1F
100
AcDbEntity
  8
TRMODEL1
  6
Continuous
 62
     2
100
AcDbLine
 10
1.4639563611
 20
10.5837210178
 30
0.0
 11
1.4193580433
 21
10.6012965348
 31
0.0
  0
LINE
  5
382
330
1F
100
AcDbEntity
  8
TRMODEL1
  6
Continuous
 62
     2
100
AcDbLine
 10
1.4193580433
 20
10.6012965348
 30
0.0
 11
1.3858324863
 21
10.6265665942
 31
0.0
  0
LINE
  5
383
330
1F
100
AcDbEntity
  8
TRMODEL1
  6
Continuous
 62
     2
100
AcDbLine
 10
1.3858324863
 20
10.6265665942
 30
0.0
 11
1.3671759583
 21
10.6569718959
 31
0.0
  0
LINE
  5
384
330
1F
100
AcDbEntity
  8
TRMODEL1
  6
Continuous
 62
     2
100
AcDbLine
 10
1.3671759583
 20
10.6569718959
 30
0.0
 11
1.3655001628
 21
10.6893940952
 31
0.0
  0
LINE
  5
385
330
1F
100
AcDbEntity
  8
TRMODEL1
  6
Continuous
 62
     2
100
AcDbLine
 10
1.3655001628
 20
10.6893940952
 30
0.0
 11
1.3701644477
 21
10.6987374094
 31
0.0
  0
LINE
  5
386
330
1F
100
AcDbEntity
  8
TRMODEL1
  6
Continuous
 62
     2
100
AcDbLine
 10
2.4229533364
 20
7.031918854
 30
0.0
 11
4.098585748
 21
7.031918854
 31
0.0
  0
LINE
  5
387
330
1F
100
AcDbEntity
  8
TRMODEL1
  6
Continuous
 62
     2
100
AcDbLine
 10
3.114196141
 20
8.3447529006
 30
0.0
 11
4.098585748
 21
8.3447529006
 31
0.0
  0
LINE
  5
388
330
1F
100
AcDbEntity
  8
TRMODEL1
  6
Continuous
 62
     2
100
AcDbLine
 10
3.114196141
 20
8.2861591506
 30
0.0
 11
2.762633641
 21
8.3447529006
 31
0.0
  0
LINE
  5
389
330
1F
100
AcDbEntity
  8
TRMODEL1
  6
Continuous
 62
     2
100
AcDbLine
 10
2.762633641
 20
8.3447529006
 30
0.0
 11
3.114196141
 21
8.4033466506
 31
0.0
  0
LINE
  5
38A
330
1F
100
AcDbEntity
  8
TRMODEL1
  6
Continuous
 62
     2
100
AcDbLine
 10
3.114196141
 20
8.4033466506
 30
0.0
 11
3.114196141
 21
8.2861591506
 31
0.0
  0
LINE
  5
38B
330
1F
100
AcDbEntity
  8
TRMODEL1
  6
Continuous
 62
     4
100
AcDbLine
 10
2.200932609
 20
7.8898629595
 30
0.0
 11
2.6339922425
 21
8.1398629645
 31
0.0
  0
LINE
  5
38C
330
1F
100
AcDbEntity
  8
TRMODEL1
  6
Continuous
 62
     4
100
AcDbLine
 10
2.200932609
 20
8.2049141663
 30
0.0
 11
2.6339922425
 21
8.4549141713
 31
0.0
  0
LINE
  5
38D
330
1F
100
AcDbEntity
  8
TRMODEL1
  6
Continuous
 62
     4
100
AcDbLine
 10
2.1987673108
 20
8.8286840901
 30
0.0
 11
2.5278926323
 21
8.6386840863
 31
0.0
  0
LINE
  5
38E
330
1F
100
AcDbEntity
  8
TRMODEL1
  6
Continuous
 62
     4
100
AcDbLine
 10
2.200932609
 20
8.2049141663
 30
0.0
 11
2.200932609
 21
7.8898629595
 31
0.0
  0
LINE
  5
38F
330
1F
100
AcDbEntity
  8
TRMODEL1
  6
Continuous
 62
     4
100
AcDbLine
 10
2.6339922425
 20
8.4549141713
 30
0.0
 11
2.6339922425
 21
8.1398629645
 31
0.0
  0
LINE
  5
390
330
1F
100
AcDbEntity
  8
TRMODEL1
  6
Continuous
 62
     4
100
AcDbLine
 10
2.1468001548
 20
8.2361641669
 30
0.0
 11
2.1468001548
 21
7.9211129601
 31
0.0
  0
LINE
  5
391
330
1F
100
AcDbEntity
  8
TRMODEL1
  6
Continuous
 62
     4
100
AcDbLine
 10
2.200932609
 20
7.8898629595
 30
0.0
 11
2.1468001548
 21
7.9211129601
 31
0.0
  0
LINE
  5
392
330
1F
100
AcDbEntity
  8
TRMODEL1
  6
Continuous
 62
     4
100
AcDbLine
 10
2.123749654
 20
8.8361126497
 30
0.0
 11
2.1398215257
 21
8.842064439
 31
0.0
  0
LINE
  5
393
330
1F
100
AcDbEntity
  8
TRMODEL1
  6
Continuous
 62
     4
100
AcDbLine
 10
2.1398215257
 20
8.842064439
 30
0.0
 11
2.1581647478
 21
8.8427971777
 31
0.0
  0
LINE
  5
394
330
1F
100
AcDbEntity
  8
TRMODEL1
  6
Continuous
 62
     4
100
AcDbLine
 10
2.1581647478
 20
8.8427971777
 30
0.0
 11
2.1780683037
 21
8.8382791868
 31
0.0
  0
LINE
  5
395
330
1F
100
AcDbEntity
  8
TRMODEL1
  6
Continuous
 62
     4
100
AcDbLine
 10
2.1780683037
 20
8.8382791868
 30
0.0
 11
2.1987673108
 21
8.8286840901
 31
0.0
  0
LINE
  5
396
330
1F
100
AcDbEntity
  8
TRMODEL1
  6
Continuous
 62
     4
100
AcDbLine
 10
2.5278926323
 20
8.6386840863
 30
0.0
 11
2.5485916394
 21
8.624380618
 31
0.0
  0
LINE
  5
397
330
1F
100
AcDbEntity
  8
TRMODEL1
  6
Continuous
 62
     4
100
AcDbLine
 10
2.5485916394
 20
8.624380618
 30
0.0
 11
2.5684951953
 21
8.6059184525
 31
0.0
  0
LINE
  5
398
330
1F
100
AcDbEntity
  8
TRMODEL1
  6
Continuous
 62
     4
100
AcDbLine
 10
2.5684951953
 20
8.6059184525
 30
0.0
 11
2.5868384174
 21
8.5840070803
 31
0.0
  0
LINE
  5
399
330
1F
100
AcDbEntity
  8
TRMODEL1
  6
Continuous
 62
     4
100
AcDbLine
 10
2.5868384174
 20
8.5840070803
 30
0.0
 11
2.6029163861
 21
8.5594885432
 31
0.0
  0
LINE
  5
39A
330
1F
100
AcDbEntity
  8
TRMODEL1
  6
Continuous
 62
     4
100
AcDbLine
 10
2.6029163861
 20
8.5594885432
 30
0.0
 11
2.616111234
 21
8.5333050748
 31
0.0
  0
LINE
  5
39B
330
1F
100
AcDbEntity
  8
TRMODEL1
  6
Continuous
 62
     4
100
AcDbLine
 10
2.616111234
 20
8.5333050748
 30
0.0
 11
2.6259158905
 21
8.5064628912
 31
0.0
  0
LINE
  5
39C
330
1F
100
AcDbEntity
  8
TRMODEL1
  6
Continuous
 62
     4
100
AcDbLine
 10
2.6259158905
 20
8.5064628912
 30
0.0
 11
2.6319535682
 21
8.4799935223
 31
0.0
  0
LINE
  5
39D
330
1F
100
AcDbEntity
  8
TRMODEL1
  6
Continuous
 62
     4
100
AcDbLine
 10
2.6319535682
 20
8.4799935223
 30
0.0
 11
2.6339922425
 21
8.4549141713
 31
0.0
  0
LINE
  5
39E
330
1F
100
AcDbEntity
  8
TRMODEL1
  6
Continuous
 62
     2
100
AcDbLine
 10
2.2431870752
 20
11.8162549942
 30
0.0
 11
4.098585748
 21
11.8162549942
 31
0.0
  0
ARC
  5
39F
330
1F
100
AcDbEntity
  8
TRMODEL1
  6
Continuous
 62
     2
100
AcDbCircle
 10
18.9102814547
 20
11.7629274321
 30
0.0
 40
0.9665426801035626
100
AcDbArc
 50
230.4673664203
 51
302.927291437
  0
ARC
  5
3A0
330
1F
100
AcDbEntity
  8
TRMODEL1
  6
Continuous
 62
     2
100
AcDbCircle
 10
18.9102814547
 20
0.9978476125
 30
0.0
 40
0.9665426801035618
100
AcDbArc
 50
230.4673664203
 51
302.927291437
  0
CIRCLE
  5
3A1
330
1F
100
AcDbEntity
  8
TRMODEL1
  6
Continuous
 62
     4
100
AcDbCircle
 10
17.9624302878
 20
6.9233281947
 30
0.0
 40
0.2149899174699463
  0
CIRCLE
  5
3A2
330
1F
100
AcDbEntity
  8
TRMODEL1
  6
Continuous
 62
     4
100
AcDbCircle
 10
17.9624302878
 20
6.9233281947
 30
0.0
 40
0.3125000000000604
  0
ARC
  5
3A3
330
1F
100
AcDbEntity
  8
TRMODEL1
  6
Continuous
 62
     2
100
AcDbCircle
 10
17.8067461132
 20
-0.3392953908
 30
0.0
 40
0.7671648099154419
100
AcDbArc
 50
50.4673664203
 51
136.7278013609
  0
ARC
  5
3A4
330
1F
100
AcDbEntity
  8
TRMODEL1
  6
Continuous
 62
     2
100
AcDbCircle
 10
17.8067461132
 20
10.4257844288
 30
0.0
 40
0.7671648099154809
100
AcDbArc
 50
50.4673664203
 51
136.727801361
  0
ELLIPSE
  5
3A5
330
1F
100
AcDbEntity
  8
TRMODEL1
  6
Continuous
 62
     4
100
AcDbEllipse
 10
1.5238545814
 20
8.4728156817
 30
0.0
 11
0.1965681194658291
 21
3.730349362740526E-14
 31
0.0
210
0.0
220
0.0
230
1.0
 40
0.5593241965
 41
4.712388980384591
 42
5.474732226935641
  0
MTEXT
  5
3A7
330
1F
100
AcDbEntity
  8
TRMODEL1
 62
     4
100
AcDbMText
 10
4.3477802214
 20
7.3641367595
 30
0.0
 40
0.5625
 41
0.0
 71
     1
 72
     1
  1
1/4" FLAT WASHER
  7
SLDTEXTSTYLE0
 73
     1
 44
1.0
  0
MTEXT
  5
3A8
330
1F
100
AcDbEntity
  8
TRMODEL1
 62
     4
100
AcDbMText
 10
4.3477802214
 20
5.8590092733
 30
0.0
 40
0.5625
 41
0.0
 71
     1
 72
     1
  1
1/4" HEX NUT
  7
SLDTEXTSTYLE0
 73
     1
 44
1.0
  0
MTEXT
  5
3A9
330
1F
100
AcDbEntity
  8
TRMODEL1
 62
     4
100
AcDbMText
 10
4.377246306
 20
8.6905705374
 30
0.0
 40
0.5625
 41
0.0
 71
     1
 72
     1
  1
M-2 SADDLE CLIP
  7
SLDTEXTSTYLE0
 73
     1
 44
1.0
  0
MTEXT
  5
3AA
330
1F
100
AcDbEntity
  8
TRMODEL1
 62
     4
100
AcDbMText
 10
4.377246306
 20
11.1784846525
 30
0.0
 40
0.5625
 41
0.0
 71
     1
 72
     1
  1
HEX HD. BOLT
  7
SLDTEXTSTYLE0
 73
     1
 44
1.0
  0
MTEXT
  5
3AB
330
1F
100
AcDbEntity
  8
TRMODEL1
 62
     4
100
AcDbMText
 10
4.3477802214
 20
12.1276955323
 30
0.0
 40
0.5625
 41
0.0
 71
     1
 72
     1
  1
1/4"
  7
SLDTEXTSTYLE0
 73
     1
 44
1.0
  0
MTEXT
  5
3AC
330
1F
100
AcDbEntity
  8
TRMODEL1
 62
     4
100
AcDbMText
 10
6.6468903624
 20
12.1276955323
 30
0.0
 40
0.5625
 41
0.0
 71
     1
 72
     1
  1
x2 1/4" Lg.
  7
SLDTEXTSTYLE0
 73
     1
 44
1.0
  0
MTEXT
  5
3AD
330
1F
100
AcDbEntity
  8
TRMODEL1
 62
     4
100
AcDbMText
 10
6.0379246136
 20
12.1276955323
 30
0.0
 40
0.5625
 41
0.0
 71
     1
 72
     1
  1
%%c
  7
SLDTEXTSTYLE0
 73
     1
 44
1.0
  0
ENDSEC
  0
SECTION
  2
OBJECTS
  0
DICTIONARY
  5
C
330
0
100
AcDbDictionary
281
     1
  3
ACAD_GROUP
350
D
  3
ACAD_LAYOUT
350
1A
  3
ACAD_MLINESTYLE
350
17
  3
ACAD_PLOTSETTINGS
350
19
  3
ACAD_PLOTSTYLENAME
350
E
  3
ACAD_TABLESTYLE
350
3AE
  3
ACAD_VISUALSTYLE
350
2A
  0
DICTIONARY
  5
D
102
{ACAD_REACTORS
330
C
102
}
330
C
100
AcDbDictionary
281
     1
  0
DICTIONARY
  5
1A
102
{ACAD_REACTORS
330
C
102
}
330
C
100
AcDbDictionary
281
     1
  3
Layout1
350
1E
  3
Layout2
350
26
  3
Model
350
22
  0
DICTIONARY
  5
17
102
{ACAD_REACTORS
330
C
102
}
330
C
100
AcDbDictionary
281
     1
  3
Standard
350
18
  0
DICTIONARY
  5
19
102
{ACAD_REACTORS
330
C
102
}
330
C
100
AcDbDictionary
281
     1
  0
ACDBDICTIONARYWDFLT
  5
E
102
{ACAD_REACTORS
330
C
102
}
330
C
100
AcDbDictionary
281
     1
  3
Normal
350
F
100
AcDbDictionaryWithDefault
340
F
  0
DICTIONARY
  5
3AE
102
{ACAD_REACTORS
330
C
102
}
330
C
100
AcDbDictionary
281
     1
  0
DICTIONARY
  5
2A
102
{ACAD_REACTORS
330
C
102
}
330
C
100
AcDbDictionary
281
     1
  3
2dWireframe
350
2F
  3
3D Hidden
350
31
  3
3dWireframe
350
30
  3
Basic
350
32
  3
Brighten
350
36
  3
ColorChange
350
3A
  3
Conceptual
350
34
  3
Dim
350
35
  3
Facepattern
350
39
  3
Flat
350
2B
  3
FlatWithEdges
350
2C
  3
Gouraud
350
2D
  3
GouraudWithEdges
350
2E
  3
Linepattern
350
38
  3
Realistic
350
33
  3
Thicken
350
37
  0
LAYOUT
  5
1E
102
{ACAD_REACTORS
330
1A
102
}
330
1A
100
AcDbPlotSettings
  1

  2
none_device
  4

  6

 40
0.0
 41
0.0
 42
0.0
 43
0.0
 44
0.0
 45
0.0
 46
0.0
 47
0.0
 48
0.0
 49
0.0
140
0.0
141
0.0
142
1.0
143
1.0
 70
   688
 72
     0
 73
     0
 74
     5
  7

 75
    16
147
1.0
148
0.0
149
0.0
100
AcDbLayout
  1
Layout1
 70
     1
 71
     1
 10
0.0
 20
0.0
 11
12.0
 21
9.0
 12
0.0
 22
0.0
 32
0.0
 14
1.0000000000E+20
 24
1.0000000000E+20
 34
1.0000000000E+20
 15
-1.0000000000E+20
 25
-1.0000000000E+20
 35
-1.0000000000E+20
146
0.0
 13
0.0
 23
0.0
 33
0.0
 16
1.0
 26
0.0
 36
0.0
 17
0.0
 27
1.0
 37
0.0
 76
     0
330
1B
  0
LAYOUT
  5
26
102
{ACAD_REACTORS
330
1A
102
}
330
1A
100
AcDbPlotSettings
  1

  2
none_device
  4

  6

 40
0.0
 41
0.0
 42
0.0
 43
0.0
 44
0.0
 45
0.0
 46
0.0
 47
0.0
 48
0.0
 49
0.0
140
0.0
141
0.0
142
1.0
143
1.0
 70
   688
 72
     0
 73
     0
 74
     5
  7

 75
    16
147
1.0
148
0.0
149
0.0
100
AcDbLayout
  1
Layout2
 70
     1
 71
     2
 10
0.0
 20
0.0
 11
0.0
 21
0.0
 12
0.0
 22
0.0
 32
0.0
 14
0.0
 24
0.0
 34
0.0
 15
0.0
 25
0.0
 35
0.0
146
0.0
 13
0.0
 23
0.0
 33
0.0
 16
1.0
 26
0.0
 36
0.0
 17
0.0
 27
1.0
 37
0.0
 76
     0
330
23
  0
LAYOUT
  5
22
102
{ACAD_REACTORS
330
1A
102
}
330
1A
100
AcDbPlotSettings
  1

  2
none_device
  4

  6

 40
0.0
 41
0.0
 42
0.0
 43
0.0
 44
0.0
 45
0.0
 46
0.0
 47
0.0
 48
0.0
 49
0.0
140
0.0
141
0.0
142
1.0
143
1.0
 70
  1712
 72
     0
 73
     0
 74
     0
  7

 75
     0
147
1.0
148
0.0
149
0.0
100
AcDbLayout
  1
Model
 70
     1
 71
     0
 10
0.0
 20
0.0
 11
11.0
 21
8.5
 12
0.0
 22
0.0
 32
0.0
 14
0.0
 24
0.0
 34
0.0
 15
11.0
 25
8.5
 35
0.0
146
0.0
 13
0.0
 23
0.0
 33
0.0
 16
1.0
 26
0.0
 36
0.0
 17
0.0
 27
1.0
 37
0.0
 76
     0
330
1F
331
29
  0
MLINESTYLE
  5
18
102
{ACAD_REACTORS
330
17
102
}
330
17
100
AcDbMlineStyle
  2
Standard
 70
     0
  3

 62
   256
 51
90.0
 52
90.0
 71
     2
 49
0.5
 62
   256
  6
BYLAYER
 49
-0.5
 62
   256
  6
BYLAYER
  0
ACDBPLACEHOLDER
  5
F
102
{ACAD_REACTORS
330
E
102
}
330
E
  0
VISUALSTYLE
  5
2F
102
{ACAD_REACTORS
330
2A
102
}
330
2A
100
AcDbVisualStyle
  2
2dWireframe
 70
     4
 71
     0
 72
     2
 73
     0
 90
        0
 40
-0.6
 41
-30.0
 62
     5
 63
     7
 74
     1
 91
        4
 64
     7
 65
   257
 75
     1
175
     1
 42
1.0
 92
        0
 66
   257
 43
1.0
 76
     1
 77
     6
 78
     2
 67
     7
 79
     5
170
     0
171
     0
290
     0
174
     0
 93
        1
 44
0.0
173
     0
291
     0
 45
0.0
1001
ACAD
1000
AcDbSavedByObjectVersion
1070
     0
  0
VISUALSTYLE
  5
31
102
{ACAD_REACTORS
330
2A
102
}
330
2A
100
AcDbVisualStyle
  2
3D Hidden
 70
     6
 71
     1
 72
     2
 73
     2
 90
        0
 40
-0.6
 41
-30.0
 62
     5
 63
     7
 74
     2
 91
        2
 64
     7
 65
   257
 75
     2
175
     1
 42
40.0
 92
        0
 66
   257
 43
1.0
 76
     1
 77
     6
 78
     2
 67
     7
 79
     3
170
     0
171
     0
290
     0
174
     0
 93
        1
 44
0.0
173
     0
291
     0
 45
0.0
1001
ACAD
1000
AcDbSavedByObjectVersion
1070
     0
  0
VISUALSTYLE
  5
30
102
{ACAD_REACTORS
330
2A
102
}
330
2A
100
AcDbVisualStyle
  2
3dWireframe
 70
     5
 71
     0
 72
     2
 73
     0
 90
        0
 40
-0.6
 41
-30.0
 62
     5
 63
     7
 74
     1
 91
        4
 64
     7
 65
   257
 75
     1
175
     1
 42
1.0
 92
        0
 66
   257
 43
1.0
 76
     1
 77
     6
 78
     2
 67
     7
 79
     5
170
     0
171
     0
290
     0
174
     0
 93
        1
 44
0.0
173
     0
291
     0
 45
0.0
1001
ACAD
1000
AcDbSavedByObjectVersion
1070
     0
  0
VISUALSTYLE
  5
32
102
{ACAD_REACTORS
330
2A
102
}
330
2A
100
AcDbVisualStyle
  2
Basic
 70
     7
 71
     1
 72
     0
 73
     1
 90
        0
 40
-0.6
 41
-30.0
 62
     5
 63
     7
 74
     0
 91
        4
 64
     7
 65
   257
 75
     1
175
     1
 42
1.0
 92
        8
 66
     7
 43
1.0
 76
     1
 77
     6
 78
     2
 67
     7
 79
     5
170
     0
171
     0
290
     0
174
     0
 93
        1
 44
0.0
173
     0
291
     1
 45
0.0
1001
ACAD
1000
AcDbSavedByObjectVersion
1070
     0
  0
VISUALSTYLE
  5
36
102
{ACAD_REACTORS
330
2A
102
}
330
2A
100
AcDbVisualStyle
  2
Brighten
 70
    12
 71
     2
 72
     2
 73
     0
 90
        0
 40
-0.6
 41
-30.0
 62
     5
 63
     7
 74
     1
 91
        4
 64
     7
 65
   257
 75
     1
175
     1
 42
1.0
 92
        8
 66
     7
 43
1.0
 76
     1
 77
     6
 78
     2
 67
     7
 79
     5
170
     0
171
     0
290
     0
174
     0
 93
        1
 44
50.0
173
     0
291
     1
 45
0.0
1001
ACAD
1000
AcDbSavedByObjectVersion
1070
     0
  0
VISUALSTYLE
  5
3A
102
{ACAD_REACTORS
330
2A
102
}
330
2A
100
AcDbVisualStyle
  2
ColorChange
 70
    16
 71
     2
 72
     2
 73
     3
 90
        0
 40
-0.6
 41
-30.0
 62
     5
 63
     8
 74
     1
 91
        4
 64
     7
 65
   257
 75
     1
175
     1
 42
1.0
 92
        8
 66
     8
 43
1.0
 76
     1
 77
     6
 78
     2
 67
     7
 79
     5
170
     0
171
     0
290
     0
174
     0
 93
        1
 44
0.0
173
     0
291
     1
 45
0.0
1001
ACAD
1000
AcDbSavedByObjectVersion
1070
     0
  0
VISUALSTYLE
  5
34
102
{ACAD_REACTORS
330
2A
102
}
330
2A
100
AcDbVisualStyle
  2
Conceptual
 70
     9
 71
     3
 72
     2
 73
     0
 90
        0
 40
-0.6
 41
-30.0
 62
     5
 63
     7
 74
     2
 91
        2
 64
     7
 65
   257
 75
     1
175
     1
 42
40.0
 92
        8
 66
     7
 43
1.0
 76
     1
 77
     6
 78
     2
 67
     7
 79
     3
170
     0
171
     0
290
     0
174
     0
 93
        1
 44
0.0
173
     0
291
     0
 45
0.0
1001
ACAD
1000
AcDbSavedByObjectVersion
1070
     0
  0
VISUALSTYLE
  5
35
102
{ACAD_REACTORS
330
2A
102
}
330
2A
100
AcDbVisualStyle
  2
Dim
 70
    11
 71
     2
 72
     2
 73
     0
 90
        0
 40
-0.6
 41
-30.0
 62
     5
 63
     7
 74
     1
 91
        4
 64
     7
 65
   257
 75
     1
175
     1
 42
1.0
 92
        8
 66
     7
 43
1.0
 76
     1
 77
     6
 78
     2
 67
     7
 79
     5
170
     0
171
     0
290
     0
174
     0
 93
        1
 44
-50.0
173
     0
291
     1
 45
0.0
1001
ACAD
1000
AcDbSavedByObjectVersion
1070
     0
  0
VISUALSTYLE
  5
39
102
{ACAD_REACTORS
330
2A
102
}
330
2A
100
AcDbVisualStyle
  2
Facepattern
 70
    15
 71
     2
 72
     2
 73
     0
 90
        0
 40
-0.6
 41
-30.0
 62
     5
 63
     7
 74
     1
 91
        4
 64
     7
 65
   257
 75
     1
175
     1
 42
1.0
 92
        8
 66
     7
 43
1.0
 76
     1
 77
     6
 78
     2
 67
     7
 79
     5
170
     0
171
     0
290
     0
174
     0
 93
        1
 44
0.0
173
     0
291
     1
 45
0.0
1001
ACAD
1000
AcDbSavedByObjectVersion
1070
     0
  0
VISUALSTYLE
  5
2B
102
{ACAD_REACTORS
330
2A
102
}
330
2A
100
AcDbVisualStyle
  2
Flat
 70
     0
 71
     2
 72
     1
 73
     1
 90
        2
 40
-0.6
 41
30.0
 62
     5
 63
     7
 74
     0
 91
        4
 64
     7
 65
   257
 75
     1
175
     1
 42
1.0
 92
        8
 66
     7
 43
1.0
 76
     1
 77
     6
 78
     2
 67
     7
 79
     5
170
     0
171
     0
290
     0
174
     0
 93
       13
 44
0.0
173
     0
291
     1
 45
0.0
1001
ACAD
1000
AcDbSavedByObjectVersion
1070
     0
  0
VISUALSTYLE
  5
2C
102
{ACAD_REACTORS
330
2A
102
}
330
2A
100
AcDbVisualStyle
  2
FlatWithEdges
 70
     1
 71
     2
 72
     1
 73
     1
 90
        2
 40
-0.6
 41
30.0
 62
     5
 63
     7
 74
     1
 91
        4
 64
     7
 65
   257
 75
     1
175
     1
 42
1.0
 92
        0
 66
   257
 43
1.0
 76
     1
 77
     6
 78
     2
 67
     7
 79
     5
170
     0
171
     0
290
     0
174
     0
 93
       13
 44
0.0
173
     0
291
     1
 45
0.0
1001
ACAD
1000
AcDbSavedByObjectVersion
1070
     0
  0
VISUALSTYLE
  5
2D
102
{ACAD_REACTORS
330
2A
102
}
330
2A
100
AcDbVisualStyle
  2
Gouraud
 70
     2
 71
     2
 72
     2
 73
     1
 90
        2
 40
-0.6
 41
30.0
 62
     5
 63
     7
 74
     0
 91
        4
 64
     7
 65
   257
 75
     1
175
     1
 42
1.0
 92
        0
 66
     7
 43
1.0
 76
     1
 77
     6
 78
     2
 67
     7
 79
     5
170
     0
171
     0
290
     0
174
     0
 93
       13
 44
0.0
173
     0
291
     1
 45
0.0
1001
ACAD
1000
AcDbSavedByObjectVersion
1070
     0
  0
VISUALSTYLE
  5
2E
102
{ACAD_REACTORS
330
2A
102
}
330
2A
100
AcDbVisualStyle
  2
GouraudWithEdges
 70
     3
 71
     2
 72
     2
 73
     1
 90
        2
 40
-0.6
 41
30.0
 62
     5
 63
     7
 74
     1
 91
        4
 64
     7
 65
   257
 75
     1
175
     1
 42
1.0
 92
        0
 66
   257
 43
1.0
 76
     1
 77
     6
 78
     2
 67
     7
 79
     5
170
     0
171
     0
290
     0
174
     0
 93
       13
 44
0.0
173
     0
291
     1
 45
0.0
1001
ACAD
1000
AcDbSavedByObjectVersion
1070
     0
  0
VISUALSTYLE
  5
38
102
{ACAD_REACTORS
330
2A
102
}
330
2A
100
AcDbVisualStyle
  2
Linepattern
 70
    14
 71
     2
 72
     2
 73
     0
 90
        0
 40
-0.6
 41
-30.0
 62
     5
 63
     7
 74
     1
 91
        4
 64
     7
 65
   257
 75
     7
175
     7
 42
1.0
 92
        8
 66
     7
 43
1.0
 76
     1
 77
     6
 78
     2
 67
     7
 79
     5
170
     0
171
     0
290
     0
174
     0
 93
        1
 44
0.0
173
     0
291
     1
 45
0.0
1001
ACAD
1000
AcDbSavedByObjectVersion
1070
     0
  0
VISUALSTYLE
  5
33
102
{ACAD_REACTORS
330
2A
102
}
330
2A
100
AcDbVisualStyle
  2
Realistic
 70
     8
 71
     2
 72
     2
 73
     0
 90
        0
 40
-0.6
 41
-30.0
 62
     5
 63
     7
 74
     1
 91
        0
 64
     7
 65
   257
 75
     1
175
     1
 42
1.0
 92
        8
 66
     8
 43
1.0
 76
     1
 77
     6
 78
     2
 67
     7
 79
     5
170
     0
171
     0
290
     0
174
     0
 93
       13
 44
0.0
173
     0
291
     0
 45
0.0
1001
ACAD
1000
AcDbSavedByObjectVersion
1070
     0
  0
VISUALSTYLE
  5
37
102
{ACAD_REACTORS
330
2A
102
}
330
2A
100
AcDbVisualStyle
  2
Thicken
 70
    13
 71
     2
 72
     2
 73
     0
 90
        0
 40
-0.6
 41
-30.0
 62
     5
 63
     7
 74
     1
 91
        4
 64
     7
 65
   257
 75
     1
175
     1
 42
1.0
 92
       12
 66
     7
 43
1.0
 76
     1
 77
     6
 78
     2
 67
     7
 79
     5
170
     0
171
     0
290
     0
174
     0
 93
        1
 44
0.0
173
     0
291
     1
 45
0.0
1001
ACAD
1000
AcDbSavedByObjectVersion
1070
     0
  0
ENDSEC
  0
EOF
