  0
SECTION
  2
HEADER
  9
$ACADVER
  1
AC1015
  9
$ACADMAINTVER
 70
     6
  9
$DWGCODEPAGE
  3
ANSI_1252
  9
$INSBASE
 10
0.0
 20
0.0
 30
0.0
  9
$EXTMIN
 10
0.0
 20
0.0
 30
0.0
  9
$EXTMAX
 10
34.0
 20
22.0
 30
0.0
  9
$LIMMIN
 10
0.0
 20
0.0
  9
$LIMMAX
 10
34.0
 20
22.0
  9
$ORTHOMODE
 70
     0
  9
$REGENMODE
 70
     1
  9
$FILLMODE
 70
     1
  9
$QTEXTMODE
 70
     0
  9
$MIRRTEXT
 70
     1
  9
$LTSCALE
 40
1.0
  9
$ATTMODE
 70
     1
  9
$TEXTSIZE
 40
0.1377952756
  9
$TRACEWID
 40
0.05
  9
$TEXTSTYLE
  7
Standard
  9
$CLAYER
  8
0
  9
$CELTYPE
  6
ByLayer
  9
$CECOLOR
 62
   256
  9
$CELTSCALE
 40
1.0
  9
$DISPSILH
 70
     0
  9
$DIMSCALE
 40
1.0
  9
$DIMASZ
 40
0.2362204724
  9
$DIMEXO
 40
0.0393700787
  9
$DIMDLI
 40
0.38
  9
$DIMRND
 40
0.0
  9
$DIMDLE
 40
0.0
  9
$DIMEXE
 40
0.0393700787
  9
$DIMTP
 40
0.0
  9
$DIMTM
 40
0.0
  9
$DIMTXT
 40
0.1377952756
  9
$DIMCEN
 40
0.09
  9
$DIMTSZ
 40
0.0
  9
$DIMTOL
 70
     0
  9
$DIMLIM
 70
     0
  9
$DIMTIH
 70
     1
  9
$DIMTOH
 70
     1
  9
$DIMSE1
 70
     0
  9
$DIMSE2
 70
     0
  9
$DIMTAD
 70
     1
  9
$DIMZIN
 70
     1
  9
$DIMBLK
  1

  9
$DIMASO
 70
     1
  9
$DIMSHO
 70
     1
  9
$DIMPOST
  1

  9
$DIMAPOST
  1

  9
$DIMALT
 70
     0
  9
$DIMALTD
 70
     2
  9
$DIMALTF
 40
25.4
  9
$DIMLFAC
 40
6.0
  9
$DIMTOFL
 70
     0
  9
$DIMTVP
 40
0.0
  9
$DIMTIX
 70
     0
  9
$DIMSOXD
 70
     0
  9
$DIMSAH
 70
     0
  9
$DIMBLK1
  1

  9
$DIMBLK2
  1

  9
$DIMSTYLE
  2
Standard
  9
$DIMCLRD
 70
     0
  9
$DIMCLRE
 70
     0
  9
$DIMCLRT
 70
     0
  9
$DIMTFAC
 40
1.0
  9
$DIMGAP
 40
0.06
  9
$DIMJUST
 70
     0
  9
$DIMSD1
 70
     0
  9
$DIMSD2
 70
     0
  9
$DIMTOLJ
 70
     1
  9
$DIMTZIN
 70
     1
  9
$DIMALTZ
 70
     0
  9
$DIMALTTZ
 70
     0
  9
$DIMUPT
 70
     0
  9
$DIMDEC
 70
     4
  9
$DIMTDEC
 70
     4
  9
$DIMALTU
 70
     2
  9
$DIMALTTD
 70
     2
  9
$DIMTXSTY
  7
Standard
  9
$DIMAUNIT
 70
     0
  9
$DIMADEC
 70
     0
  9
$DIMALTRND
 40
0.0
  9
$DIMAZIN
 70
     0
  9
$DIMDSEP
 70
    46
  9
$DIMATFIT
 70
     3
  9
$DIMFRAC
 70
     0
  9
$DIMLDRBLK
  1

  9
$DIMLUNIT
 70
     2
  9
$DIMLWD
 70
    -2
  9
$DIMLWE
 70
    -2
  9
$DIMTMOVE
 70
     0
  9
$LUNITS
 70
     2
  9
$LUPREC
 70
     4
  9
$SKETCHINC
 40
0.1
  9
$FILLETRAD
 40
0.5
  9
$AUNITS
 70
     0
  9
$AUPREC
 70
     0
  9
$MENU
  1
.
  9
$ELEVATION
 40
0.0
  9
$PELEVATION
 40
0.0
  9
$THICKNESS
 40
0.0
  9
$LIMCHECK
 70
     0
  9
$CHAMFERA
 40
0.5
  9
$CHAMFERB
 40
0.5
  9
$CHAMFERC
 40
1.0
  9
$CHAMFERD
 40
0.0
  9
$SKPOLY
 70
     0
  9
$TDCREATE
 40
2454440.853439525
  9
$TDUCREATE
 40
2454441.186772859
  9
$TDUPDATE
 40
2454440.853439537
  9
$TDUUPDATE
 40
2454441.18677287
  9
$TDINDWG
 40
0.0000000116
  9
$TDUSRTIMER
 40
0.0000000116
  9
$USRTIMER
 70
     1
  9
$ANGBASE
 50
0.0
  9
$ANGDIR
 70
     0
  9
$PDMODE
 70
     0
  9
$PDSIZE
 40
-1.0
  9
$PLINEWID
 40
0.0
  9
$SPLFRAME
 70
     0
  9
$SPLINETYPE
 70
     6
  9
$SPLINESEGS
 70
     8
  9
$HANDSEED
  5
750
  9
$SURFTAB1
 70
     6
  9
$SURFTAB2
 70
     6
  9
$SURFTYPE
 70
     6
  9
$SURFU
 70
     6
  9
$SURFV
 70
     6
  9
$UCSBASE
  2

  9
$UCSNAME
  2

  9
$UCSORG
 10
0.0
 20
0.0
 30
0.0
  9
$UCSXDIR
 10
1.0
 20
0.0
 30
0.0
  9
$UCSYDIR
 10
0.0
 20
1.0
 30
0.0
  9
$UCSORTHOREF
  2

  9
$UCSORTHOVIEW
 70
     0
  9
$UCSORGTOP
 10
0.0
 20
0.0
 30
0.0
  9
$UCSORGBOTTOM
 10
0.0
 20
0.0
 30
0.0
  9
$UCSORGLEFT
 10
0.0
 20
0.0
 30
0.0
  9
$UCSORGRIGHT
 10
0.0
 20
0.0
 30
0.0
  9
$UCSORGFRONT
 10
0.0
 20
0.0
 30
0.0
  9
$UCSORGBACK
 10
0.0
 20
0.0
 30
0.0
  9
$PUCSBASE
  2

  9
$PUCSNAME
  2

  9
$PUCSORG
 10
0.0
 20
0.0
 30
0.0
  9
$PUCSXDIR
 10
1.0
 20
0.0
 30
0.0
  9
$PUCSYDIR
 10
0.0
 20
1.0
 30
0.0
  9
$PUCSORTHOREF
  2

  9
$PUCSORTHOVIEW
 70
     0
  9
$PUCSORGTOP
 10
0.0
 20
0.0
 30
0.0
  9
$PUCSORGBOTTOM
 10
0.0
 20
0.0
 30
0.0
  9
$PUCSORGLEFT
 10
0.0
 20
0.0
 30
0.0
  9
$PUCSORGRIGHT
 10
0.0
 20
0.0
 30
0.0
  9
$PUCSORGFRONT
 10
0.0
 20
0.0
 30
0.0
  9
$PUCSORGBACK
 10
0.0
 20
0.0
 30
0.0
  9
$USERI1
 70
     0
  9
$USERI2
 70
     0
  9
$USERI3
 70
     0
  9
$USERI4
 70
     0
  9
$USERI5
 70
     0
  9
$USERR1
 40
0.0
  9
$USERR2
 40
0.0
  9
$USERR3
 40
0.0
  9
$USERR4
 40
0.0
  9
$USERR5
 40
0.0
  9
$WORLDVIEW
 70
     1
  9
$SHADEDGE
 70
     3
  9
$SHADEDIF
 70
    70
  9
$TILEMODE
 70
     1
  9
$MAXACTVP
 70
    64
  9
$PINSBASE
 10
0.0
 20
0.0
 30
0.0
  9
$PLIMCHECK
 70
     0
  9
$PEXTMIN
 10
1.0000000000E+20
 20
1.0000000000E+20
 30
1.0000000000E+20
  9
$PEXTMAX
 10
-1.0000000000E+20
 20
-1.0000000000E+20
 30
-1.0000000000E+20
  9
$PLIMMIN
 10
0.0
 20
0.0
  9
$PLIMMAX
 10
12.0
 20
9.0
  9
$UNITMODE
 70
     0
  9
$VISRETAIN
 70
     1
  9
$PLINEGEN
 70
     0
  9
$PSLTSCALE
 70
     1
  9
$TREEDEPTH
 70
  3020
  9
$CMLSTYLE
  2
Standard
  9
$CMLJUST
 70
     0
  9
$CMLSCALE
 40
1.0
  9
$PROXYGRAPHICS
 70
     1
  9
$MEASUREMENT
 70
     0
  9
$CELWEIGHT
370
    -1
  9
$ENDCAPS
280
     0
  9
$JOINSTYLE
280
     0
  9
$LWDISPLAY
290
     1
  9
$INSUNITS
 70
     1
  9
$HYPERLINKBASE
  1

  9
$STYLESHEET
  1

  9
$XEDIT
290
     1
  9
$CEPSNTYPE
380
     0
  9
$PSTYLEMODE
290
     1
  9
$FINGERPRINTGUID
  2
{7A672542-8F78-4ECA-B423-F9BCE3B41FE8}
  9
$VERSIONGUID
  2
{FAEB1C32-E019-11D5-929B-00C0DF256EC4}
  9
$EXTNAMES
290
     1
  9
$PSVPSCALE
 40
0.0
  9
$OLESTARTUP
290
     0
  0
ENDSEC
  0
SECTION
  2
CLASSES
  0
CLASS
  1
ACDBDICTIONARYWDFLT
  2
AcDbDictionaryWithDefault
  3
ObjectDBX Classes
 90
        0
280
     0
281
     0
  0
CLASS
  1
VISUALSTYLE
  2
AcDbVisualStyle
  3
ObjectDBX Classes
 90
     4095
280
     0
281
     0
  0
CLASS
  1
ACDBPLACEHOLDER
  2
AcDbPlaceHolder
  3
ObjectDBX Classes
 90
        0
280
     0
281
     0
  0
CLASS
  1
LAYOUT
  2
AcDbLayout
  3
ObjectDBX Classes
 90
        0
280
     0
281
     0
  0
ENDSEC
  0
SECTION
  2
TABLES
  0
TABLE
  2
VPORT
  5
8
330
0
100
AcDbSymbolTable
 70
     1
  0
VPORT
  5
29
330
8
100
AcDbSymbolTableRecord
100
AcDbViewportTableRecord
  2
*Active
 70
     0
 10
0.0
 20
0.0
 11
1.0
 21
1.0
 12
17.0
 22
11.0
 13
0.0
 23
0.0
 14
0.5
 24
0.5
 15
0.5
 25
0.5
 16
0.0
 26
0.0
 36
1.0
 17
0.0
 27
0.0
 37
0.0
 40
22.0
 41
1.5454545455
 42
50.0
 43
0.0
 44
0.0
 50
0.0
 51
0.0
 71
     0
 72
  2000
 73
     1
 74
     3
 75
     0
 76
     0
 77
     0
 78
     0
281
     0
 65
     1
110
0.0
120
0.0
130
0.0
111
1.0
121
0.0
131
0.0
112
0.0
122
1.0
132
0.0
 79
     0
146
0.0
  0
ENDTAB
  0
TABLE
  2
LTYPE
  5
5
330
0
100
AcDbSymbolTable
 70
     6
  0
LTYPE
  5
14
330
5
100
AcDbSymbolTableRecord
100
AcDbLinetypeTableRecord
  2
ByBlock
 70
     0
  3

 72
    65
 73
     0
 40
0.0
  0
LTYPE
  5
15
330
5
100
AcDbSymbolTableRecord
100
AcDbLinetypeTableRecord
  2
ByLayer
 70
     0
  3

 72
    65
 73
     0
 40
0.0
  0
LTYPE
  5
16
330
5
100
AcDbSymbolTableRecord
100
AcDbLinetypeTableRecord
  2
Continuous
 70
     0
  3
Solid line
 72
    65
 73
     0
 40
0.0
  0
LTYPE
  5
3B
330
5
100
AcDbSymbolTableRecord
100
AcDbLinetypeTableRecord
  2
HIDDEN
 70
     0
  3
Hidden __ __ __ __ __ __ __ __ __ __ __ __ __ __
 72
    65
 73
     2
 40
0.075
 49
0.05
 74
     0
 49
-0.025
 74
     0
  0
LTYPE
  5
3C
330
5
100
AcDbSymbolTableRecord
100
AcDbLinetypeTableRecord
  2
PHANTOM
 70
     0
  3
Phantom ______  __  __  ______  __  __  ______
 72
    65
 73
     6
 40
0.5
 49
0.25
 74
     0
 49
-0.05
 74
     0
 49
0.05
 74
     0
 49
-0.05
 74
     0
 49
0.05
 74
     0
 49
-0.05
 74
     0
  0
LTYPE
  5
3D
330
5
100
AcDbSymbolTableRecord
100
AcDbLinetypeTableRecord
  2
CENTER
 70
     0
  3
Center ____ _ ____ _ ____ _ ____ _ ____ _ ____
 72
    65
 73
     4
 40
0.4
 49
0.25
 74
     0
 49
-0.05
 74
     0
 49
0.05
 74
     0
 49
-0.05
 74
     0
  0
LTYPE
  5
3E
330
5
100
AcDbSymbolTableRecord
100
AcDbLinetypeTableRecord
  2
CENTERX2
 70
     0
  3
Center (2x) ________  __  ________  __  _____
 72
    65
 73
     4
 40
0.8
 49
0.5
 74
     0
 49
-0.1
 74
     0
 49
0.1
 74
     0
 49
-0.1
 74
     0
  0
LTYPE
  5
3F
330
5
100
AcDbSymbolTableRecord
100
AcDbLinetypeTableRecord
  2
DOT2
 70
     0
  3
Dot (.5x) ........................................
 72
    65
 73
     2
 40
0.025
 49
0.0
 74
     0
 49
-0.025
 74
     0
  0
ENDTAB
  0
TABLE
  2
LAYER
  5
2
330
0
100
AcDbSymbolTable
 70
    13
  0
LAYER
  5
10
330
2
100
AcDbSymbolTableRecord
100
AcDbLayerTableRecord
  2
0
 70
     0
 62
     7
  6
Continuous
370
    -3
390
F
  0
LAYER
  5
40
330
2
100
AcDbSymbolTableRecord
100
AcDbLayerTableRecord
  2
SLD-0
 70
     0
 62
   179
  6
Continuous
370
    -3
390
F
  0
LAYER
  5
41
330
2
100
AcDbSymbolTableRecord
100
AcDbLayerTableRecord
  2
1
 70
     0
 62
     1
  6
CENTER
370
    -3
390
F
  0
LAYER
  5
42
330
2
100
AcDbSymbolTableRecord
100
AcDbLayerTableRecord
  2
2
 70
     0
 62
     2
  6
Continuous
370
    -3
390
F
  0
LAYER
  5
43
330
2
100
AcDbSymbolTableRecord
100
AcDbLayerTableRecord
  2
4
 70
     0
 62
     4
  6
Continuous
370
    -3
390
F
  0
LAYER
  5
44
330
2
100
AcDbSymbolTableRecord
100
AcDbLayerTableRecord
  2
TRMODEL1
 70
     0
 62
   179
  6
Continuous
370
    -3
390
F
  0
LAYER
  5
45
330
2
100
AcDbSymbolTableRecord
100
AcDbLayerTableRecord
  2
TRMODEL2
 70
     0
 62
     3
  6
Continuous
370
    -3
390
F
  0
LAYER
  5
46
330
2
100
AcDbSymbolTableRecord
100
AcDbLayerTableRecord
  2
TRMODEL3
 70
     0
 62
     1
  6
HIDDEN
370
    -3
390
F
  0
LAYER
  5
47
330
2
100
AcDbSymbolTableRecord
100
AcDbLayerTableRecord
  2
TRDIM
 70
     0
 62
     3
  6
Continuous
370
    -3
390
F
  0
LAYER
  5
48
330
2
100
AcDbSymbolTableRecord
100
AcDbLayerTableRecord
  2
TRDETAIL1
 70
     0
 62
     1
  6
Continuous
370
    -3
390
F
  0
LAYER
  5
49
330
2
100
AcDbSymbolTableRecord
100
AcDbLayerTableRecord
  2
TRDETAIL2
 70
     0
 62
     6
  6
HIDDEN
370
    -3
390
F
  0
LAYER
  5
4A
330
2
100
AcDbSymbolTableRecord
100
AcDbLayerTableRecord
  2
TRDETAIL3
 70
     0
 62
     4
  6
CENTERX2
370
    -3
390
F
  0
LAYER
  5
4B
330
2
100
AcDbSymbolTableRecord
100
AcDbLayerTableRecord
  2
TRTEXT
 70
     0
 62
   179
  6
Continuous
370
    -3
390
F
  0
ENDTAB
  0
TABLE
  2
STYLE
  5
3
330
0
100
AcDbSymbolTable
 70
     2
  0
STYLE
  5
11
330
3
100
AcDbSymbolTableRecord
100
AcDbTextStyleTableRecord
  2
Standard
 70
     0
 40
0.0
 41
1.0
 50
0.0
 71
     0
 42
0.2
  3
txt
  4

  0
STYLE
  5
73D
330
3
100
AcDbSymbolTableRecord
100
AcDbTextStyleTableRecord
  2
SLDTEXTSTYLE0
 70
     0
 40
0.0
 41
0.7
 50
0.0
 71
     0
 42
0.2
  3
TXT
  4

  0
ENDTAB
  0
TABLE
  2
VIEW
  5
6
330
0
100
AcDbSymbolTable
 70
     0
  0
ENDTAB
  0
TABLE
  2
UCS
  5
7
330
0
100
AcDbSymbolTable
 70
     0
  0
ENDTAB
  0
TABLE
  2
APPID
  5
9
330
0
100
AcDbSymbolTable
 70
     1
  0
APPID
  5
12
330
9
100
AcDbSymbolTableRecord
100
AcDbRegAppTableRecord
  2
ACAD
 70
     0
  0
ENDTAB
  0
TABLE
  2
DIMSTYLE
  5
A
330
0
100
AcDbSymbolTable
 70
     1
100
AcDbDimStyleTable
  0
DIMSTYLE
105
27
330
A
100
AcDbSymbolTableRecord
100
AcDbDimStyleTableRecord
  2
Standard
 70
     0
340
11
  0
ENDTAB
  0
TABLE
  2
BLOCK_RECORD
  5
1
330
0
100
AcDbSymbolTable
 70
     1
  0
BLOCK_RECORD
  5
1F
330
1
100
AcDbSymbolTableRecord
100
AcDbBlockTableRecord
  2
*Model_Space
340
22
  0
BLOCK_RECORD
  5
1B
330
1
100
AcDbSymbolTableRecord
100
AcDbBlockTableRecord
  2
*Paper_Space
340
1E
  0
BLOCK_RECORD
  5
23
330
1
100
AcDbSymbolTableRecord
100
AcDbBlockTableRecord
  2
*Paper_Space0
340
26
  0
ENDTAB
  0
ENDSEC
  0
SECTION
  2
BLOCKS
  0
BLOCK
  5
20
330
1F
100
AcDbEntity
  8
0
100
AcDbBlockBegin
  2
*Model_Space
 70
     0
 71
     0
 10
0.0
 20
0.0
 30
0.0
  3
*Model_Space
  1

  0
ENDBLK
  5
21
330
1F
100
AcDbEntity
  8
0
100
AcDbBlockEnd
  0
BLOCK
  5
1C
330
1B
100
AcDbEntity
 67
     1
  8
0
100
AcDbBlockBegin
  2
*Paper_Space
 70
     0
 71
     0
 10
0.0
 20
0.0
 30
0.0
  3
*Paper_Space
  1

  0
ENDBLK
  5
1D
330
1B
100
AcDbEntity
 67
     1
  8
0
100
AcDbBlockEnd
  0
BLOCK
  5
24
330
23
100
AcDbEntity
  8
0
100
AcDbBlockBegin
  2
*Paper_Space0
 70
     0
 71
     0
 10
0.0
 20
0.0
 30
0.0
  3
*Paper_Space0
  1

  0
ENDBLK
  5
25
330
23
100
AcDbEntity
  8
0
100
AcDbBlockEnd
  0
ENDSEC
  0
SECTION
  2
ENTITIES
  0
LINE
  5
4C
330
1F
100
AcDbEntity
  8
TRMODEL1
  6
Continuous
 62
     4
100
AcDbLine
 10
3.6195794672
 20
16.4139721629
 30
0.0
 11
4.0526391006
 21
16.6639721679
 31
0.0
  0
LINE
  5
4D
330
1F
100
AcDbEntity
  8
TRMODEL1
  6
Continuous
 62
     4
100
AcDbLine
 10
3.6195794672
 20
16.4139721629
 30
0.0
 11
3.9487047886
 21
16.2239721591
 31
0.0
  0
LINE
  5
4E
330
1F
100
AcDbEntity
  8
TRMODEL1
  6
Continuous
 62
     4
100
AcDbLine
 10
3.6195794672
 20
16.3514620028
 30
0.0
 11
3.9487047886
 21
16.161461999
 31
0.0
  0
LINE
  5
4F
330
1F
100
AcDbEntity
  8
TRMODEL1
  6
Continuous
 62
     4
100
AcDbLine
 10
3.9776214437
 20
16.6714007275
 30
0.0
 11
3.5445618103
 21
16.4214007225
 31
0.0
  0
LINE
  5
50
330
1F
100
AcDbEntity
  8
TRMODEL1
  6
Continuous
 62
     2
100
AcDbLine
 10
3.5697315152
 20
15.8824822152
 30
0.0
 11
3.9855293133
 21
16.1225171748
 31
0.0
  0
LINE
  5
51
330
1F
100
AcDbEntity
  8
TRMODEL1
  6
Continuous
 62
     2
100
AcDbLine
 10
3.5697315152
 20
15.8824822152
 30
0.0
 11
4.6522046306
 21
15.257583787
 31
0.0
  0
LINE
  5
52
330
1F
100
AcDbEntity
  8
TRMODEL1
  6
Continuous
 62
     2
100
AcDbLine
 10
2.5085935597
 20
14.8700844322
 30
0.0
 11
10.5321000633
 21
10.2382127198
 31
0.0
  0
LINE
  5
53
330
1F
100
AcDbEntity
  8
TRMODEL1
  6
Continuous
 62
     2
100
AcDbLine
 10
2.5085935597
 20
16.3700844322
 30
0.0
 11
10.5321000633
 21
11.7382127198
 31
0.0
  0
LINE
  5
54
330
1F
100
AcDbEntity
  8
TRMODEL1
  6
Continuous
 62
     4
100
AcDbLine
 10
1.7933191887
 20
12.8857778901
 30
0.0
 11
8.8121779976
 21
8.8338769468
 31
0.0
  0
LINE
  5
55
330
1F
100
AcDbEntity
  8
TRMODEL1
  6
Continuous
 62
     4
100
AcDbLine
 10
1.4615762629
 20
12.8729020051
 30
0.0
 11
8.4804350718
 21
8.8210010618
 31
0.0
  0
LINE
  5
56
330
1F
100
AcDbEntity
  8
TRMODEL1
  6
Continuous
 62
     4
100
AcDbLine
 10
0.0435717363
 20
12.0531043009
 30
0.0
 11
7.0624305452
 21
8.0012033577
 31
0.0
  0
LINE
  5
57
330
1F
100
AcDbEntity
  8
TRMODEL1
  6
Continuous
 62
     4
100
AcDbLine
 10
0.0158550299
 20
11.681552742
 30
0.0
 11
7.0347138388
 21
7.6296517988
 31
0.0
  0
LINE
  5
58
330
1F
100
AcDbEntity
  8
TRMODEL1
  6
Continuous
 62
     4
100
AcDbLine
 10
0.0
 20
11.9666418281
 30
0.0
 11
7.0188588089
 21
7.9147408849
 31
0.0
  0
LINE
  5
59
330
1F
100
AcDbEntity
  8
TRMODEL1
  6
Continuous
 62
     4
100
AcDbLine
 10
0.0
 20
11.7166011878
 30
0.0
 11
7.0188588089
 21
7.6647002445
 31
0.0
  0
LINE
  5
5A
330
1F
100
AcDbEntity
  8
TRMODEL1
  6
Continuous
 62
     4
100
AcDbLine
 10
1.5698411713
 20
5.4341827963
 30
0.0
 11
8.5886999802
 21
1.3822818531
 31
0.0
  0
LINE
  5
5B
330
1F
100
AcDbEntity
  8
TRMODEL1
  6
Continuous
 62
     4
100
AcDbLine
 10
1.4615762629
 20
5.2466624749
 30
0.0
 11
8.4804350718
 21
1.1947615316
 31
0.0
  0
LINE
  5
5C
330
1F
100
AcDbEntity
  8
TRMODEL1
  6
Continuous
 62
     4
100
AcDbLine
 10
0.0
 20
4.3404022979
 30
0.0
 11
7.0188588089
 21
0.2885013547
 31
0.0
  0
LINE
  5
5D
330
1F
100
AcDbEntity
  8
TRMODEL1
  6
Continuous
 62
     4
100
AcDbLine
 10
0.0
 20
4.0903616576
 30
0.0
 11
7.0188588089
 21
0.0384607144
 31
0.0
  0
LINE
  5
5E
330
1F
100
AcDbEntity
  8
TRMODEL1
  6
Continuous
 62
     4
100
AcDbLine
 10
0.0158550299
 20
4.0553132118
 30
0.0
 11
7.0347138388
 21
0.0034122686
 31
0.0
  0
LINE
  5
5F
330
1F
100
AcDbEntity
  8
TRMODEL1
  6
Continuous
 62
     4
100
AcDbLine
 10
0.0435717363
 20
4.4268647708
 30
0.0
 11
7.0624305452
 21
0.3749638275
 31
0.0
  0
LINE
  5
60
330
1F
100
AcDbEntity
  8
TRMODEL1
  6
Continuous
 62
     4
100
AcDbLine
 10
1.5698411713
 20
10.7844556378
 30
0.0
 11
1.5698411713
 21
5.4341827963
 31
0.0
  0
LINE
  5
61
330
1F
100
AcDbEntity
  8
TRMODEL1
  6
Continuous
 62
     4
100
AcDbLine
 10
1.4615762629
 20
5.2466624749
 30
0.0
 11
0.0541324542
 21
4.4341624586
 31
0.0
  0
LINE
  5
62
330
1F
100
AcDbEntity
  8
TRMODEL1
  6
Continuous
 62
     4
100
AcDbLine
 10
0.0
 20
4.3404022979
 30
0.0
 11
0.0
 21
4.0903616576
 31
0.0
  0
LINE
  5
63
330
1F
100
AcDbEntity
  8
TRMODEL1
  6
Continuous
 62
     4
100
AcDbLine
 10
0.0541324542
 20
4.4341624586
 30
0.0
 11
0.0435717363
 21
4.4268647708
 31
0.0
  0
LINE
  5
64
330
1F
100
AcDbEntity
  8
TRMODEL1
  6
Continuous
 62
     4
100
AcDbLine
 10
0.0435717363
 20
4.4268647708
 30
0.0
 11
0.0334168608
 21
4.4174452985
 31
0.0
  0
LINE
  5
65
330
1F
100
AcDbEntity
  8
TRMODEL1
  6
Continuous
 62
     4
100
AcDbLine
 10
0.0334168608
 20
4.4174452985
 30
0.0
 11
0.024058074
 21
4.406266027
 31
0.0
  0
LINE
  5
66
330
1F
100
AcDbEntity
  8
TRMODEL1
  6
Continuous
 62
     4
100
AcDbLine
 10
0.024058074
 20
4.406266027
 30
0.0
 11
0.0158550287
 21
4.3937565693
 31
0.0
  0
LINE
  5
67
330
1F
100
AcDbEntity
  8
TRMODEL1
  6
Continuous
 62
     4
100
AcDbLine
 10
0.0158550287
 20
4.3937565693
 30
0.0
 11
0.0091229635
 21
4.3803976568
 31
0.0
  0
LINE
  5
68
330
1F
100
AcDbEntity
  8
TRMODEL1
  6
Continuous
 62
     4
100
AcDbLine
 10
0.0091229635
 20
4.3803976568
 30
0.0
 11
0.0041205877
 21
4.3667026652
 31
0.0
  0
LINE
  5
69
330
1F
100
AcDbEntity
  8
TRMODEL1
  6
Continuous
 62
     4
100
AcDbLine
 10
0.0041205877
 20
4.3667026652
 30
0.0
 11
0.0010401399
 21
4.3531978852
 31
0.0
  0
LINE
  5
6A
330
1F
100
AcDbEntity
  8
TRMODEL1
  6
Continuous
 62
     4
100
AcDbLine
 10
0.0010401399
 20
4.3531978852
 30
0.0
 11
0.0
 21
4.3404022979
 31
0.0
  0
LINE
  5
6B
330
1F
100
AcDbEntity
  8
TRMODEL1
  6
Continuous
 62
     4
100
AcDbLine
 10
0.0
 20
4.0903616576
 30
0.0
 11
0.0010401399
 21
4.0787669903
 31
0.0
  0
LINE
  5
6C
330
1F
100
AcDbEntity
  8
TRMODEL1
  6
Continuous
 62
     4
100
AcDbLine
 10
0.0010401399
 20
4.0787669903
 30
0.0
 11
0.0041205877
 21
4.0688188196
 31
0.0
  0
LINE
  5
6D
330
1F
100
AcDbEntity
  8
TRMODEL1
  6
Continuous
 62
     4
100
AcDbLine
 10
0.0041205877
 20
4.0688188196
 30
0.0
 11
0.0091229635
 21
4.0608994481
 31
0.0
  0
LINE
  5
6E
330
1F
100
AcDbEntity
  8
TRMODEL1
  6
Continuous
 62
     4
100
AcDbLine
 10
0.0091229635
 20
4.0608994481
 30
0.0
 11
0.0158550299
 21
4.0553132118
 31
0.0
  0
LINE
  5
6F
330
1F
100
AcDbEntity
  8
TRMODEL1
  6
Continuous
 62
     4
100
AcDbLine
 10
1.5698411713
 20
5.4341827963
 30
0.0
 11
1.5677608915
 21
5.4085916218
 31
0.0
  0
LINE
  5
70
330
1F
100
AcDbEntity
  8
TRMODEL1
  6
Continuous
 62
     4
100
AcDbLine
 10
1.5677608915
 20
5.4085916218
 30
0.0
 11
1.5615999959
 21
5.3815820618
 31
0.0
  0
LINE
  5
71
330
1F
100
AcDbEntity
  8
TRMODEL1
  6
Continuous
 62
     4
100
AcDbLine
 10
1.5615999959
 20
5.3815820618
 30
0.0
 11
1.5515952443
 21
5.3541920785
 31
0.0
  0
LINE
  5
72
330
1F
100
AcDbEntity
  8
TRMODEL1
  6
Continuous
 62
     4
100
AcDbLine
 10
1.5515952443
 20
5.3541920785
 30
0.0
 11
1.5381311138
 21
5.3274742536
 31
0.0
  0
LINE
  5
73
330
1F
100
AcDbEntity
  8
TRMODEL1
  6
Continuous
 62
     4
100
AcDbLine
 10
1.5381311138
 20
5.3274742536
 30
0.0
 11
1.5217250233
 21
5.3024553382
 31
0.0
  0
LINE
  5
74
330
1F
100
AcDbEntity
  8
TRMODEL1
  6
Continuous
 62
     4
100
AcDbLine
 10
1.5217250233
 20
5.3024553382
 30
0.0
 11
1.5030074497
 21
5.2800967951
 31
0.0
  0
LINE
  5
75
330
1F
100
AcDbEntity
  8
TRMODEL1
  6
Continuous
 62
     4
100
AcDbLine
 10
1.5030074497
 20
5.2800967951
 30
0.0
 11
1.4826976988
 21
5.2612578506
 31
0.0
  0
LINE
  5
76
330
1F
100
AcDbEntity
  8
TRMODEL1
  6
Continuous
 62
     4
100
AcDbLine
 10
1.4826976988
 20
5.2612578506
 30
0.0
 11
1.4615762629
 21
5.2466624749
 31
0.0
  0
LINE
  5
77
330
1F
100
AcDbEntity
  8
TRMODEL1
  6
Continuous
 62
     4
100
AcDbLine
 10
1.4615762629
 20
12.8729020051
 30
0.0
 11
0.0541324542
 21
12.0604019888
 31
0.0
  0
LINE
  5
78
330
1F
100
AcDbEntity
  8
TRMODEL1
  6
Continuous
 62
     4
100
AcDbLine
 10
0.0
 20
11.9666418281
 30
0.0
 11
0.0
 21
11.7166011878
 31
0.0
  0
LINE
  5
79
330
1F
100
AcDbEntity
  8
TRMODEL1
  6
Continuous
 62
     4
100
AcDbLine
 10
0.0
 20
11.7166011878
 30
0.0
 11
0.0010401399
 21
11.7050065205
 31
0.0
  0
LINE
  5
7A
330
1F
100
AcDbEntity
  8
TRMODEL1
  6
Continuous
 62
     4
100
AcDbLine
 10
0.0010401399
 20
11.7050065205
 30
0.0
 11
0.0041205877
 21
11.6950583498
 31
0.0
  0
LINE
  5
7B
330
1F
100
AcDbEntity
  8
TRMODEL1
  6
Continuous
 62
     4
100
AcDbLine
 10
0.0041205877
 20
11.6950583498
 30
0.0
 11
0.0091229635
 21
11.6871389783
 31
0.0
  0
LINE
  5
7C
330
1F
100
AcDbEntity
  8
TRMODEL1
  6
Continuous
 62
     4
100
AcDbLine
 10
0.0091229635
 20
11.6871389783
 30
0.0
 11
0.0158550299
 21
11.681552742
 31
0.0
  0
LINE
  5
7D
330
1F
100
AcDbEntity
  8
TRMODEL1
  6
Continuous
 62
     4
100
AcDbLine
 10
0.0158550299
 20
11.681552742
 30
0.0
 11
0.024058074
 21
11.6785143197
 31
0.0
  0
LINE
  5
7E
330
1F
100
AcDbEntity
  8
TRMODEL1
  6
Continuous
 62
     4
100
AcDbLine
 10
0.024058074
 20
11.6785143197
 30
0.0
 11
0.0334168608
 21
11.6781404734
 31
0.0
  0
LINE
  5
7F
330
1F
100
AcDbEntity
  8
TRMODEL1
  6
Continuous
 62
     4
100
AcDbLine
 10
0.0334168608
 20
11.6781404734
 30
0.0
 11
0.0435717363
 21
11.6804455708
 31
0.0
  0
LINE
  5
80
330
1F
100
AcDbEntity
  8
TRMODEL1
  6
Continuous
 62
     4
100
AcDbLine
 10
0.0435717363
 20
11.6804455708
 30
0.0
 11
0.0541324542
 21
11.6853410283
 31
0.0
  0
LINE
  5
81
330
1F
100
AcDbEntity
  8
TRMODEL1
  6
Continuous
 62
     4
100
AcDbLine
 10
0.0541324542
 20
12.0604019888
 30
0.0
 11
0.0435717363
 21
12.0531043009
 31
0.0
  0
LINE
  5
82
330
1F
100
AcDbEntity
  8
TRMODEL1
  6
Continuous
 62
     4
100
AcDbLine
 10
0.0435717363
 20
12.0531043009
 30
0.0
 11
0.0334168608
 21
12.0436848287
 31
0.0
  0
LINE
  5
83
330
1F
100
AcDbEntity
  8
TRMODEL1
  6
Continuous
 62
     4
100
AcDbLine
 10
0.0334168608
 20
12.0436848287
 30
0.0
 11
0.024058074
 21
12.0325055572
 31
0.0
  0
LINE
  5
84
330
1F
100
AcDbEntity
  8
TRMODEL1
  6
Continuous
 62
     4
100
AcDbLine
 10
0.024058074
 20
12.0325055572
 30
0.0
 11
0.0158550287
 21
12.0199960995
 31
0.0
  0
LINE
  5
85
330
1F
100
AcDbEntity
  8
TRMODEL1
  6
Continuous
 62
     4
100
AcDbLine
 10
0.0158550287
 20
12.0199960995
 30
0.0
 11
0.0091229635
 21
12.006637187
 31
0.0
  0
LINE
  5
86
330
1F
100
AcDbEntity
  8
TRMODEL1
  6
Continuous
 62
     4
100
AcDbLine
 10
0.0091229635
 20
12.006637187
 30
0.0
 11
0.0041205877
 21
11.9929421954
 31
0.0
  0
LINE
  5
87
330
1F
100
AcDbEntity
  8
TRMODEL1
  6
Continuous
 62
     4
100
AcDbLine
 10
0.0041205877
 20
11.9929421954
 30
0.0
 11
0.0010401399
 21
11.9794374154
 31
0.0
  0
LINE
  5
88
330
1F
100
AcDbEntity
  8
TRMODEL1
  6
Continuous
 62
     4
100
AcDbLine
 10
0.0010401399
 20
11.9794374154
 30
0.0
 11
0.0
 21
11.9666418281
 31
0.0
  0
LINE
  5
89
330
1F
100
AcDbEntity
  8
TRMODEL1
  6
Continuous
 62
     4
100
AcDbLine
 10
1.7933191887
 20
12.8857778901
 30
0.0
 11
1.7399416296
 21
12.9166021162
 31
0.0
  0
LINE
  5
8A
330
1F
100
AcDbEntity
  8
TRMODEL1
  6
Continuous
 62
     4
100
AcDbLine
 10
1.7399416296
 20
12.9166021162
 30
0.0
 11
1.6781060797
 21
12.9309038199
 31
0.0
  0
LINE
  5
8B
330
1F
100
AcDbEntity
  8
TRMODEL1
  6
Continuous
 62
     4
100
AcDbLine
 10
1.6781060797
 20
12.9309038199
 30
0.0
 11
1.6096913809
 21
12.9282484512
 31
0.0
  0
LINE
  5
8C
330
1F
100
AcDbEntity
  8
TRMODEL1
  6
Continuous
 62
     4
100
AcDbLine
 10
1.6096913809
 20
12.9282484512
 30
0.0
 11
1.5367762791
 21
12.908716692
 31
0.0
  0
LINE
  5
8D
330
1F
100
AcDbEntity
  8
TRMODEL1
  6
Continuous
 62
     4
100
AcDbLine
 10
1.5367762791
 20
12.908716692
 30
0.0
 11
1.4615762629
 21
12.8729020051
 31
0.0
  0
LINE
  5
8E
330
1F
100
AcDbEntity
  8
TRMODEL1
  6
Continuous
 62
     4
100
AcDbLine
 10
3.513479857
 20
16.0999681954
 30
0.0
 11
3.513479857
 21
16.3527022503
 31
0.0
  0
LINE
  5
8F
330
1F
100
AcDbEntity
  8
TRMODEL1
  6
Continuous
 62
     4
100
AcDbLine
 10
3.5676123111
 20
16.131218196
 30
0.0
 11
3.5676123111
 21
16.3214522497
 31
0.0
  0
LINE
  5
90
330
1F
100
AcDbEntity
  8
TRMODEL1
  6
Continuous
 62
     4
100
AcDbLine
 10
3.5676123111
 20
16.3214522497
 30
0.0
 11
3.6195794672
 21
16.3514620028
 31
0.0
  0
LINE
  5
91
330
1F
100
AcDbEntity
  8
TRMODEL1
  6
Continuous
 62
     4
100
AcDbLine
 10
3.513479857
 20
16.3527022503
 30
0.0
 11
3.5155185312
 21
16.3754277982
 31
0.0
  0
LINE
  5
92
330
1F
100
AcDbEntity
  8
TRMODEL1
  6
Continuous
 62
     4
100
AcDbLine
 10
3.5155185312
 20
16.3754277982
 30
0.0
 11
3.5215562089
 21
16.3949262127
 31
0.0
  0
LINE
  5
93
330
1F
100
AcDbEntity
  8
TRMODEL1
  6
Continuous
 62
     4
100
AcDbLine
 10
3.5215562089
 20
16.3949262127
 30
0.0
 11
3.5313608654
 21
16.4104481809
 31
0.0
  0
LINE
  5
94
330
1F
100
AcDbEntity
  8
TRMODEL1
  6
Continuous
 62
     4
100
AcDbLine
 10
3.5313608654
 20
16.4104481809
 30
0.0
 11
3.5445557133
 21
16.4213972022
 31
0.0
  0
LINE
  5
95
330
1F
100
AcDbEntity
  8
TRMODEL1
  6
Continuous
 62
     4
100
AcDbLine
 10
3.5445557133
 20
16.4213972022
 30
0.0
 11
3.560633682
 21
16.4273525118
 31
0.0
  0
LINE
  5
96
330
1F
100
AcDbEntity
  8
TRMODEL1
  6
Continuous
 62
     4
100
AcDbLine
 10
3.560633682
 20
16.4273525118
 30
0.0
 11
3.5789769041
 21
16.4280852505
 31
0.0
  0
LINE
  5
97
330
1F
100
AcDbEntity
  8
TRMODEL1
  6
Continuous
 62
     4
100
AcDbLine
 10
3.5789769041
 20
16.4280852505
 30
0.0
 11
3.59888046
 21
16.4235672596
 31
0.0
  0
LINE
  5
98
330
1F
100
AcDbEntity
  8
TRMODEL1
  6
Continuous
 62
     4
100
AcDbLine
 10
3.59888046
 20
16.4235672596
 30
0.0
 11
3.6195794672
 21
16.4139721629
 31
0.0
  0
LINE
  5
99
330
1F
100
AcDbEntity
  8
TRMODEL1
  6
Continuous
 62
     4
100
AcDbLine
 10
3.5676123111
 20
16.3214522497
 30
0.0
 11
3.5686108455
 21
16.3325831303
 31
0.0
  0
LINE
  5
9A
330
1F
100
AcDbEntity
  8
TRMODEL1
  6
Continuous
 62
     4
100
AcDbLine
 10
3.5686108455
 20
16.3325831303
 30
0.0
 11
3.5715680753
 21
16.3421333742
 31
0.0
  0
LINE
  5
9B
330
1F
100
AcDbEntity
  8
TRMODEL1
  6
Continuous
 62
     4
100
AcDbLine
 10
3.5715680753
 20
16.3421333742
 30
0.0
 11
3.5763703561
 21
16.3497359708
 31
0.0
  0
LINE
  5
9C
330
1F
100
AcDbEntity
  8
TRMODEL1
  6
Continuous
 62
     4
100
AcDbLine
 10
3.5763703561
 20
16.3497359708
 30
0.0
 11
3.5828331387
 21
16.3550987567
 31
0.0
  0
LINE
  5
9D
330
1F
100
AcDbEntity
  8
TRMODEL1
  6
Continuous
 62
     4
100
AcDbLine
 10
3.5828331387
 20
16.3550987567
 30
0.0
 11
3.5907080622
 21
16.3580156431
 31
0.0
  0
LINE
  5
9E
330
1F
100
AcDbEntity
  8
TRMODEL1
  6
Continuous
 62
     4
100
AcDbLine
 10
3.5907080622
 20
16.3580156431
 30
0.0
 11
3.5996924975
 21
16.3583745355
 31
0.0
  0
LINE
  5
9F
330
1F
100
AcDbEntity
  8
TRMODEL1
  6
Continuous
 62
     4
100
AcDbLine
 10
3.5996924975
 20
16.3583745355
 30
0.0
 11
3.6094411779
 21
16.356161642
 31
0.0
  0
LINE
  5
A0
330
1F
100
AcDbEntity
  8
TRMODEL1
  6
Continuous
 62
     4
100
AcDbLine
 10
3.6094411779
 20
16.356161642
 30
0.0
 11
3.6195794672
 21
16.3514620028
 31
0.0
  0
LINE
  5
A1
330
1F
100
AcDbEntity
  8
TRMODEL1
  6
Continuous
 62
     2
100
AcDbLine
 10
3.3532368921
 20
16.0074619009
 30
0.0
 11
3.7843532898
 21
16.2563400997
 31
0.0
  0
LINE
  5
A2
330
1F
100
AcDbEntity
  8
TRMODEL1
  6
Continuous
 62
     2
100
AcDbLine
 10
2.6168408712
 20
16.432574275
 30
0.0
 11
3.3532368921
 21
16.0074619009
 31
0.0
  0
LINE
  5
A3
330
1F
100
AcDbEntity
  8
TRMODEL1
  6
Continuous
 62
     2
100
AcDbLine
 10
2.6168408712
 20
16.432574275
 30
0.0
 11
2.5085935597
 21
16.3700844322
 31
0.0
  0
LINE
  5
A4
330
1F
100
AcDbEntity
  8
TRMODEL1
  6
Continuous
 62
     2
100
AcDbLine
 10
2.5085935597
 20
16.3700844322
 30
0.0
 11
2.5085935597
 21
14.8700844322
 31
0.0
  0
LINE
  5
A5
330
1F
100
AcDbEntity
  8
TRMODEL1
  6
Continuous
 62
     2
100
AcDbLine
 10
4.8140095825
 20
20.7735846488
 30
0.0
 11
4.8216503143
 21
20.7614627511
 31
0.0
  0
LINE
  5
A6
330
1F
100
AcDbEntity
  8
TRMODEL1
  6
Continuous
 62
     2
100
AcDbLine
 10
4.8216503143
 20
20.7614627511
 30
0.0
 11
4.8206178236
 21
20.7344233477
 31
0.0
  0
LINE
  5
A7
330
1F
100
AcDbEntity
  8
TRMODEL1
  6
Continuous
 62
     2
100
AcDbLine
 10
4.8206178236
 20
20.7344233477
 30
0.0
 11
4.8025622698
 21
20.7092554619
 31
0.0
  0
LINE
  5
A8
330
1F
100
AcDbEntity
  8
TRMODEL1
  6
Continuous
 62
     2
100
AcDbLine
 10
4.8025622698
 20
20.7092554619
 30
0.0
 11
4.7695293894
 21
20.6891399691
 31
0.0
  0
LINE
  5
A9
330
1F
100
AcDbEntity
  8
TRMODEL1
  6
Continuous
 62
     2
100
AcDbLine
 10
4.7695293894
 20
20.6891399691
 30
0.0
 11
4.7252533814
 21
20.6766136206
 31
0.0
  0
LINE
  5
AA
330
1F
100
AcDbEntity
  8
TRMODEL1
  6
Continuous
 62
     2
100
AcDbLine
 10
4.7252533814
 20
20.6766136206
 30
0.0
 11
4.6747543941
 21
20.6734520268
 31
0.0
  0
LINE
  5
AB
330
1F
100
AcDbEntity
  8
TRMODEL1
  6
Continuous
 62
     2
100
AcDbLine
 10
4.6747543941
 20
20.6734520268
 30
0.0
 11
4.6237389156
 21
20.6802677276
 31
0.0
  0
LINE
  5
AC
330
1F
100
AcDbEntity
  8
TRMODEL1
  6
Continuous
 62
     2
100
AcDbLine
 10
4.6237389156
 20
20.6802677276
 30
0.0
 11
4.5779909656
 21
20.696634165
 31
0.0
  0
LINE
  5
AD
330
1F
100
AcDbEntity
  8
TRMODEL1
  6
Continuous
 62
     2
100
AcDbLine
 10
4.5779909656
 20
20.696634165
 30
0.0
 11
4.542682652
 21
20.7209761837
 31
0.0
  0
LINE
  5
AE
330
1F
100
AcDbEntity
  8
TRMODEL1
  6
Continuous
 62
     2
100
AcDbLine
 10
4.542682652
 20
20.7209761837
 30
0.0
 11
4.5218141366
 21
20.750854152
 31
0.0
  0
LINE
  5
AF
330
1F
100
AcDbEntity
  8
TRMODEL1
  6
Continuous
 62
     2
100
AcDbLine
 10
4.5218141366
 20
20.750854152
 30
0.0
 11
4.5177463329
 21
20.7831964474
 31
0.0
  0
LINE
  5
B0
330
1F
100
AcDbEntity
  8
TRMODEL1
  6
Continuous
 62
     2
100
AcDbLine
 10
4.5177463329
 20
20.7831964474
 30
0.0
 11
4.5309405462
 21
20.8146228614
 31
0.0
  0
LINE
  5
B1
330
1F
100
AcDbEntity
  8
TRMODEL1
  6
Continuous
 62
     2
100
AcDbLine
 10
4.8154451977
 20
20.8232538437
 30
0.0
 11
4.8233400299
 21
20.8002760693
 31
0.0
  0
LINE
  5
B2
330
1F
100
AcDbEntity
  8
TRMODEL1
  6
Continuous
 62
     2
100
AcDbLine
 10
4.8233400299
 20
20.8002760693
 30
0.0
 11
4.8151368672
 21
20.7735951223
 31
0.0
  0
LINE
  5
B3
330
1F
100
AcDbEntity
  8
TRMODEL1
  6
Continuous
 62
     2
100
AcDbLine
 10
4.8151368672
 20
20.7735951223
 30
0.0
 11
4.7905327143
 21
20.7501714526
 31
0.0
  0
LINE
  5
B4
330
1F
100
AcDbEntity
  8
TRMODEL1
  6
Continuous
 62
     2
100
AcDbLine
 10
4.7905327143
 20
20.7501714526
 30
0.0
 11
4.7523087823
 21
20.7329140974
 31
0.0
  0
LINE
  5
B5
330
1F
100
AcDbEntity
  8
TRMODEL1
  6
Continuous
 62
     2
100
AcDbLine
 10
4.7523087823
 20
20.7329140974
 30
0.0
 11
4.7047977959
 21
20.7241240292
 31
0.0
  0
LINE
  5
B6
330
1F
100
AcDbEntity
  8
TRMODEL1
  6
Continuous
 62
     2
100
AcDbLine
 10
4.7047977959
 20
20.7241240292
 30
0.0
 11
4.6533713865
 21
20.7250655378
 31
0.0
  0
LINE
  5
B7
330
1F
100
AcDbEntity
  8
TRMODEL1
  6
Continuous
 62
     2
100
AcDbLine
 10
4.6533713865
 20
20.7250655378
 30
0.0
 11
4.6038564019
 21
20.7359583074
 31
0.0
  0
LINE
  5
B8
330
1F
100
AcDbEntity
  8
TRMODEL1
  6
Continuous
 62
     2
100
AcDbLine
 10
4.6038564019
 20
20.7359583074
 30
0.0
 11
4.5618547455
 21
20.7558690032
 31
0.0
  0
LINE
  5
B9
330
1F
100
AcDbEntity
  8
TRMODEL1
  6
Continuous
 62
     2
100
AcDbLine
 10
4.5618547455
 20
20.7558690032
 30
0.0
 11
4.5321209517
 21
20.7828375939
 31
0.0
  0
LINE
  5
BA
330
1F
100
AcDbEntity
  8
TRMODEL1
  6
Continuous
 62
     2
100
AcDbLine
 10
4.5321209517
 20
20.7828375939
 30
0.0
 11
4.5180224848
 21
20.8141382821
 31
0.0
  0
LINE
  5
BB
330
1F
100
AcDbEntity
  8
TRMODEL1
  6
Continuous
 62
     2
100
AcDbLine
 10
4.5180224848
 20
20.8141382821
 30
0.0
 11
4.5211540582
 21
20.8465034908
 31
0.0
  0
LINE
  5
BC
330
1F
100
AcDbEntity
  8
TRMODEL1
  6
Continuous
 62
     2
100
AcDbLine
 10
4.5211540582
 20
20.8465034908
 30
0.0
 11
4.5232724583
 21
20.8496910888
 31
0.0
  0
LINE
  5
BD
330
1F
100
AcDbEntity
  8
TRMODEL1
  6
Continuous
 62
     2
100
AcDbLine
 10
4.5181195321
 20
20.8227152778
 30
0.0
 11
4.5236673638
 21
20.7947447752
 31
0.0
  0
LINE
  5
BE
330
1F
100
AcDbEntity
  8
TRMODEL1
  6
Continuous
 62
     2
100
AcDbLine
 10
4.5236673638
 20
20.7947447752
 30
0.0
 11
4.5466463437
 21
20.7654393996
 31
0.0
  0
LINE
  5
BF
330
1F
100
AcDbEntity
  8
TRMODEL1
  6
Continuous
 62
     2
100
AcDbLine
 10
4.5466463437
 20
20.7654393996
 30
0.0
 11
4.5836152943
 21
20.7420418655
 31
0.0
  0
LINE
  5
C0
330
1F
100
AcDbEntity
  8
TRMODEL1
  6
Continuous
 62
     2
100
AcDbLine
 10
4.5836152943
 20
20.7420418655
 30
0.0
 11
4.6303884756
 21
20.726883942
 31
0.0
  0
LINE
  5
C1
330
1F
100
AcDbEntity
  8
TRMODEL1
  6
Continuous
 62
     2
100
AcDbLine
 10
4.6303884756
 20
20.726883942
 30
0.0
 11
4.6816750591
 21
20.7214060403
 31
0.0
  0
LINE
  5
C2
330
1F
100
AcDbEntity
  8
TRMODEL1
  6
Continuous
 62
     2
100
AcDbLine
 10
4.6816750591
 20
20.7214060403
 30
0.0
 11
4.7316626615
 21
20.7258801023
 31
0.0
  0
LINE
  5
C3
330
1F
100
AcDbEntity
  8
TRMODEL1
  6
Continuous
 62
     2
100
AcDbLine
 10
4.7316626615
 20
20.7258801023
 30
0.0
 11
4.7747018843
 21
20.739546747
 31
0.0
  0
LINE
  5
C4
330
1F
100
AcDbEntity
  8
TRMODEL1
  6
Continuous
 62
     2
100
AcDbLine
 10
4.7747018843
 20
20.739546747
 30
0.0
 11
4.805912113
 21
20.7605035466
 31
0.0
  0
LINE
  5
C5
330
1F
100
AcDbEntity
  8
TRMODEL1
  6
Continuous
 62
     2
100
AcDbLine
 10
4.805912113
 20
20.7605035466
 30
0.0
 11
4.821766123
 21
20.7861149953
 31
0.0
  0
LINE
  5
C6
330
1F
100
AcDbEntity
  8
TRMODEL1
  6
Continuous
 62
     2
100
AcDbLine
 10
4.821766123
 20
20.7861149953
 30
0.0
 11
4.8212138692
 21
20.7976055266
 31
0.0
  0
LINE
  5
C7
330
1F
100
AcDbEntity
  8
TRMODEL1
  6
Continuous
 62
     2
100
AcDbLine
 10
4.5188866441
 20
20.772553937
 30
0.0
 11
4.517819717
 21
20.7634761078
 31
0.0
  0
LINE
  5
C8
330
1F
100
AcDbEntity
  8
TRMODEL1
  6
Continuous
 62
     2
100
AcDbLine
 10
4.517819717
 20
20.7634761078
 30
0.0
 11
4.5312707971
 21
20.7320722956
 31
0.0
  0
LINE
  5
C9
330
1F
100
AcDbEntity
  8
TRMODEL1
  6
Continuous
 62
     2
100
AcDbLine
 10
4.5312707971
 20
20.7320722956
 30
0.0
 11
4.5604539016
 21
20.7048860269
 31
0.0
  0
LINE
  5
CA
330
1F
100
AcDbEntity
  8
TRMODEL1
  6
Continuous
 62
     2
100
AcDbLine
 10
4.5604539016
 20
20.7048860269
 30
0.0
 11
4.602061172
 21
20.6846524027
 31
0.0
  0
LINE
  5
CB
330
1F
100
AcDbEntity
  8
TRMODEL1
  6
Continuous
 62
     2
100
AcDbLine
 10
4.602061172
 20
20.6846524027
 30
0.0
 11
4.6513900406
 21
20.6733998561
 31
0.0
  0
LINE
  5
CC
330
1F
100
AcDbEntity
  8
TRMODEL1
  6
Continuous
 62
     2
100
AcDbLine
 10
4.6513900406
 20
20.6733998561
 30
0.0
 11
4.7028478402
 21
20.6720548536
 31
0.0
  0
LINE
  5
CD
330
1F
100
AcDbEntity
  8
TRMODEL1
  6
Continuous
 62
     2
100
AcDbLine
 10
4.7028478402
 20
20.6720548536
 30
0.0
 11
4.7506178036
 21
20.6805038822
 31
0.0
  0
LINE
  5
CE
330
1F
100
AcDbEntity
  8
TRMODEL1
  6
Continuous
 62
     2
100
AcDbLine
 10
4.7506178036
 20
20.6805038822
 30
0.0
 11
4.7892861956
 21
20.6974557892
 31
0.0
  0
LINE
  5
CF
330
1F
100
AcDbEntity
  8
TRMODEL1
  6
Continuous
 62
     2
100
AcDbLine
 10
4.7892861956
 20
20.6974557892
 30
0.0
 11
4.8144798015
 21
20.7207036397
 31
0.0
  0
LINE
  5
D0
330
1F
100
AcDbEntity
  8
TRMODEL1
  6
Continuous
 62
     2
100
AcDbLine
 10
4.8144798015
 20
20.7207036397
 30
0.0
 11
4.8233452147
 21
20.7473135555
 31
0.0
  0
LINE
  5
D1
330
1F
100
AcDbEntity
  8
TRMODEL1
  6
Continuous
 62
     2
100
AcDbLine
 10
4.8233452147
 20
20.7473135555
 30
0.0
 11
4.8232477404
 21
20.7476202193
 31
0.0
  0
LINE
  5
D2
330
1F
100
AcDbEntity
  8
TRMODEL1
  6
Continuous
 62
     2
100
AcDbLine
 10
4.8155526103
 20
20.7239237212
 30
0.0
 11
4.8170033652
 21
20.7223951067
 31
0.0
  0
LINE
  5
D3
330
1F
100
AcDbEntity
  8
TRMODEL1
  6
Continuous
 62
     2
100
AcDbLine
 10
4.8170033652
 20
20.7223951067
 30
0.0
 11
4.8231611681
 21
20.6955681689
 31
0.0
  0
LINE
  5
D4
330
1F
100
AcDbEntity
  8
TRMODEL1
  6
Continuous
 62
     2
100
AcDbLine
 10
4.8231611681
 20
20.6955681689
 30
0.0
 11
4.8120084326
 21
20.6692227651
 31
0.0
  0
LINE
  5
D5
330
1F
100
AcDbEntity
  8
TRMODEL1
  6
Continuous
 62
     2
100
AcDbLine
 10
4.8120084326
 20
20.6692227651
 30
0.0
 11
4.7848075537
 21
20.6466571912
 31
0.0
  0
LINE
  5
D6
330
1F
100
AcDbEntity
  8
TRMODEL1
  6
Continuous
 62
     2
100
AcDbLine
 10
4.7848075537
 20
20.6466571912
 30
0.0
 11
4.7446380968
 21
20.6307354645
 31
0.0
  0
LINE
  5
D7
330
1F
100
AcDbEntity
  8
TRMODEL1
  6
Continuous
 62
     2
100
AcDbLine
 10
4.7446380968
 20
20.6307354645
 30
0.0
 11
4.696044992
 21
20.6235462275
 31
0.0
  0
LINE
  5
D8
330
1F
100
AcDbEntity
  8
TRMODEL1
  6
Continuous
 62
     2
100
AcDbLine
 10
4.696044992
 20
20.6235462275
 30
0.0
 11
4.6445331985
 21
20.6262369607
 31
0.0
  0
LINE
  5
D9
330
1F
100
AcDbEntity
  8
TRMODEL1
  6
Continuous
 62
     2
100
AcDbLine
 10
4.6445331985
 20
20.6262369607
 30
0.0
 11
4.5959274161
 21
20.6387693542
 31
0.0
  0
LINE
  5
DA
330
1F
100
AcDbEntity
  8
TRMODEL1
  6
Continuous
 62
     2
100
AcDbLine
 10
4.5959274161
 20
20.6387693542
 30
0.0
 11
4.5557369807
 21
20.6600714115
 31
0.0
  0
LINE
  5
DB
330
1F
100
AcDbEntity
  8
TRMODEL1
  6
Continuous
 62
     2
100
AcDbLine
 10
4.5557369807
 20
20.6600714115
 30
0.0
 11
4.5285045986
 21
20.6879974913
 31
0.0
  0
LINE
  5
DC
330
1F
100
AcDbEntity
  8
TRMODEL1
  6
Continuous
 62
     2
100
AcDbLine
 10
4.5285045986
 20
20.6879974913
 30
0.0
 11
4.5173175326
 21
20.7197202557
 31
0.0
  0
LINE
  5
DD
330
1F
100
AcDbEntity
  8
TRMODEL1
  6
Continuous
 62
     2
100
AcDbLine
 10
4.5173175326
 20
20.7197202557
 30
0.0
 11
4.5232317732
 21
20.750840751
 31
0.0
  0
LINE
  5
DE
330
1F
100
AcDbEntity
  8
TRMODEL1
  6
Continuous
 62
     2
100
AcDbLine
 10
8.5886999802
 20
5.4651027223
 30
0.0
 11
8.9134947053
 21
6.0276636882
 31
0.0
  0
LINE
  5
DF
330
1F
100
AcDbEntity
  8
TRMODEL1
  6
Continuous
 62
     2
100
AcDbLine
 10
8.5886999802
 20
5.7151027223
 30
0.0
 11
8.9134947053
 21
6.2776636882
 31
0.0
  0
LINE
  5
E0
330
1F
100
AcDbEntity
  8
TRDETAIL3
  6
CENTER
 62
     1
100
AcDbLine
 10
4.6719706691
 20
6.7467976264
 30
0.0
 11
4.6719706691
 21
5.4800468312
 31
0.0
  0
LINE
  5
E1
330
1F
100
AcDbEntity
  8
TRMODEL1
  6
Continuous
 62
     4
100
AcDbLine
 10
8.5886999802
 20
8.3834197824
 30
0.0
 11
8.5886999802
 21
1.3822818531
 31
0.0
  0
LINE
  5
E2
330
1F
100
AcDbEntity
  8
TRMODEL1
  6
Continuous
 62
     4
100
AcDbLine
 10
8.9134947052
 20
1.5697818569
 30
0.0
 11
8.9134947052
 21
8.5709197862
 31
0.0
  0
LINE
  5
E3
330
1F
100
AcDbEntity
  8
TRMODEL1
  6
Continuous
 62
     2
100
AcDbLine
 10
7.0271187751
 20
0.0103647349
 30
0.0
 11
7.3262408705
 21
0.5284594018
 31
0.0
  0
LINE
  5
E4
330
1F
100
AcDbEntity
  8
TRMODEL1
  6
Continuous
 62
     4
100
AcDbLine
 10
8.4804350718
 20
1.1947615316
 30
0.0
 11
7.0729912631
 21
0.3822615154
 31
0.0
  0
LINE
  5
E5
330
1F
100
AcDbEntity
  8
TRMODEL1
  6
Continuous
 62
     4
100
AcDbLine
 10
7.0729912631
 20
0.0072005549
 30
0.0
 11
8.4804350718
 21
0.8197005711
 31
0.0
  0
LINE
  5
E6
330
1F
100
AcDbEntity
  8
TRMODEL1
  6
Continuous
 62
     2
100
AcDbLine
 10
7.0188588089
 20
0.2460580538
 30
0.0
 11
7.1097462484
 21
0.4034797168
 31
0.0
  0
LINE
  5
E7
330
1F
100
AcDbEntity
  8
TRMODEL1
  6
Continuous
 62
     4
100
AcDbLine
 10
7.0188588089
 20
0.2885013547
 30
0.0
 11
7.0188588089
 21
0.0384607144
 31
0.0
  0
LINE
  5
E8
330
1F
100
AcDbEntity
  8
TRMODEL1
  6
Continuous
 62
     4
100
AcDbLine
 10
7.0188588089
 20
0.0384607144
 30
0.0
 11
7.0198989488
 21
0.0268660471
 31
0.0
  0
LINE
  5
E9
330
1F
100
AcDbEntity
  8
TRMODEL1
  6
Continuous
 62
     4
100
AcDbLine
 10
7.0198989488
 20
0.0268660471
 30
0.0
 11
7.0229793966
 21
0.0169178764
 31
0.0
  0
LINE
  5
EA
330
1F
100
AcDbEntity
  8
TRMODEL1
  6
Continuous
 62
     4
100
AcDbLine
 10
7.0229793966
 20
0.0169178764
 30
0.0
 11
7.0279817724
 21
0.0089985049
 31
0.0
  0
LINE
  5
EB
330
1F
100
AcDbEntity
  8
TRMODEL1
  6
Continuous
 62
     4
100
AcDbLine
 10
7.0279817724
 20
0.0089985049
 30
0.0
 11
7.0347138388
 21
0.0034122686
 31
0.0
  0
LINE
  5
EC
330
1F
100
AcDbEntity
  8
TRMODEL1
  6
Continuous
 62
     4
100
AcDbLine
 10
7.0347138388
 20
0.0034122686
 30
0.0
 11
7.0429168829
 21
0.0003738463
 31
0.0
  0
LINE
  5
ED
330
1F
100
AcDbEntity
  8
TRMODEL1
  6
Continuous
 62
     4
100
AcDbLine
 10
7.0429168829
 20
0.0003738463
 30
0.0
 11
7.0522756697
 21
0.0
 31
0.0
  0
LINE
  5
EE
330
1F
100
AcDbEntity
  8
TRMODEL1
  6
Continuous
 62
     4
100
AcDbLine
 10
7.0522756697
 20
0.0
 30
0.0
 11
7.0624305452
 21
0.0023050974
 31
0.0
  0
LINE
  5
EF
330
1F
100
AcDbEntity
  8
TRMODEL1
  6
Continuous
 62
     4
100
AcDbLine
 10
7.0624305452
 20
0.0023050974
 30
0.0
 11
7.0729912631
 21
0.0072005549
 31
0.0
  0
LINE
  5
F0
330
1F
100
AcDbEntity
  8
TRMODEL1
  6
Continuous
 62
     4
100
AcDbLine
 10
7.0729912631
 20
0.3822615154
 30
0.0
 11
7.0624305452
 21
0.3749638275
 31
0.0
  0
LINE
  5
F1
330
1F
100
AcDbEntity
  8
TRMODEL1
  6
Continuous
 62
     4
100
AcDbLine
 10
7.0624305452
 20
0.3749638275
 30
0.0
 11
7.0522756697
 21
0.3655443553
 31
0.0
  0
LINE
  5
F2
330
1F
100
AcDbEntity
  8
TRMODEL1
  6
Continuous
 62
     4
100
AcDbLine
 10
7.0522756697
 20
0.3655443553
 30
0.0
 11
7.0429168829
 21
0.3543650838
 31
0.0
  0
LINE
  5
F3
330
1F
100
AcDbEntity
  8
TRMODEL1
  6
Continuous
 62
     4
100
AcDbLine
 10
7.0429168829
 20
0.3543650838
 30
0.0
 11
7.0347138376
 21
0.341855626
 31
0.0
  0
LINE
  5
F4
330
1F
100
AcDbEntity
  8
TRMODEL1
  6
Continuous
 62
     4
100
AcDbLine
 10
7.0347138376
 20
0.341855626
 30
0.0
 11
7.0279817724
 21
0.3284967136
 31
0.0
  0
LINE
  5
F5
330
1F
100
AcDbEntity
  8
TRMODEL1
  6
Continuous
 62
     4
100
AcDbLine
 10
7.0279817724
 20
0.3284967136
 30
0.0
 11
7.0229793966
 21
0.314801722
 31
0.0
  0
LINE
  5
F6
330
1F
100
AcDbEntity
  8
TRMODEL1
  6
Continuous
 62
     4
100
AcDbLine
 10
7.0229793966
 20
0.314801722
 30
0.0
 11
7.0198989488
 21
0.3012969419
 31
0.0
  0
LINE
  5
F7
330
1F
100
AcDbEntity
  8
TRMODEL1
  6
Continuous
 62
     4
100
AcDbLine
 10
7.0198989488
 20
0.3012969419
 30
0.0
 11
7.0188588089
 21
0.2885013547
 31
0.0
  0
LINE
  5
F8
330
1F
100
AcDbEntity
  8
TRMODEL1
  6
Continuous
 62
     2
100
AcDbLine
 10
8.5886999802
 20
1.7151027223
 30
0.0
 11
8.9134947053
 21
2.2776636882
 31
0.0
  0
LINE
  5
F9
330
1F
100
AcDbEntity
  8
TRMODEL1
  6
Continuous
 62
     2
100
AcDbLine
 10
8.5886999802
 20
1.9651027223
 30
0.0
 11
8.9134947053
 21
2.5276636882
 31
0.0
  0
LINE
  5
FA
330
1F
100
AcDbEntity
  8
TRMODEL1
  6
Continuous
 62
     2
100
AcDbLine
 10
8.5204054573
 20
0.8468131388
 30
0.0
 11
8.9099977499
 21
1.5216067838
 31
0.0
  0
LINE
  5
FB
330
1F
100
AcDbEntity
  8
TRMODEL1
  6
Continuous
 62
     2
100
AcDbLine
 10
8.3004138796
 20
0.7157765489
 30
0.0
 11
8.9134947053
 21
1.7776636882
 31
0.0
  0
LINE
  5
FC
330
1F
100
AcDbEntity
  8
TRMODEL1
  6
Continuous
 62
     2
100
AcDbLine
 10
8.5886999802
 20
1.4651027223
 30
0.0
 11
8.9134947053
 21
2.0276636882
 31
0.0
  0
LINE
  5
FD
330
1F
100
AcDbEntity
  8
TRMODEL1
  6
Continuous
 62
     4
100
AcDbLine
 10
8.4804350718
 20
0.8197005711
 30
0.0
 11
8.555635088
 21
0.8707099748
 31
0.0
  0
LINE
  5
FE
330
1F
100
AcDbEntity
  8
TRMODEL1
  6
Continuous
 62
     4
100
AcDbLine
 10
8.555635088
 20
0.8707099748
 30
0.0
 11
8.6285501898
 21
0.9353642001
 31
0.0
  0
LINE
  5
FF
330
1F
100
AcDbEntity
  8
TRMODEL1
  6
Continuous
 62
     4
100
AcDbLine
 10
8.6285501898
 20
0.9353642001
 30
0.0
 11
8.6969648886
 21
1.0116987613
 31
0.0
  0
LINE
  5
100
330
1F
100
AcDbEntity
  8
TRMODEL1
  6
Continuous
 62
     4
100
AcDbLine
 10
8.6969648886
 20
1.0116987613
 30
0.0
 11
8.7588004385
 21
1.0973942713
 31
0.0
  0
LINE
  5
101
330
1F
100
AcDbEntity
  8
TRMODEL1
  6
Continuous
 62
     4
100
AcDbLine
 10
8.7588004385
 20
1.0973942713
 30
0.0
 11
8.8121779975
 21
1.1898469154
 31
0.0
  0
LINE
  5
102
330
1F
100
AcDbEntity
  8
TRMODEL1
  6
Continuous
 62
     4
100
AcDbLine
 10
8.8121779975
 20
1.1898469154
 30
0.0
 11
8.8554757157
 21
1.2862475668
 31
0.0
  0
LINE
  5
103
330
1F
100
AcDbEntity
  8
TRMODEL1
  6
Continuous
 62
     4
100
AcDbLine
 10
8.8554757157
 20
1.2862475668
 30
0.0
 11
8.8873780137
 21
1.3836671405
 31
0.0
  0
LINE
  5
104
330
1F
100
AcDbEntity
  8
TRMODEL1
  6
Continuous
 62
     4
100
AcDbLine
 10
8.8873780137
 20
1.3836671405
 30
0.0
 11
8.9069155563
 21
1.479145592
 31
0.0
  0
LINE
  5
105
330
1F
100
AcDbEntity
  8
TRMODEL1
  6
Continuous
 62
     4
100
AcDbLine
 10
8.9069155563
 20
1.479145592
 30
0.0
 11
8.9134947052
 21
1.5697818569
 31
0.0
  0
LINE
  5
106
330
1F
100
AcDbEntity
  8
TRMODEL1
  6
Continuous
 62
     2
100
AcDbLine
 10
8.0839192574
 20
0.5907968638
 30
0.0
 11
8.4087139811
 21
1.1533578273
 31
0.0
  0
LINE
  5
107
330
1F
100
AcDbEntity
  8
TRMODEL1
  6
Continuous
 62
     2
100
AcDbLine
 10
7.8674246353
 20
0.4658171788
 30
0.0
 11
8.192219359
 21
1.0283781422
 31
0.0
  0
LINE
  5
108
330
1F
100
AcDbEntity
  8
TRMODEL1
  6
Continuous
 62
     2
100
AcDbLine
 10
7.6509300132
 20
0.3408374937
 30
0.0
 11
7.9757247369
 21
0.9033984571
 31
0.0
  0
LINE
  5
109
330
1F
100
AcDbEntity
  8
TRMODEL1
  6
Continuous
 62
     2
100
AcDbLine
 10
7.4344353911
 20
0.2158578086
 30
0.0
 11
7.7592301147
 21
0.778418772
 31
0.0
  0
LINE
  5
10A
330
1F
100
AcDbEntity
  8
TRMODEL1
  6
Continuous
 62
     2
100
AcDbLine
 10
7.217940769
 20
0.0908781235
 30
0.0
 11
7.5427354926
 21
0.6534390869
 31
0.0
  0
LINE
  5
10B
330
1F
100
AcDbEntity
  8
TRMODEL1
  6
Continuous
 62
     4
100
AcDbLine
 10
8.5886999802
 20
1.3822818531
 30
0.0
 11
8.5866197004
 21
1.3566906785
 31
0.0
  0
LINE
  5
10C
330
1F
100
AcDbEntity
  8
TRMODEL1
  6
Continuous
 62
     4
100
AcDbLine
 10
8.5866197004
 20
1.3566906785
 30
0.0
 11
8.5804588048
 21
1.3296811185
 31
0.0
  0
LINE
  5
10D
330
1F
100
AcDbEntity
  8
TRMODEL1
  6
Continuous
 62
     4
100
AcDbLine
 10
8.5804588048
 20
1.3296811185
 30
0.0
 11
8.5704540532
 21
1.3022911352
 31
0.0
  0
LINE
  5
10E
330
1F
100
AcDbEntity
  8
TRMODEL1
  6
Continuous
 62
     4
100
AcDbLine
 10
8.5704540532
 20
1.3022911352
 30
0.0
 11
8.5569899227
 21
1.2755733103
 31
0.0
  0
LINE
  5
10F
330
1F
100
AcDbEntity
  8
TRMODEL1
  6
Continuous
 62
     4
100
AcDbLine
 10
8.5569899227
 20
1.2755733103
 30
0.0
 11
8.5405838322
 21
1.2505543949
 31
0.0
  0
LINE
  5
110
330
1F
100
AcDbEntity
  8
TRMODEL1
  6
Continuous
 62
     4
100
AcDbLine
 10
8.5405838322
 20
1.2505543949
 30
0.0
 11
8.5218662586
 21
1.2281958519
 31
0.0
  0
LINE
  5
111
330
1F
100
AcDbEntity
  8
TRMODEL1
  6
Continuous
 62
     4
100
AcDbLine
 10
8.5218662586
 20
1.2281958519
 30
0.0
 11
8.5015565077
 21
1.2093569074
 31
0.0
  0
LINE
  5
112
330
1F
100
AcDbEntity
  8
TRMODEL1
  6
Continuous
 62
     4
100
AcDbLine
 10
8.5015565077
 20
1.2093569074
 30
0.0
 11
8.4804350718
 21
1.1947615316
 31
0.0
  0
LINE
  5
113
330
1F
100
AcDbEntity
  8
TRMODEL1
  6
Continuous
 62
     2
100
AcDbLine
 10
8.5886999802
 20
2.2151027223
 30
0.0
 11
8.9134947053
 21
2.7776636882
 31
0.0
  0
LINE
  5
114
330
1F
100
AcDbEntity
  8
TRMODEL1
  6
Continuous
 62
     2
100
AcDbLine
 10
8.5886999802
 20
2.4651027223
 30
0.0
 11
8.9134947053
 21
3.0276636882
 31
0.0
  0
LINE
  5
115
330
1F
100
AcDbEntity
  8
TRMODEL1
  6
Continuous
 62
     2
100
AcDbLine
 10
8.5886999802
 20
2.7151027223
 30
0.0
 11
8.9134947053
 21
3.2776636882
 31
0.0
  0
LINE
  5
116
330
1F
100
AcDbEntity
  8
TRMODEL1
  6
Continuous
 62
     2
100
AcDbLine
 10
8.5886999802
 20
2.9651027223
 30
0.0
 11
8.9134947053
 21
3.5276636882
 31
0.0
  0
LINE
  5
117
330
1F
100
AcDbEntity
  8
TRMODEL1
  6
Continuous
 62
     2
100
AcDbLine
 10
8.5886999802
 20
3.2151027223
 30
0.0
 11
8.9134947053
 21
3.7776636882
 31
0.0
  0
LINE
  5
118
330
1F
100
AcDbEntity
  8
TRMODEL1
  6
Continuous
 62
     2
100
AcDbLine
 10
8.5886999802
 20
3.4651027223
 30
0.0
 11
8.9134947053
 21
4.0276636882
 31
0.0
  0
LINE
  5
119
330
1F
100
AcDbEntity
  8
TRMODEL1
  6
Continuous
 62
     2
100
AcDbLine
 10
8.5886999802
 20
3.7151027223
 30
0.0
 11
8.9134947053
 21
4.2776636882
 31
0.0
  0
LINE
  5
11A
330
1F
100
AcDbEntity
  8
TRMODEL1
  6
Continuous
 62
     2
100
AcDbLine
 10
8.5886999802
 20
3.9651027223
 30
0.0
 11
8.9134947053
 21
4.5276636882
 31
0.0
  0
LINE
  5
11B
330
1F
100
AcDbEntity
  8
TRMODEL1
  6
Continuous
 62
     2
100
AcDbLine
 10
8.5886999802
 20
4.2151027223
 30
0.0
 11
8.9134947053
 21
4.7776636882
 31
0.0
  0
LINE
  5
11C
330
1F
100
AcDbEntity
  8
TRMODEL1
  6
Continuous
 62
     2
100
AcDbLine
 10
8.5886999802
 20
4.4651027223
 30
0.0
 11
8.9134947053
 21
5.0276636882
 31
0.0
  0
LINE
  5
11D
330
1F
100
AcDbEntity
  8
TRMODEL1
  6
Continuous
 62
     2
100
AcDbLine
 10
8.5886999802
 20
4.7151027223
 30
0.0
 11
8.9134947053
 21
5.2776636882
 31
0.0
  0
LINE
  5
11E
330
1F
100
AcDbEntity
  8
TRMODEL1
  6
Continuous
 62
     2
100
AcDbLine
 10
8.5886999802
 20
4.9651027223
 30
0.0
 11
8.9134947053
 21
5.5276636882
 31
0.0
  0
LINE
  5
11F
330
1F
100
AcDbEntity
  8
TRMODEL1
  6
Continuous
 62
     2
100
AcDbLine
 10
8.5886999802
 20
5.2151027223
 30
0.0
 11
8.9134947053
 21
5.7776636882
 31
0.0
  0
LINE
  5
120
330
1F
100
AcDbEntity
  8
TRMODEL1
  6
Continuous
 62
     2
100
AcDbLine
 10
10.5321000633
 20
10.3567211576
 30
0.0
 11
10.6403473748
 21
10.5442110009
 31
0.0
  0
LINE
  5
121
330
1F
100
AcDbEntity
  8
TRMODEL1
  6
Continuous
 62
     2
100
AcDbLine
 10
10.5321000633
 20
10.6067211576
 30
0.0
 11
10.6403473748
 21
10.7942110009
 31
0.0
  0
LINE
  5
122
330
1F
100
AcDbEntity
  8
TRMODEL1
  6
Continuous
 62
     2
100
AcDbLine
 10
10.5321000633
 20
10.8567211576
 30
0.0
 11
10.6403473748
 21
11.0442110009
 31
0.0
  0
LINE
  5
123
330
1F
100
AcDbEntity
  8
TRMODEL1
  6
Continuous
 62
     2
100
AcDbLine
 10
10.5321000633
 20
11.1067211576
 30
0.0
 11
10.6403473748
 21
11.2942110009
 31
0.0
  0
LINE
  5
124
330
1F
100
AcDbEntity
  8
TRMODEL1
  6
Continuous
 62
     2
100
AcDbLine
 10
10.5321000633
 20
11.3567211576
 30
0.0
 11
10.6403473748
 21
11.5442110009
 31
0.0
  0
LINE
  5
125
330
1F
100
AcDbEntity
  8
TRMODEL1
  6
Continuous
 62
     2
100
AcDbLine
 10
10.5321000633
 20
11.6067211576
 30
0.0
 11
10.6403473748
 21
11.7942110009
 31
0.0
  0
LINE
  5
126
330
1F
100
AcDbEntity
  8
TRMODEL1
  6
Continuous
 62
     2
100
AcDbLine
 10
5.4808885873
 20
9.9969437323
 30
0.0
 11
14.0766855526
 21
9.9969437323
 31
0.0
  0
LINE
  5
127
330
1F
100
AcDbEntity
  8
TRMODEL1
  6
Continuous
 62
     2
100
AcDbLine
 10
8.3326132229
 20
17.1322790716
 30
0.0
 11
10.6499927482
 21
18.4700737957
 31
0.0
  0
LINE
  5
128
330
1F
100
AcDbEntity
  8
TRMODEL1
  6
Continuous
 62
     2
100
AcDbLine
 10
10.4334981251
 20
18.5950534814
 30
0.0
 11
10.6499927482
 21
18.4700737957
 31
0.0
  0
LINE
  5
129
330
1F
100
AcDbEntity
  8
TRMODEL1
  6
Continuous
 62
     2
100
AcDbLine
 10
7.4666347306
 20
13.6328478738
 30
0.0
 11
10.7140540768
 21
15.5075431583
 31
0.0
  0
LINE
  5
12A
330
1F
100
AcDbEntity
  8
TRMODEL1
  6
Continuous
 62
     2
100
AcDbLine
 10
10.0645702075
 20
12.1330916462
 30
0.0
 11
10.6403473748
 21
11.8007025626
 31
0.0
  0
LINE
  5
12B
330
1F
100
AcDbEntity
  8
TRMODEL1
  6
Continuous
 62
     2
100
AcDbLine
 10
10.5321000633
 20
10.2382127198
 30
0.0
 11
10.6403473748
 21
10.3007025626
 31
0.0
  0
LINE
  5
12C
330
1F
100
AcDbEntity
  8
TRMODEL1
  6
Continuous
 62
     2
100
AcDbLine
 10
10.5321000633
 20
11.7382127198
 30
0.0
 11
10.6403473748
 21
11.8007025626
 31
0.0
  0
LINE
  5
12D
330
1F
100
AcDbEntity
  8
TRMODEL1
  6
Continuous
 62
     2
100
AcDbLine
 10
9.6315809614
 20
16.3824009578
 30
0.0
 11
10.7140540768
 21
15.7575025296
 31
0.0
  0
LINE
  5
12E
330
1F
100
AcDbEntity
  8
TRMODEL1
  6
Continuous
 62
     2
100
AcDbLine
 10
8.549107846
 20
13.0079494456
 30
0.0
 11
11.3487254303
 21
14.6241342755
 31
0.0
  0
LINE
  5
12F
330
1F
100
AcDbEntity
  8
TRMODEL1
  6
Continuous
 62
     2
100
AcDbLine
 10
8.7656024691
 20
12.88296976
 30
0.0
 11
11.5652200533
 21
14.4991545899
 31
0.0
  0
LINE
  5
130
330
1F
100
AcDbEntity
  8
TRMODEL1
  6
Continuous
 62
     2
100
AcDbLine
 10
10.0645702075
 20
12.1330916462
 30
0.0
 11
11.7983128841
 21
13.1339599892
 31
0.0
  0
LINE
  5
131
330
1F
100
AcDbEntity
  8
TRMODEL1
  6
Continuous
 62
     2
100
AcDbLine
 10
9.8480755845
 20
12.2580713318
 30
0.0
 11
11.581818261
 21
13.2589396749
 31
0.0
  0
LINE
  5
132
330
1F
100
AcDbEntity
  8
TRMODEL1
  6
Continuous
 62
     2
100
AcDbLine
 10
9.6315809614
 20
16.3824009578
 30
0.0
 11
11.8011680652
 21
17.6348769331
 31
0.0
  0
LINE
  5
133
330
1F
100
AcDbEntity
  8
TRMODEL1
  6
Continuous
 62
     2
100
AcDbLine
 10
9.4150863383
 20
16.5073806434
 30
0.0
 11
11.5846734421
 21
17.7598566187
 31
0.0
  0
LINE
  5
134
330
1F
100
AcDbEntity
  8
TRMODEL1
  6
Continuous
 62
     2
100
AcDbLine
 10
7.4666347306
 20
13.6328478738
 30
0.0
 11
8.549107846
 21
13.0079494456
 31
0.0
  0
LINE
  5
135
330
1F
100
AcDbEntity
  8
TRDETAIL3
  6
CENTER
 62
     1
100
AcDbLine
 10
4.6719706691
 20
14.1200198854
 30
0.0
 11
4.6719706691
 21
10.1563107431
 31
0.0
  0
LINE
  5
136
330
1F
100
AcDbEntity
  8
TRMODEL1
  6
Continuous
 62
     2
100
AcDbLine
 10
7.1107668644
 20
7.6552474755
 30
0.0
 11
7.435561588
 21
8.217808439
 31
0.0
  0
LINE
  5
137
330
1F
100
AcDbEntity
  8
TRMODEL1
  6
Continuous
 62
     2
100
AcDbLine
 10
7.0188588089
 20
7.7460580538
 30
0.0
 11
7.2190669659
 21
8.0928287539
 31
0.0
  0
LINE
  5
138
330
1F
100
AcDbEntity
  8
TRMODEL1
  6
Continuous
 62
     4
100
AcDbLine
 10
7.0729912631
 20
7.6334400851
 30
0.0
 11
8.4804350718
 21
8.4459401013
 31
0.0
  0
LINE
  5
139
330
1F
100
AcDbEntity
  8
TRMODEL1
  6
Continuous
 62
     4
100
AcDbLine
 10
8.4804350718
 20
8.8210010618
 30
0.0
 11
7.0729912631
 21
8.0085010456
 31
0.0
  0
LINE
  5
13A
330
1F
100
AcDbEntity
  8
TRMODEL1
  6
Continuous
 62
     2
100
AcDbLine
 10
4.7071991906
 20
7.2616182573
 30
0.0
 11
4.5738199643
 21
7.2777634655
 31
0.0
  0
LINE
  5
13B
330
1F
100
AcDbEntity
  8
TRMODEL1
  6
Continuous
 62
     2
100
AcDbLine
 10
4.4638458367
 20
6.9749886876
 30
0.0
 11
4.7666534245
 21
6.938334617
 31
0.0
  0
LINE
  5
13C
330
1F
100
AcDbEntity
  8
TRMODEL1
  6
Continuous
 62
     2
100
AcDbLine
 10
4.5497565761
 20
7.1386354471
 30
0.0
 11
4.5685951683
 21
7.1641416012
 31
0.0
  0
LINE
  5
13D
330
1F
100
AcDbEntity
  8
TRMODEL1
  6
Continuous
 62
     2
100
AcDbLine
 10
4.5685951683
 20
7.1641416012
 30
0.0
 11
4.6029077614
 21
7.1835444225
 31
0.0
  0
LINE
  5
13E
330
1F
100
AcDbEntity
  8
TRMODEL1
  6
Continuous
 62
     2
100
AcDbLine
 10
4.6029077614
 20
7.1835444225
 30
0.0
 11
4.6474705743
 21
7.1938900073
 31
0.0
  0
LINE
  5
13F
330
1F
100
AcDbEntity
  8
TRMODEL1
  6
Continuous
 62
     2
100
AcDbLine
 10
4.6474705743
 20
7.1938900073
 30
0.0
 11
4.6954993226
 21
7.1936033341
 31
0.0
  0
LINE
  5
140
330
1F
100
AcDbEntity
  8
TRMODEL1
  6
Continuous
 62
     2
100
AcDbLine
 10
4.6954993226
 20
7.1936033341
 30
0.0
 11
4.7396820647
 21
7.1827280463
 31
0.0
  0
LINE
  5
141
330
1F
100
AcDbEntity
  8
TRMODEL1
  6
Continuous
 62
     2
100
AcDbLine
 10
4.7396820647
 20
7.1827280463
 30
0.0
 11
4.7732923787
 21
7.1629198079
 31
0.0
  0
LINE
  5
142
330
1F
100
AcDbEntity
  8
TRMODEL1
  6
Continuous
 62
     2
100
AcDbLine
 10
4.7732923787
 20
7.1629198079
 30
0.0
 11
4.791213399
 21
7.1371942436
 31
0.0
  0
LINE
  5
143
330
1F
100
AcDbEntity
  8
TRMODEL1
  6
Continuous
 62
     2
100
AcDbLine
 10
4.791213399
 20
7.1371942436
 30
0.0
 11
4.7907168127
 21
7.1094678374
 31
0.0
  0
LINE
  5
144
330
1F
100
AcDbEntity
  8
TRMODEL1
  6
Continuous
 62
     2
100
AcDbLine
 10
4.7907168127
 20
7.1094678374
 30
0.0
 11
4.7718782205
 21
7.0839616833
 31
0.0
  0
LINE
  5
145
330
1F
100
AcDbEntity
  8
TRMODEL1
  6
Continuous
 62
     2
100
AcDbLine
 10
4.7718782205
 20
7.0839616833
 30
0.0
 11
4.7375656274
 21
7.064558862
 31
0.0
  0
LINE
  5
146
330
1F
100
AcDbEntity
  8
TRMODEL1
  6
Continuous
 62
     2
100
AcDbLine
 10
4.7375656274
 20
7.064558862
 30
0.0
 11
4.6930028145
 21
7.0542132772
 31
0.0
  0
LINE
  5
147
330
1F
100
AcDbEntity
  8
TRMODEL1
  6
Continuous
 62
     2
100
AcDbLine
 10
4.6930028145
 20
7.0542132772
 30
0.0
 11
4.6449740662
 21
7.0544999504
 31
0.0
  0
LINE
  5
148
330
1F
100
AcDbEntity
  8
TRMODEL1
  6
Continuous
 62
     2
100
AcDbLine
 10
4.6449740662
 20
7.0544999504
 30
0.0
 11
4.6007913241
 21
7.0653752382
 31
0.0
  0
LINE
  5
149
330
1F
100
AcDbEntity
  8
TRMODEL1
  6
Continuous
 62
     2
100
AcDbLine
 10
4.6007913241
 20
7.0653752382
 30
0.0
 11
4.5671810101
 21
7.0851834766
 31
0.0
  0
LINE
  5
14A
330
1F
100
AcDbEntity
  8
TRMODEL1
  6
Continuous
 62
     2
100
AcDbLine
 10
4.5671810101
 20
7.0851834766
 30
0.0
 11
4.5492599898
 21
7.1109090409
 31
0.0
  0
LINE
  5
14B
330
1F
100
AcDbEntity
  8
TRMODEL1
  6
Continuous
 62
     2
100
AcDbLine
 10
4.5492599898
 20
7.1109090409
 30
0.0
 11
4.5497565761
 21
7.1386354471
 31
0.0
  0
LINE
  5
14C
330
1F
100
AcDbEntity
  8
TRMODEL1
  6
Continuous
 62
     2
100
AcDbLine
 10
4.4342215373
 20
7.1526206629
 30
0.0
 11
4.4563254186
 21
7.188320692
 31
0.0
  0
LINE
  5
14D
330
1F
100
AcDbEntity
  8
TRMODEL1
  6
Continuous
 62
     2
100
AcDbLine
 10
4.4563254186
 20
7.188320692
 30
0.0
 11
4.4942941206
 21
7.2192541796
 31
0.0
  0
LINE
  5
14E
330
1F
100
AcDbEntity
  8
TRMODEL1
  6
Continuous
 62
     2
100
AcDbLine
 10
4.4942941206
 20
7.2192541796
 30
0.0
 11
4.5453116785
 21
7.2431269306
 31
0.0
  0
LINE
  5
14F
330
1F
100
AcDbEntity
  8
TRMODEL1
  6
Continuous
 62
     2
100
AcDbLine
 10
4.5453116785
 20
7.2431269306
 30
0.0
 11
4.6055943533
 21
7.2581684122
 31
0.0
  0
LINE
  5
150
330
1F
100
AcDbEntity
  8
TRMODEL1
  6
Continuous
 62
     2
100
AcDbLine
 10
4.6055943533
 20
7.2581684122
 30
0.0
 11
4.6706712548
 21
7.2632630665
 31
0.0
  0
LINE
  5
151
330
1F
100
AcDbEntity
  8
TRMODEL1
  6
Continuous
 62
     2
100
AcDbLine
 10
4.6706712548
 20
7.2632630665
 30
0.0
 11
4.735715927
 21
7.2580330464
 31
0.0
  0
LINE
  5
152
330
1F
100
AcDbEntity
  8
TRMODEL1
  6
Continuous
 62
     2
100
AcDbLine
 10
4.735715927
 20
7.2580330464
 30
0.0
 11
4.795904304
 21
7.2428662384
 31
0.0
  0
LINE
  5
153
330
1F
100
AcDbEntity
  8
TRMODEL1
  6
Continuous
 62
     2
100
AcDbLine
 10
4.795904304
 20
7.2428662384
 30
0.0
 11
4.8467724893
 21
7.2188874953
 31
0.0
  0
LINE
  5
154
330
1F
100
AcDbEntity
  8
TRMODEL1
  6
Continuous
 62
     2
100
AcDbLine
 10
4.8467724893
 20
7.2188874953
 30
0.0
 11
4.8845478223
 21
7.1878752109
 31
0.0
  0
LINE
  5
155
330
1F
100
AcDbEntity
  8
TRMODEL1
  6
Continuous
 62
     2
100
AcDbLine
 10
4.8845478223
 20
7.1878752109
 30
0.0
 11
4.9064286794
 21
7.1521294243
 31
0.0
  0
LINE
  5
156
330
1F
100
AcDbEntity
  8
TRMODEL1
  6
Continuous
 62
     2
100
AcDbLine
 10
4.9064286794
 20
7.1521294243
 30
0.0
 11
4.9107922574
 21
7.1143012371
 31
0.0
  0
LINE
  5
157
330
1F
100
AcDbEntity
  8
TRMODEL1
  6
Continuous
 62
     2
100
AcDbLine
 10
4.9107922574
 20
7.1143012371
 30
0.0
 11
4.8973149298
 21
7.0771961929
 31
0.0
  0
LINE
  5
158
330
1F
100
AcDbEntity
  8
TRMODEL1
  6
Continuous
 62
     2
100
AcDbLine
 10
4.8973149298
 20
7.0771961929
 30
0.0
 11
4.8669962483
 21
7.043566203
 31
0.0
  0
LINE
  5
159
330
1F
100
AcDbEntity
  8
TRMODEL1
  6
Continuous
 62
     2
100
AcDbLine
 10
4.8669962483
 20
7.043566203
 30
0.0
 11
4.8220848108
 21
7.0159054499
 31
0.0
  0
LINE
  5
15A
330
1F
100
AcDbEntity
  8
TRMODEL1
  6
Continuous
 62
     2
100
AcDbLine
 10
4.8220848108
 20
7.0159054499
 30
0.0
 11
4.7659114932
 21
6.9962654052
 31
0.0
  0
LINE
  5
15B
330
1F
100
AcDbEntity
  8
TRMODEL1
  6
Continuous
 62
     2
100
AcDbLine
 10
4.7659114932
 20
6.9962654052
 30
0.0
 11
4.7026424134
 21
6.986102681
 31
0.0
  0
LINE
  5
15C
330
1F
100
AcDbEntity
  8
TRMODEL1
  6
Continuous
 62
     2
100
AcDbLine
 10
4.7026424134
 20
6.986102681
 30
0.0
 11
4.6369699497
 21
6.9861710003
 31
0.0
  0
LINE
  5
15D
330
1F
100
AcDbEntity
  8
TRMODEL1
  6
Continuous
 62
     2
100
AcDbLine
 10
4.6369699497
 20
6.9861710003
 30
0.0
 11
4.5737647282
 21
6.996465296
 31
0.0
  0
LINE
  5
15E
330
1F
100
AcDbEntity
  8
TRMODEL1
  6
Continuous
 62
     2
100
AcDbLine
 10
4.5737647282
 20
6.996465296
 30
0.0
 11
4.5177143912
 21
7.0162220874
 31
0.0
  0
LINE
  5
15F
330
1F
100
AcDbEntity
  8
TRMODEL1
  6
Continuous
 62
     2
100
AcDbLine
 10
4.5177143912
 20
7.0162220874
 30
0.0
 11
4.4729759356
 21
7.0439761035
 31
0.0
  0
LINE
  5
160
330
1F
100
AcDbEntity
  8
TRMODEL1
  6
Continuous
 62
     2
100
AcDbLine
 10
4.4729759356
 20
7.0439761035
 30
0.0
 11
4.4428674081
 21
7.0776689561
 31
0.0
  0
LINE
  5
161
330
1F
100
AcDbEntity
  8
TRMODEL1
  6
Continuous
 62
     2
100
AcDbLine
 10
4.4428674081
 20
7.0776689561
 30
0.0
 11
4.4296218205
 21
7.1148018002
 31
0.0
  0
LINE
  5
162
330
1F
100
AcDbEntity
  8
TRMODEL1
  6
Continuous
 62
     2
100
AcDbLine
 10
4.4296218205
 20
7.1148018002
 30
0.0
 11
4.4342215373
 21
7.1526206629
 31
0.0
  0
LINE
  5
163
330
1F
100
AcDbEntity
  8
TRMODEL1
  6
Continuous
 62
     2
100
AcDbLine
 10
4.9113844746
 20
7.1080490413
 30
0.0
 11
4.9107922574
 21
7.0982986362
 31
0.0
  0
LINE
  5
164
330
1F
100
AcDbEntity
  8
TRMODEL1
  6
Continuous
 62
     2
100
AcDbLine
 10
4.9107922574
 20
7.0982986362
 30
0.0
 11
4.8973149298
 21
7.0611935919
 31
0.0
  0
LINE
  5
165
330
1F
100
AcDbEntity
  8
TRMODEL1
  6
Continuous
 62
     2
100
AcDbLine
 10
4.8973149298
 20
7.0611935919
 30
0.0
 11
4.8669962483
 21
7.027563602
 31
0.0
  0
LINE
  5
166
330
1F
100
AcDbEntity
  8
TRMODEL1
  6
Continuous
 62
     2
100
AcDbLine
 10
4.8669962483
 20
7.027563602
 30
0.0
 11
4.8220848108
 21
6.9999028489
 31
0.0
  0
LINE
  5
167
330
1F
100
AcDbEntity
  8
TRMODEL1
  6
Continuous
 62
     2
100
AcDbLine
 10
4.8220848108
 20
6.9999028489
 30
0.0
 11
4.7659114932
 21
6.9802628042
 31
0.0
  0
LINE
  5
168
330
1F
100
AcDbEntity
  8
TRMODEL1
  6
Continuous
 62
     2
100
AcDbLine
 10
4.7659114932
 20
6.9802628042
 30
0.0
 11
4.7026424134
 21
6.9701000801
 31
0.0
  0
LINE
  5
169
330
1F
100
AcDbEntity
  8
TRMODEL1
  6
Continuous
 62
     2
100
AcDbLine
 10
4.7026424134
 20
6.9701000801
 30
0.0
 11
4.6369699497
 21
6.9701683993
 31
0.0
  0
LINE
  5
16A
330
1F
100
AcDbEntity
  8
TRMODEL1
  6
Continuous
 62
     2
100
AcDbLine
 10
4.6369699497
 20
6.9701683993
 30
0.0
 11
4.5737647282
 21
6.980462695
 31
0.0
  0
LINE
  5
16B
330
1F
100
AcDbEntity
  8
TRMODEL1
  6
Continuous
 62
     2
100
AcDbLine
 10
4.5737647282
 20
6.980462695
 30
0.0
 11
4.5177143912
 21
7.0002194864
 31
0.0
  0
LINE
  5
16C
330
1F
100
AcDbEntity
  8
TRMODEL1
  6
Continuous
 62
     2
100
AcDbLine
 10
4.5177143912
 20
7.0002194864
 30
0.0
 11
4.4729759356
 21
7.0279735025
 31
0.0
  0
LINE
  5
16D
330
1F
100
AcDbEntity
  8
TRMODEL1
  6
Continuous
 62
     2
100
AcDbLine
 10
4.4729759356
 20
7.0279735025
 30
0.0
 11
4.4428674081
 21
7.0616663551
 31
0.0
  0
LINE
  5
16E
330
1F
100
AcDbEntity
  8
TRMODEL1
  6
Continuous
 62
     2
100
AcDbLine
 10
4.4428674081
 20
7.0616663551
 30
0.0
 11
4.4296218205
 21
7.0987991993
 31
0.0
  0
LINE
  5
16F
330
1F
100
AcDbEntity
  8
TRMODEL1
  6
Continuous
 62
     2
100
AcDbLine
 10
4.4296218205
 20
7.0987991993
 30
0.0
 11
4.4290889142
 21
7.1080490413
 31
0.0
  0
LINE
  5
170
330
1F
100
AcDbEntity
  8
TRMODEL1
  6
Continuous
 62
     2
100
AcDbLine
 10
4.7666534245
 20
6.7471491423
 30
0.0
 11
4.7066263731
 21
6.7446486373
 31
0.0
  0
LINE
  5
171
330
1F
100
AcDbEntity
  8
TRMODEL1
  6
Continuous
 62
     2
100
AcDbLine
 10
4.7066263731
 20
6.7446486373
 30
0.0
 11
4.6058360776
 21
6.7508986113
 31
0.0
  0
LINE
  5
172
330
1F
100
AcDbEntity
  8
TRMODEL1
  6
Continuous
 62
     2
100
AcDbLine
 10
4.6058360776
 20
6.7508986113
 30
0.0
 11
4.5022970635
 21
6.7724272813
 31
0.0
  0
LINE
  5
173
330
1F
100
AcDbEntity
  8
TRMODEL1
  6
Continuous
 62
     2
100
AcDbLine
 10
4.5022970635
 20
6.7724272813
 30
0.0
 11
4.4638458367
 21
6.7838032129
 31
0.0
  0
LINE
  5
174
330
1F
100
AcDbEntity
  8
TRMODEL1
  6
Continuous
 62
     2
100
AcDbLine
 10
4.8328599602
 20
8.1303822512
 30
0.0
 11
4.8305591466
 21
8.1339909413
 31
0.0
  0
LINE
  5
175
330
1F
100
AcDbEntity
  8
TRMODEL1
  6
Continuous
 62
     2
100
AcDbLine
 10
4.8305591466
 20
8.1339909413
 30
0.0
 11
4.8015598797
 21
8.1620858309
 31
0.0
  0
LINE
  5
176
330
1F
100
AcDbEntity
  8
TRMODEL1
  6
Continuous
 62
     2
100
AcDbLine
 10
4.8015598797
 20
8.1620858309
 30
0.0
 11
4.7583297079
 21
8.1832226938
 31
0.0
  0
LINE
  5
177
330
1F
100
AcDbEntity
  8
TRMODEL1
  6
Continuous
 62
     2
100
AcDbLine
 10
4.7583297079
 20
8.1832226938
 30
0.0
 11
4.7055532913
 21
8.1951110231
 31
0.0
  0
LINE
  5
178
330
1F
100
AcDbEntity
  8
TRMODEL1
  6
Continuous
 62
     2
100
AcDbLine
 10
4.7055532913
 20
8.1951110231
 30
0.0
 11
4.6489497733
 21
8.1964625338
 31
0.0
  0
LINE
  5
179
330
1F
100
AcDbEntity
  8
TRMODEL1
  6
Continuous
 62
     2
100
AcDbLine
 10
4.6489497733
 20
8.1964625338
 30
0.0
 11
4.5946530236
 21
8.1871307687
 31
0.0
  0
LINE
  5
17A
330
1F
100
AcDbEntity
  8
TRMODEL1
  6
Continuous
 62
     2
100
AcDbLine
 10
4.5946530236
 20
8.1871307687
 30
0.0
 11
4.5485469374
 21
8.1681269694
 31
0.0
  0
LINE
  5
17B
330
1F
100
AcDbEntity
  8
TRMODEL1
  6
Continuous
 62
     2
100
AcDbLine
 10
4.5485469374
 20
8.2331375359
 30
0.0
 11
4.5156278246
 21
8.2065210589
 31
0.0
  0
LINE
  5
17C
330
1F
100
AcDbEntity
  8
TRMODEL1
  6
Continuous
 62
     2
100
AcDbLine
 10
4.5156278246
 20
8.2065210589
 30
0.0
 11
4.4994629818
 21
8.1751762124
 31
0.0
  0
LINE
  5
17D
330
1F
100
AcDbEntity
  8
TRMODEL1
  6
Continuous
 62
     2
100
AcDbLine
 10
4.4994629818
 20
8.1751762124
 30
0.0
 11
4.5018041206
 21
8.1424996971
 31
0.0
  0
LINE
  5
17E
330
1F
100
AcDbEntity
  8
TRMODEL1
  6
Continuous
 62
     2
100
AcDbLine
 10
4.5018041206
 20
8.1424996971
 30
0.0
 11
4.5223975423
 21
8.1120325202
 31
0.0
  0
LINE
  5
17F
330
1F
100
AcDbEntity
  8
TRMODEL1
  6
Continuous
 62
     2
100
AcDbLine
 10
4.5223975423
 20
8.1120325202
 30
0.0
 11
4.5590116301
 21
8.0870762733
 31
0.0
  0
LINE
  5
180
330
1F
100
AcDbEntity
  8
TRMODEL1
  6
Continuous
 62
     2
100
AcDbLine
 10
4.5590116301
 20
8.0870762733
 30
0.0
 11
4.6076786794
 21
8.0703353528
 31
0.0
  0
LINE
  5
181
330
1F
100
AcDbEntity
  8
TRMODEL1
  6
Continuous
 62
     2
100
AcDbLine
 10
4.6076786794
 20
8.0703353528
 30
0.0
 11
4.6631248604
 21
8.0636238973
 31
0.0
  0
LINE
  5
182
330
1F
100
AcDbEntity
  8
TRMODEL1
  6
Continuous
 62
     2
100
AcDbLine
 10
4.6631248604
 20
8.0636238973
 30
0.0
 11
4.7193417189
 21
8.0676691972
 31
0.0
  0
LINE
  5
183
330
1F
100
AcDbEntity
  8
TRMODEL1
  6
Continuous
 62
     2
100
AcDbLine
 10
4.7193417189
 20
8.0676691972
 30
0.0
 11
4.770237286
 21
8.0820328813
 31
0.0
  0
LINE
  5
184
330
1F
100
AcDbEntity
  8
TRMODEL1
  6
Continuous
 62
     2
100
AcDbLine
 10
4.770237286
 20
8.0820328813
 30
0.0
 11
4.8102962374
 21
8.1051584217
 31
0.0
  0
LINE
  5
185
330
1F
100
AcDbEntity
  8
TRMODEL1
  6
Continuous
 62
     2
100
AcDbLine
 10
4.8102962374
 20
8.1051584217
 30
0.0
 11
4.8351775641
 21
8.1345398072
 31
0.0
  0
LINE
  5
186
330
1F
100
AcDbEntity
  8
TRMODEL1
  6
Continuous
 62
     2
100
AcDbLine
 10
4.8351775641
 20
8.1345398072
 30
0.0
 11
4.8421849882
 21
8.1669931089
 31
0.0
  0
LINE
  5
187
330
1F
100
AcDbEntity
  8
TRMODEL1
  6
Continuous
 62
     2
100
AcDbLine
 10
4.8421849882
 20
8.1669931089
 30
0.0
 11
4.8305591466
 21
8.1990015078
 31
0.0
  0
LINE
  5
188
330
1F
100
AcDbEntity
  8
TRMODEL1
  6
Continuous
 62
     2
100
AcDbLine
 10
4.8305591466
 20
8.1990015078
 30
0.0
 11
4.8015598797
 21
8.2270963974
 31
0.0
  0
LINE
  5
189
330
1F
100
AcDbEntity
  8
TRMODEL1
  6
Continuous
 62
     2
100
AcDbLine
 10
4.8015598797
 20
8.2270963974
 30
0.0
 11
4.7583297079
 21
8.2482332603
 31
0.0
  0
LINE
  5
18A
330
1F
100
AcDbEntity
  8
TRMODEL1
  6
Continuous
 62
     2
100
AcDbLine
 10
4.7583297079
 20
8.2482332603
 30
0.0
 11
4.7055532913
 21
8.2601215896
 31
0.0
  0
LINE
  5
18B
330
1F
100
AcDbEntity
  8
TRMODEL1
  6
Continuous
 62
     2
100
AcDbLine
 10
4.7055532913
 20
8.2601215896
 30
0.0
 11
4.6489497733
 21
8.2614731003
 31
0.0
  0
LINE
  5
18C
330
1F
100
AcDbEntity
  8
TRMODEL1
  6
Continuous
 62
     2
100
AcDbLine
 10
4.6489497733
 20
8.2614731003
 30
0.0
 11
4.5946530236
 21
8.2521413352
 31
0.0
  0
LINE
  5
18D
330
1F
100
AcDbEntity
  8
TRMODEL1
  6
Continuous
 62
     2
100
AcDbLine
 10
4.5946530236
 20
8.2521413352
 30
0.0
 11
4.5485469374
 21
8.2331375359
 31
0.0
  0
LINE
  5
18E
330
1F
100
AcDbEntity
  8
TRMODEL1
  6
Continuous
 62
     2
100
AcDbLine
 10
4.3995744235
 20
8.3191375376
 30
0.0
 11
4.3477179694
 21
8.2818953674
 31
0.0
  0
LINE
  5
18F
330
1F
100
AcDbEntity
  8
TRMODEL1
  6
Continuous
 62
     2
100
AcDbLine
 10
4.3477179694
 20
8.2818953674
 30
0.0
 11
4.3109421325
 21
8.2390885232
 31
0.0
  0
LINE
  5
190
330
1F
100
AcDbEntity
  8
TRMODEL1
  6
Continuous
 62
     2
100
AcDbLine
 10
4.3109421325
 20
8.2390885232
 30
0.0
 11
4.29096651
 21
8.1927186055
 31
0.0
  0
LINE
  5
191
330
1F
100
AcDbEntity
  8
TRMODEL1
  6
Continuous
 62
     2
100
AcDbLine
 10
4.29096651
 20
8.1927186055
 30
0.0
 11
4.2887251398
 21
8.14495382
 31
0.0
  0
LINE
  5
192
330
1F
100
AcDbEntity
  8
TRMODEL1
  6
Continuous
 62
     2
100
AcDbLine
 10
4.2887251398
 20
8.14495382
 30
0.0
 11
4.3043228258
 21
8.0980275951
 31
0.0
  0
LINE
  5
193
330
1F
100
AcDbEntity
  8
TRMODEL1
  6
Continuous
 62
     2
100
AcDbLine
 10
4.3043228258
 20
8.0980275951
 30
0.0
 11
4.3370302376
 21
8.0541341489
 31
0.0
  0
LINE
  5
194
330
1F
100
AcDbEntity
  8
TRMODEL1
  6
Continuous
 62
     2
100
AcDbLine
 10
4.3370302376
 20
8.0541341489
 30
0.0
 11
4.3853180131
 21
8.0153258901
 31
0.0
  0
LINE
  5
195
330
1F
100
AcDbEntity
  8
TRMODEL1
  6
Continuous
 62
     2
100
AcDbLine
 10
4.3853180131
 20
8.0153258901
 30
0.0
 11
4.4469282694
 21
7.9834174498
 31
0.0
  0
LINE
  5
196
330
1F
100
AcDbEntity
  8
TRMODEL1
  6
Continuous
 62
     2
100
AcDbLine
 10
4.4469282694
 20
7.9834174498
 30
0.0
 11
4.5189801795
 21
7.9599008312
 31
0.0
  0
LINE
  5
197
330
1F
100
AcDbEntity
  8
TRMODEL1
  6
Continuous
 62
     2
100
AcDbLine
 10
4.5189801795
 20
7.9599008312
 30
0.0
 11
4.5981046761
 21
7.9458756452
 31
0.0
  0
LINE
  5
198
330
1F
100
AcDbEntity
  8
TRMODEL1
  6
Continuous
 62
     2
100
AcDbLine
 10
4.5981046761
 20
7.9458756452
 30
0.0
 11
4.6806019857
 21
7.941997694
 31
0.0
  0
LINE
  5
199
330
1F
100
AcDbEntity
  8
TRMODEL1
  6
Continuous
 62
     2
100
AcDbLine
 10
4.6806019857
 20
7.941997694
 30
0.0
 11
4.7626146258
 21
7.9484483062
 31
0.0
  0
LINE
  5
19A
330
1F
100
AcDbEntity
  8
TRMODEL1
  6
Continuous
 62
     2
100
AcDbLine
 10
4.7626146258
 20
7.9484483062
 30
0.0
 11
4.8403077765
 21
7.9649258584
 31
0.0
  0
LINE
  5
19B
330
1F
100
AcDbEntity
  8
TRMODEL1
  6
Continuous
 62
     2
100
AcDbLine
 10
4.8403077765
 20
7.9649258584
 30
0.0
 11
4.9100485924
 21
7.9906598786
 31
0.0
  0
LINE
  5
19C
330
1F
100
AcDbEntity
  8
TRMODEL1
  6
Continuous
 62
     2
100
AcDbLine
 10
4.9100485924
 20
7.9906598786
 30
0.0
 11
4.9685760705
 21
8.0244470725
 31
0.0
  0
LINE
  5
19D
330
1F
100
AcDbEntity
  8
TRMODEL1
  6
Continuous
 62
     2
100
AcDbLine
 10
4.9685760705
 20
8.0244470725
 30
0.0
 11
5.013153531
 21
8.0647075886
 31
0.0
  0
LINE
  5
19E
330
1F
100
AcDbEntity
  8
TRMODEL1
  6
Continuous
 62
     2
100
AcDbLine
 10
5.013153531
 20
8.0647075886
 30
0.0
 11
5.0416965813
 21
8.1095588898
 31
0.0
  0
LINE
  5
19F
330
1F
100
AcDbEntity
  8
TRMODEL1
  6
Continuous
 62
     2
100
AcDbLine
 10
5.0416965813
 20
8.1095588898
 30
0.0
 11
5.0528705802
 21
8.1569037792
 31
0.0
  0
LINE
  5
1A0
330
1F
100
AcDbEntity
  8
TRMODEL1
  6
Continuous
 62
     2
100
AcDbLine
 10
5.0528705802
 20
8.1569037792
 30
0.0
 11
5.0461530438
 21
8.2045284623
 31
0.0
  0
LINE
  5
1A1
330
1F
100
AcDbEntity
  8
TRMODEL1
  6
Continuous
 62
     2
100
AcDbLine
 10
5.0461530438
 20
8.2045284623
 30
0.0
 11
5.0218580767
 21
8.2502060619
 31
0.0
  0
LINE
  5
1A2
330
1F
100
AcDbEntity
  8
TRMODEL1
  6
Continuous
 62
     2
100
AcDbLine
 10
5.0218580767
 20
8.2502060619
 30
0.0
 11
4.9811216846
 21
8.2918007442
 31
0.0
  0
LINE
  5
1A3
330
1F
100
AcDbEntity
  8
TRMODEL1
  6
Continuous
 62
     2
100
AcDbLine
 10
4.9811216846
 20
8.2918007442
 30
0.0
 11
4.9258486558
 21
8.3273675881
 31
0.0
  0
LINE
  5
1A4
330
1F
100
AcDbEntity
  8
TRMODEL1
  6
Continuous
 62
     2
100
AcDbLine
 10
4.9258486558
 20
8.3273675881
 30
0.0
 11
4.8586234959
 21
8.3552435275
 31
0.0
  0
LINE
  5
1A5
330
1F
100
AcDbEntity
  8
TRMODEL1
  6
Continuous
 62
     2
100
AcDbLine
 10
4.8586234959
 20
8.3552435275
 30
0.0
 11
4.7825895785
 21
8.3741251145
 31
0.0
  0
LINE
  5
1A6
330
1F
100
AcDbEntity
  8
TRMODEL1
  6
Continuous
 62
     2
100
AcDbLine
 10
4.7825895785
 20
8.3741251145
 30
0.0
 11
4.701302165
 21
8.383129467
 31
0.0
  0
LINE
  5
1A7
330
1F
100
AcDbEntity
  8
TRMODEL1
  6
Continuous
 62
     2
100
AcDbLine
 10
4.701302165
 20
8.383129467
 30
0.0
 11
4.6185621648
 21
8.3818355515
 31
0.0
  0
LINE
  5
1A8
330
1F
100
AcDbEntity
  8
TRMODEL1
  6
Continuous
 62
     2
100
AcDbLine
 10
4.6185621648
 20
8.3818355515
 30
0.0
 11
4.538238408
 21
8.3703038701
 31
0.0
  0
LINE
  5
1A9
330
1F
100
AcDbEntity
  8
TRMODEL1
  6
Continuous
 62
     2
100
AcDbLine
 10
4.538238408
 20
8.3703038701
 30
0.0
 11
4.4640867445
 21
8.3490736313
 31
0.0
  0
LINE
  5
1AA
330
1F
100
AcDbEntity
  8
TRMODEL1
  6
Continuous
 62
     2
100
AcDbLine
 10
4.4640867445
 20
8.3490736313
 30
0.0
 11
4.3995744235
 21
8.3191375376
 31
0.0
  0
LINE
  5
1AB
330
1F
100
AcDbEntity
  8
TRMODEL1
  6
Continuous
 62
     2
100
AcDbLine
 10
4.28746244
 20
8.097876968
 30
0.0
 11
4.2887251398
 21
8.0799432535
 31
0.0
  0
LINE
  5
1AC
330
1F
100
AcDbEntity
  8
TRMODEL1
  6
Continuous
 62
     2
100
AcDbLine
 10
4.2887251398
 20
8.0799432535
 30
0.0
 11
4.3043228258
 21
8.0330170286
 31
0.0
  0
LINE
  5
1AD
330
1F
100
AcDbEntity
  8
TRMODEL1
  6
Continuous
 62
     2
100
AcDbLine
 10
4.3043228258
 20
8.0330170286
 30
0.0
 11
4.3370302376
 21
7.9891235824
 31
0.0
  0
LINE
  5
1AE
330
1F
100
AcDbEntity
  8
TRMODEL1
  6
Continuous
 62
     2
100
AcDbLine
 10
4.3370302376
 20
7.9891235824
 30
0.0
 11
4.3853180131
 21
7.9503153236
 31
0.0
  0
LINE
  5
1AF
330
1F
100
AcDbEntity
  8
TRMODEL1
  6
Continuous
 62
     2
100
AcDbLine
 10
4.3853180131
 20
7.9503153236
 30
0.0
 11
4.4469282694
 21
7.9184068833
 31
0.0
  0
LINE
  5
1B0
330
1F
100
AcDbEntity
  8
TRMODEL1
  6
Continuous
 62
     2
100
AcDbLine
 10
4.4469282694
 20
7.9184068833
 30
0.0
 11
4.5189801795
 21
7.8948902647
 31
0.0
  0
LINE
  5
1B1
330
1F
100
AcDbEntity
  8
TRMODEL1
  6
Continuous
 62
     2
100
AcDbLine
 10
4.5189801795
 20
7.8948902647
 30
0.0
 11
4.5981046761
 21
7.8808650787
 31
0.0
  0
LINE
  5
1B2
330
1F
100
AcDbEntity
  8
TRMODEL1
  6
Continuous
 62
     2
100
AcDbLine
 10
4.5981046761
 20
7.8808650787
 30
0.0
 11
4.6806019857
 21
7.8769871275
 31
0.0
  0
LINE
  5
1B3
330
1F
100
AcDbEntity
  8
TRMODEL1
  6
Continuous
 62
     2
100
AcDbLine
 10
4.6806019857
 20
7.8769871275
 30
0.0
 11
4.7626146258
 21
7.8834377397
 31
0.0
  0
LINE
  5
1B4
330
1F
100
AcDbEntity
  8
TRMODEL1
  6
Continuous
 62
     2
100
AcDbLine
 10
4.7626146258
 20
7.8834377397
 30
0.0
 11
4.8403077765
 21
7.8999152919
 31
0.0
  0
LINE
  5
1B5
330
1F
100
AcDbEntity
  8
TRMODEL1
  6
Continuous
 62
     2
100
AcDbLine
 10
4.8403077765
 20
7.8999152919
 30
0.0
 11
4.9100485924
 21
7.9256493121
 31
0.0
  0
LINE
  5
1B6
330
1F
100
AcDbEntity
  8
TRMODEL1
  6
Continuous
 62
     2
100
AcDbLine
 10
4.9100485924
 20
7.9256493121
 30
0.0
 11
4.9685760705
 21
7.959436506
 31
0.0
  0
LINE
  5
1B7
330
1F
100
AcDbEntity
  8
TRMODEL1
  6
Continuous
 62
     2
100
AcDbLine
 10
4.9685760705
 20
7.959436506
 30
0.0
 11
5.013153531
 21
7.9996970221
 31
0.0
  0
LINE
  5
1B8
330
1F
100
AcDbEntity
  8
TRMODEL1
  6
Continuous
 62
     2
100
AcDbLine
 10
5.013153531
 20
7.9996970221
 30
0.0
 11
5.0416965813
 21
8.0445483233
 31
0.0
  0
LINE
  5
1B9
330
1F
100
AcDbEntity
  8
TRMODEL1
  6
Continuous
 62
     2
100
AcDbLine
 10
5.0416965813
 20
8.0445483233
 30
0.0
 11
5.0528705802
 21
8.0918932127
 31
0.0
  0
LINE
  5
1BA
330
1F
100
AcDbEntity
  8
TRMODEL1
  6
Continuous
 62
     2
100
AcDbLine
 10
5.0528705802
 20
8.0918932127
 30
0.0
 11
5.0530109488
 21
8.097876968
 31
0.0
  0
LINE
  5
1BB
330
1F
100
AcDbEntity
  8
TRMODEL1
  6
Continuous
 62
     2
100
AcDbLine
 10
4.3674291066
 20
6.9535176372
 30
0.0
 11
4.3674291066
 21
7.1447031118
 31
0.0
  0
LINE
  5
1BC
330
1F
100
AcDbEntity
  8
TRMODEL1
  6
Continuous
 62
     2
100
AcDbLine
 10
4.3674291066
 20
7.1447031118
 30
0.0
 11
4.4638458367
 21
6.9749886876
 31
0.0
  0
LINE
  5
1BD
330
1F
100
AcDbEntity
  8
TRMODEL1
  6
Continuous
 62
     2
100
AcDbLine
 10
4.5738199643
 20
7.2777634655
 30
0.0
 11
4.3674291066
 21
7.1447031118
 31
0.0
  0
LINE
  5
1BE
330
1F
100
AcDbEntity
  8
TRMODEL1
  6
Continuous
 62
     2
100
AcDbLine
 10
4.4638458367
 20
6.7838032129
 30
0.0
 11
4.4638458367
 21
6.9749886876
 31
0.0
  0
LINE
  5
1BF
330
1F
100
AcDbEntity
  8
TRMODEL1
  6
Continuous
 62
     2
100
AcDbLine
 10
4.4290889142
 20
7.1080490413
 30
0.0
 11
4.4290889142
 21
7.1240516423
 31
0.0
  0
LINE
  5
1C0
330
1F
100
AcDbEntity
  8
TRMODEL1
  6
Continuous
 62
     2
100
AcDbLine
 10
4.28746244
 20
8.097876968
 30
0.0
 11
4.28746244
 21
8.1628875345
 31
0.0
  0
LINE
  5
1C1
330
1F
100
AcDbEntity
  8
TRMODEL1
  6
Continuous
 62
     2
100
AcDbLine
 10
4.4638458367
 20
6.7838032129
 30
0.0
 11
4.4292698786
 21
6.830232409
 31
0.0
  0
LINE
  5
1C2
330
1F
100
AcDbEntity
  8
TRMODEL1
  6
Continuous
 62
     2
100
AcDbLine
 10
4.4292698786
 20
6.830232409
 30
0.0
 11
4.3932080957
 21
6.895974834
 31
0.0
  0
LINE
  5
1C3
330
1F
100
AcDbEntity
  8
TRMODEL1
  6
Continuous
 62
     2
100
AcDbLine
 10
4.3932080957
 20
6.895974834
 30
0.0
 11
4.3674291066
 21
6.9535176372
 31
0.0
  0
LINE
  5
1C4
330
1F
100
AcDbEntity
  8
TRMODEL1
  6
Continuous
 62
     2
100
AcDbLine
 10
4.5485469374
 20
8.1681269694
 30
0.0
 11
4.5156278246
 21
8.1415104924
 31
0.0
  0
LINE
  5
1C5
330
1F
100
AcDbEntity
  8
TRMODEL1
  6
Continuous
 62
     2
100
AcDbLine
 10
4.5156278246
 20
8.1415104924
 30
0.0
 11
4.5076134286
 21
8.1303822512
 31
0.0
  0
LINE
  5
1C6
330
1F
100
AcDbEntity
  8
TRDETAIL3
  6
CENTER
 62
     1
100
AcDbLine
 10
4.6719706691
 20
7.8773928598
 30
0.0
 11
4.6719706691
 21
7.0543388135
 31
0.0
  0
LINE
  5
1C7
330
1F
100
AcDbEntity
  8
TRDETAIL3
  6
CENTER
 62
     1
100
AcDbLine
 10
4.6719706691
 20
9.3407046448
 30
0.0
 11
4.6719706691
 21
8.0642604315
 31
0.0
  0
LINE
  5
1C8
330
1F
100
AcDbEntity
  8
TRMODEL1
  6
Continuous
 62
     2
100
AcDbLine
 10
4.9730442822
 20
6.880209496
 30
0.0
 11
4.9730442822
 21
7.0713949707
 31
0.0
  0
LINE
  5
1C9
330
1F
100
AcDbEntity
  8
TRMODEL1
  6
Continuous
 62
     2
100
AcDbLine
 10
4.8766275521
 20
7.241109395
 30
0.0
 11
4.7321129557
 21
7.2586025108
 31
0.0
  0
LINE
  5
1CA
330
1F
100
AcDbEntity
  8
TRMODEL1
  6
Continuous
 62
     2
100
AcDbLine
 10
4.9730442822
 20
7.0713949707
 30
0.0
 11
4.8766275521
 21
7.241109395
 31
0.0
  0
LINE
  5
1CB
330
1F
100
AcDbEntity
  8
TRMODEL1
  6
Continuous
 62
     2
100
AcDbLine
 10
4.7666534245
 20
6.938334617
 30
0.0
 11
4.9730442822
 21
7.0713949707
 31
0.0
  0
LINE
  5
1CC
330
1F
100
AcDbEntity
  8
TRMODEL1
  6
Continuous
 62
     2
100
AcDbLine
 10
4.7666534245
 20
6.7471491423
 30
0.0
 11
4.7666534245
 21
6.938334617
 31
0.0
  0
LINE
  5
1CD
330
1F
100
AcDbEntity
  8
TRMODEL1
  6
Continuous
 62
     2
100
AcDbLine
 10
4.9113844746
 20
7.1240516423
 30
0.0
 11
4.9113844746
 21
7.1080490413
 31
0.0
  0
LINE
  5
1CE
330
1F
100
AcDbEntity
  8
TRMODEL1
  6
Continuous
 62
     2
100
AcDbLine
 10
5.0530109488
 20
8.1628875345
 30
0.0
 11
5.0530109488
 21
8.097876968
 31
0.0
  0
LINE
  5
1CF
330
1F
100
AcDbEntity
  8
TRMODEL1
  6
Continuous
 62
     2
100
AcDbLine
 10
4.9730442822
 20
6.880209496
 30
0.0
 11
4.899030554
 21
6.8180607717
 31
0.0
  0
LINE
  5
1D0
330
1F
100
AcDbEntity
  8
TRMODEL1
  6
Continuous
 62
     2
100
AcDbLine
 10
4.899030554
 20
6.8180607717
 30
0.0
 11
4.8218362507
 21
6.7705593821
 31
0.0
  0
LINE
  5
1D1
330
1F
100
AcDbEntity
  8
TRMODEL1
  6
Continuous
 62
     2
100
AcDbLine
 10
4.8218362507
 20
6.7705593821
 30
0.0
 11
4.7666534245
 21
6.7471491423
 31
0.0
  0
LINE
  5
1D2
330
1F
100
AcDbEntity
  8
TRMODEL1
  6
Continuous
 62
     4
100
AcDbLine
 10
7.0188588089
 20
7.9147408849
 30
0.0
 11
7.0188588089
 21
7.6647002445
 31
0.0
  0
LINE
  5
1D3
330
1F
100
AcDbEntity
  8
TRMODEL1
  6
Continuous
 62
     4
100
AcDbLine
 10
7.0729912631
 20
8.0085010456
 30
0.0
 11
7.0624305452
 21
8.0012033577
 31
0.0
  0
LINE
  5
1D4
330
1F
100
AcDbEntity
  8
TRMODEL1
  6
Continuous
 62
     4
100
AcDbLine
 10
7.0624305452
 20
8.0012033577
 30
0.0
 11
7.0522756697
 21
7.9917838855
 31
0.0
  0
LINE
  5
1D5
330
1F
100
AcDbEntity
  8
TRMODEL1
  6
Continuous
 62
     4
100
AcDbLine
 10
7.0522756697
 20
7.9917838855
 30
0.0
 11
7.0429168829
 21
7.9806046139
 31
0.0
  0
LINE
  5
1D6
330
1F
100
AcDbEntity
  8
TRMODEL1
  6
Continuous
 62
     4
100
AcDbLine
 10
7.0429168829
 20
7.9806046139
 30
0.0
 11
7.0347138376
 21
7.9680951562
 31
0.0
  0
LINE
  5
1D7
330
1F
100
AcDbEntity
  8
TRMODEL1
  6
Continuous
 62
     4
100
AcDbLine
 10
7.0347138376
 20
7.9680951562
 30
0.0
 11
7.0279817724
 21
7.9547362438
 31
0.0
  0
LINE
  5
1D8
330
1F
100
AcDbEntity
  8
TRMODEL1
  6
Continuous
 62
     4
100
AcDbLine
 10
7.0279817724
 20
7.9547362438
 30
0.0
 11
7.0229793966
 21
7.9410412522
 31
0.0
  0
LINE
  5
1D9
330
1F
100
AcDbEntity
  8
TRMODEL1
  6
Continuous
 62
     4
100
AcDbLine
 10
7.0229793966
 20
7.9410412522
 30
0.0
 11
7.0198989488
 21
7.9275364721
 31
0.0
  0
LINE
  5
1DA
330
1F
100
AcDbEntity
  8
TRMODEL1
  6
Continuous
 62
     4
100
AcDbLine
 10
7.0198989488
 20
7.9275364721
 30
0.0
 11
7.0188588089
 21
7.9147408849
 31
0.0
  0
LINE
  5
1DB
330
1F
100
AcDbEntity
  8
TRMODEL1
  6
Continuous
 62
     4
100
AcDbLine
 10
7.0188588089
 20
7.6647002445
 30
0.0
 11
7.0198989488
 21
7.6531055773
 31
0.0
  0
LINE
  5
1DC
330
1F
100
AcDbEntity
  8
TRMODEL1
  6
Continuous
 62
     4
100
AcDbLine
 10
7.0198989488
 20
7.6531055773
 30
0.0
 11
7.0229793966
 21
7.6431574066
 31
0.0
  0
LINE
  5
1DD
330
1F
100
AcDbEntity
  8
TRMODEL1
  6
Continuous
 62
     4
100
AcDbLine
 10
7.0229793966
 20
7.6431574066
 30
0.0
 11
7.0279817724
 21
7.6352380351
 31
0.0
  0
LINE
  5
1DE
330
1F
100
AcDbEntity
  8
TRMODEL1
  6
Continuous
 62
     4
100
AcDbLine
 10
7.0279817724
 20
7.6352380351
 30
0.0
 11
7.0347138388
 21
7.6296517988
 31
0.0
  0
LINE
  5
1DF
330
1F
100
AcDbEntity
  8
TRMODEL1
  6
Continuous
 62
     4
100
AcDbLine
 10
7.0347138388
 20
7.6296517988
 30
0.0
 11
7.0429168829
 21
7.6266133765
 31
0.0
  0
LINE
  5
1E0
330
1F
100
AcDbEntity
  8
TRMODEL1
  6
Continuous
 62
     4
100
AcDbLine
 10
7.0429168829
 20
7.6266133765
 30
0.0
 11
7.0522756697
 21
7.6262395302
 31
0.0
  0
LINE
  5
1E1
330
1F
100
AcDbEntity
  8
TRMODEL1
  6
Continuous
 62
     4
100
AcDbLine
 10
7.0522756697
 20
7.6262395302
 30
0.0
 11
7.0624305452
 21
7.6285446276
 31
0.0
  0
LINE
  5
1E2
330
1F
100
AcDbEntity
  8
TRMODEL1
  6
Continuous
 62
     4
100
AcDbLine
 10
7.0624305452
 20
7.6285446276
 30
0.0
 11
7.0729912631
 21
7.6334400851
 31
0.0
  0
LINE
  5
1E3
330
1F
100
AcDbEntity
  8
TRMODEL1
  6
Continuous
 62
     2
100
AcDbLine
 10
5.4808885873
 20
9.9383499823
 30
0.0
 11
5.1293260873
 21
9.9969437323
 31
0.0
  0
LINE
  5
1E4
330
1F
100
AcDbEntity
  8
TRMODEL1
  6
Continuous
 62
     2
100
AcDbLine
 10
5.1293260873
 20
9.9969437323
 30
0.0
 11
5.4808885873
 21
10.0555374823
 31
0.0
  0
LINE
  5
1E5
330
1F
100
AcDbEntity
  8
TRMODEL1
  6
Continuous
 62
     2
100
AcDbLine
 10
5.4808885873
 20
10.0555374823
 30
0.0
 11
5.4808885873
 21
9.9383499823
 31
0.0
  0
LINE
  5
1E6
330
1F
100
AcDbEntity
  8
TRMODEL1
  6
Continuous
 62
     2
100
AcDbLine
 10
4.561971786
 20
10.1811011971
 30
0.0
 11
4.5314721794
 21
10.2062466678
 31
0.0
  0
LINE
  5
1E7
330
1F
100
AcDbEntity
  8
TRMODEL1
  6
Continuous
 62
     2
100
AcDbLine
 10
4.5314721794
 20
10.2062466678
 30
0.0
 11
4.5177096213
 21
10.2358976461
 31
0.0
  0
LINE
  5
1E8
330
1F
100
AcDbEntity
  8
TRMODEL1
  6
Continuous
 62
     2
100
AcDbLine
 10
4.5177096213
 20
10.2358976461
 30
0.0
 11
4.5223440792
 21
10.2664777865
 31
0.0
  0
LINE
  5
1E9
330
1F
100
AcDbEntity
  8
TRMODEL1
  6
Continuous
 62
     2
100
AcDbLine
 10
4.5223440792
 20
10.2664777865
 30
0.0
 11
4.5448165692
 21
10.2942986728
 31
0.0
  0
LINE
  5
1EA
330
1F
100
AcDbEntity
  8
TRMODEL1
  6
Continuous
 62
     2
100
AcDbLine
 10
4.5448165692
 20
10.2942986728
 30
0.0
 11
4.5824165773
 21
10.3160046955
 31
0.0
  0
LINE
  5
1EB
330
1F
100
AcDbEntity
  8
TRMODEL1
  6
Continuous
 62
     2
100
AcDbLine
 10
4.5824165773
 20
10.3160046955
 30
0.0
 11
4.6306089876
 21
10.3289777878
 31
0.0
  0
LINE
  5
1EC
330
1F
100
AcDbEntity
  8
TRMODEL1
  6
Continuous
 62
     2
100
AcDbLine
 10
4.6306089876
 20
10.3289777878
 30
0.0
 11
4.6835810842
 21
10.3316532034
 31
0.0
  0
LINE
  5
1ED
330
1F
100
AcDbEntity
  8
TRMODEL1
  6
Continuous
 62
     2
100
AcDbLine
 10
4.6835810842
 20
10.3316532034
 30
0.0
 11
4.7349436504
 21
10.3237082477
 31
0.0
  0
LINE
  5
1EE
330
1F
100
AcDbEntity
  8
TRMODEL1
  6
Continuous
 62
     2
100
AcDbLine
 10
4.7349436504
 20
10.3237082477
 30
0.0
 11
4.7785016028
 21
10.3061011996
 31
0.0
  0
LINE
  5
1EF
330
1F
100
AcDbEntity
  8
TRMODEL1
  6
Continuous
 62
     2
100
AcDbLine
 10
4.7785016028
 20
10.3061011996
 30
0.0
 11
4.8090012094
 21
10.2809557289
 31
0.0
  0
LINE
  5
1F0
330
1F
100
AcDbEntity
  8
TRMODEL1
  6
Continuous
 62
     2
100
AcDbLine
 10
4.8090012094
 20
10.2809557289
 30
0.0
 11
4.8227637675
 21
10.2513047506
 31
0.0
  0
LINE
  5
1F1
330
1F
100
AcDbEntity
  8
TRMODEL1
  6
Continuous
 62
     2
100
AcDbLine
 10
4.8227637675
 20
10.2513047506
 30
0.0
 11
4.8181293096
 21
10.2207246102
 31
0.0
  0
LINE
  5
1F2
330
1F
100
AcDbEntity
  8
TRMODEL1
  6
Continuous
 62
     2
100
AcDbLine
 10
4.8181293096
 20
10.2207246102
 30
0.0
 11
4.7956568196
 21
10.1929037239
 31
0.0
  0
LINE
  5
1F3
330
1F
100
AcDbEntity
  8
TRMODEL1
  6
Continuous
 62
     2
100
AcDbLine
 10
4.7956568196
 20
10.1929037239
 30
0.0
 11
4.7580568115
 21
10.1711977012
 31
0.0
  0
LINE
  5
1F4
330
1F
100
AcDbEntity
  8
TRMODEL1
  6
Continuous
 62
     2
100
AcDbLine
 10
4.7580568115
 20
10.1711977012
 30
0.0
 11
4.7098644012
 21
10.1582246089
 31
0.0
  0
LINE
  5
1F5
330
1F
100
AcDbEntity
  8
TRMODEL1
  6
Continuous
 62
     2
100
AcDbLine
 10
4.7098644012
 20
10.1582246089
 30
0.0
 11
4.6568923046
 21
10.1555491933
 31
0.0
  0
LINE
  5
1F6
330
1F
100
AcDbEntity
  8
TRMODEL1
  6
Continuous
 62
     2
100
AcDbLine
 10
4.6568923046
 20
10.1555491933
 30
0.0
 11
4.6055297384
 21
10.163494149
 31
0.0
  0
LINE
  5
1F7
330
1F
100
AcDbEntity
  8
TRMODEL1
  6
Continuous
 62
     2
100
AcDbLine
 10
4.6055297384
 20
10.163494149
 30
0.0
 11
4.561971786
 21
10.1811011971
 31
0.0
  0
LINE
  5
1F8
330
1F
100
AcDbEntity
  8
TRMODEL1
  6
Continuous
 62
     2
100
AcDbLine
 10
8.5886999802
 20
5.9651027223
 30
0.0
 11
8.9134947053
 21
6.5276636882
 31
0.0
  0
LINE
  5
1F9
330
1F
100
AcDbEntity
  8
TRMODEL1
  6
Continuous
 62
     2
100
AcDbLine
 10
8.5886999802
 20
6.2151027223
 30
0.0
 11
8.9134947053
 21
6.7776636882
 31
0.0
  0
LINE
  5
1FA
330
1F
100
AcDbEntity
  8
TRMODEL1
  6
Continuous
 62
     2
100
AcDbLine
 10
8.5886999802
 20
6.4651027223
 30
0.0
 11
8.9134947053
 21
7.0276636882
 31
0.0
  0
LINE
  5
1FB
330
1F
100
AcDbEntity
  8
TRMODEL1
  6
Continuous
 62
     2
100
AcDbLine
 10
8.5886999802
 20
6.7151027223
 30
0.0
 11
8.9134947053
 21
7.2776636882
 31
0.0
  0
LINE
  5
1FC
330
1F
100
AcDbEntity
  8
TRMODEL1
  6
Continuous
 62
     2
100
AcDbLine
 10
8.5886999802
 20
6.9651027223
 30
0.0
 11
8.9134947053
 21
7.5276636882
 31
0.0
  0
LINE
  5
1FD
330
1F
100
AcDbEntity
  8
TRMODEL1
  6
Continuous
 62
     2
100
AcDbLine
 10
8.5886999802
 20
7.2151027223
 30
0.0
 11
8.9134947053
 21
7.7776636882
 31
0.0
  0
LINE
  5
1FE
330
1F
100
AcDbEntity
  8
TRMODEL1
  6
Continuous
 62
     2
100
AcDbLine
 10
8.5886999802
 20
7.4651027223
 30
0.0
 11
8.9134947053
 21
8.0276636882
 31
0.0
  0
LINE
  5
1FF
330
1F
100
AcDbEntity
  8
TRMODEL1
  6
Continuous
 62
     2
100
AcDbLine
 10
8.5886999802
 20
7.7151027223
 30
0.0
 11
8.9134947053
 21
8.2776636882
 31
0.0
  0
LINE
  5
200
330
1F
100
AcDbEntity
  8
TRMODEL1
  6
Continuous
 62
     2
100
AcDbLine
 10
8.5886999802
 20
7.9651027223
 30
0.0
 11
8.9134947053
 21
8.5276636882
 31
0.0
  0
LINE
  5
201
330
1F
100
AcDbEntity
  8
TRMODEL1
  6
Continuous
 62
     4
100
AcDbLine
 10
8.9134947052
 20
8.5709197862
 30
0.0
 11
8.9069155564
 21
8.6539599274
 31
0.0
  0
LINE
  5
202
330
1F
100
AcDbEntity
  8
TRMODEL1
  6
Continuous
 62
     4
100
AcDbLine
 10
8.9069155564
 20
8.6539599274
 30
0.0
 11
8.8873780138
 21
8.7268808124
 31
0.0
  0
LINE
  5
203
330
1F
100
AcDbEntity
  8
TRMODEL1
  6
Continuous
 62
     4
100
AcDbLine
 10
8.8873780138
 20
8.7268808124
 30
0.0
 11
8.8554757158
 21
8.7874667768
 31
0.0
  0
LINE
  5
204
330
1F
100
AcDbEntity
  8
TRMODEL1
  6
Continuous
 62
     4
100
AcDbLine
 10
8.8554757158
 20
8.7874667768
 30
0.0
 11
8.8121779976
 21
8.8338769468
 31
0.0
  0
LINE
  5
205
330
1F
100
AcDbEntity
  8
TRMODEL1
  6
Continuous
 62
     4
100
AcDbLine
 10
8.8121779976
 20
8.8338769468
 30
0.0
 11
8.7588004385
 21
8.864701173
 31
0.0
  0
LINE
  5
206
330
1F
100
AcDbEntity
  8
TRMODEL1
  6
Continuous
 62
     4
100
AcDbLine
 10
8.7588004385
 20
8.864701173
 30
0.0
 11
8.6969648886
 21
8.8790028767
 31
0.0
  0
LINE
  5
207
330
1F
100
AcDbEntity
  8
TRMODEL1
  6
Continuous
 62
     4
100
AcDbLine
 10
8.6969648886
 20
8.8790028767
 30
0.0
 11
8.6285501898
 21
8.8763475079
 31
0.0
  0
LINE
  5
208
330
1F
100
AcDbEntity
  8
TRMODEL1
  6
Continuous
 62
     4
100
AcDbLine
 10
8.6285501898
 20
8.8763475079
 30
0.0
 11
8.555635088
 21
8.8568157488
 31
0.0
  0
LINE
  5
209
330
1F
100
AcDbEntity
  8
TRMODEL1
  6
Continuous
 62
     4
100
AcDbLine
 10
8.555635088
 20
8.8568157488
 30
0.0
 11
8.4804350718
 21
8.8210010618
 31
0.0
  0
LINE
  5
20A
330
1F
100
AcDbEntity
  8
TRMODEL1
  6
Continuous
 62
     2
100
AcDbLine
 10
8.5886999802
 20
8.2151027223
 30
0.0
 11
8.885850282
 21
8.7297821426
 31
0.0
  0
LINE
  5
20B
330
1F
100
AcDbEntity
  8
TRMODEL1
  6
Continuous
 62
     2
100
AcDbLine
 10
8.5731218935
 20
8.4381206846
 30
0.0
 11
8.8042531932
 21
8.838451839
 31
0.0
  0
LINE
  5
20C
330
1F
100
AcDbEntity
  8
TRMODEL1
  6
Continuous
 62
     2
100
AcDbLine
 10
8.4097345971
 20
8.405125586
 30
0.0
 11
8.6830151851
 21
8.8784614491
 31
0.0
  0
LINE
  5
20D
330
1F
100
AcDbEntity
  8
TRMODEL1
  6
Continuous
 62
     2
100
AcDbLine
 10
8.193239975
 20
8.280145901
 30
0.0
 11
8.5150098018
 21
8.8374675893
 31
0.0
  0
LINE
  5
20E
330
1F
100
AcDbEntity
  8
TRMODEL1
  6
Continuous
 62
     2
100
AcDbLine
 10
7.9767453529
 20
8.1551662159
 30
0.0
 11
8.3015400765
 21
8.7177271793
 31
0.0
  0
LINE
  5
20F
330
1F
100
AcDbEntity
  8
TRMODEL1
  6
Continuous
 62
     2
100
AcDbLine
 10
7.7602507307
 20
8.0301865308
 30
0.0
 11
8.0850454544
 21
8.5927474942
 31
0.0
  0
LINE
  5
210
330
1F
100
AcDbEntity
  8
TRMODEL1
  6
Continuous
 62
     2
100
AcDbLine
 10
7.5437561086
 20
7.9052068457
 30
0.0
 11
7.8685508323
 21
8.4677678091
 31
0.0
  0
LINE
  5
211
330
1F
100
AcDbEntity
  8
TRMODEL1
  6
Continuous
 62
     2
100
AcDbLine
 10
7.3272614865
 20
7.7802271606
 30
0.0
 11
7.6520562102
 21
8.342788124
 31
0.0
  0
LINE
  5
212
330
1F
100
AcDbEntity
  8
TRMODEL1
  6
Continuous
 62
     4
100
AcDbLine
 10
8.4804350718
 20
8.4459401013
 30
0.0
 11
8.5886999802
 21
8.3834197824
 31
0.0
  0
LINE
  5
213
330
1F
100
AcDbEntity
  8
TRMODEL1
  6
Continuous
 62
     4
100
AcDbLine
 10
8.4804350718
 20
8.4459401013
 30
0.0
 11
8.5015565077
 21
8.4557310163
 31
0.0
  0
LINE
  5
214
330
1F
100
AcDbEntity
  8
TRMODEL1
  6
Continuous
 62
     4
100
AcDbLine
 10
8.5015565077
 20
8.4557310163
 30
0.0
 11
8.5218662586
 21
8.4603412111
 31
0.0
  0
LINE
  5
215
330
1F
100
AcDbEntity
  8
TRMODEL1
  6
Continuous
 62
     4
100
AcDbLine
 10
8.5218662586
 20
8.4603412111
 30
0.0
 11
8.5405838322
 21
8.4595935186
 31
0.0
  0
LINE
  5
216
330
1F
100
AcDbEntity
  8
TRMODEL1
  6
Continuous
 62
     4
100
AcDbLine
 10
8.5405838322
 20
8.4595935186
 30
0.0
 11
8.5569899227
 21
8.4535166721
 31
0.0
  0
LINE
  5
217
330
1F
100
AcDbEntity
  8
TRMODEL1
  6
Continuous
 62
     4
100
AcDbLine
 10
8.5569899227
 20
8.4535166721
 30
0.0
 11
8.5704540532
 21
8.4423442014
 31
0.0
  0
LINE
  5
218
330
1F
100
AcDbEntity
  8
TRMODEL1
  6
Continuous
 62
     4
100
AcDbLine
 10
8.5704540532
 20
8.4423442014
 30
0.0
 11
8.5804588048
 21
8.4265054583
 31
0.0
  0
LINE
  5
219
330
1F
100
AcDbEntity
  8
TRMODEL1
  6
Continuous
 62
     4
100
AcDbLine
 10
8.5804588048
 20
8.4265054583
 30
0.0
 11
8.5866197004
 21
8.4066091169
 31
0.0
  0
LINE
  5
21A
330
1F
100
AcDbEntity
  8
TRMODEL1
  6
Continuous
 62
     4
100
AcDbLine
 10
8.5866197004
 20
8.4066091169
 30
0.0
 11
8.5886999802
 21
8.3834197824
 31
0.0
  0
LINE
  5
21B
330
1F
100
AcDbEntity
  8
TRMODEL1
  6
Continuous
 62
     2
100
AcDbLine
 10
8.7656024691
 20
12.88296976
 30
0.0
 11
9.8480755845
 21
12.2580713318
 31
0.0
  0
LINE
  5
21C
330
1F
100
AcDbEntity
  8
TRMODEL1
  6
Continuous
 62
     2
100
AcDbLine
 10
10.5321000633
 20
11.7382127198
 30
0.0
 11
10.5321000633
 21
10.2382127198
 31
0.0
  0
LINE
  5
21D
330
1F
100
AcDbEntity
  8
TRMODEL1
  6
Continuous
 62
     2
100
AcDbLine
 10
7.0336454845
 20
17.8821571854
 30
0.0
 11
9.3510250097
 21
19.2199519095
 31
0.0
  0
LINE
  5
21E
330
1F
100
AcDbEntity
  8
TRMODEL1
  6
Continuous
 62
     2
100
AcDbLine
 10
6.8171508614
 20
18.007136871
 30
0.0
 11
9.1345303866
 21
19.3449315952
 31
0.0
  0
LINE
  5
21F
330
1F
100
AcDbEntity
  8
TRMODEL1
  6
Continuous
 62
     2
100
AcDbLine
 10
7.0336454845
 20
17.8821571854
 30
0.0
 11
8.1161185998
 21
17.2572587572
 31
0.0
  0
LINE
  5
220
330
1F
100
AcDbEntity
  8
TRMODEL1
  6
Continuous
 62
     2
100
AcDbLine
 10
6.8171508614
 20
17.7571774997
 30
0.0
 11
7.8996239768
 21
17.1322790716
 31
0.0
  0
LINE
  5
221
330
1F
100
AcDbEntity
  8
TRMODEL1
  6
Continuous
 62
     2
100
AcDbLine
 10
6.8171508614
 20
17.0571774997
 30
0.0
 11
7.293340502
 21
16.7822790716
 31
0.0
  0
LINE
  5
222
330
1F
100
AcDbEntity
  8
TRMODEL1
  6
Continuous
 62
     2
100
AcDbLine
 10
5.5705219147
 20
15.7877170709
 30
0.0
 11
7.8996239768
 21
17.1322790716
 31
0.0
  0
LINE
  5
223
330
1F
100
AcDbEntity
  8
TRMODEL1
  6
Continuous
 62
     2
100
AcDbLine
 10
5.755949806
 20
15.6448029428
 30
0.0
 11
8.1161185998
 21
17.0072993859
 31
0.0
  0
LINE
  5
224
330
1F
100
AcDbEntity
  8
TRMODEL1
  6
Continuous
 62
     2
100
AcDbLine
 10
5.9511723691
 20
14.5077056732
 30
0.0
 11
9.1985917152
 21
16.3824009578
 31
0.0
  0
LINE
  5
225
330
1F
100
AcDbEntity
  8
TRMODEL1
  6
Continuous
 62
     2
100
AcDbLine
 10
6.1676669921
 20
14.3827259876
 30
0.0
 11
7.2501401075
 21
13.7578275594
 31
0.0
  0
LINE
  5
226
330
1F
100
AcDbEntity
  8
TRMODEL1
  6
Continuous
 62
     2
100
AcDbLine
 10
6.1676669921
 20
14.3827259876
 30
0.0
 11
9.4150863383
 21
16.2574212721
 31
0.0
  0
LINE
  5
227
330
1F
100
AcDbEntity
  8
TRDETAIL3
  6
CENTER
 62
     1
100
AcDbLine
 10
4.6719706691
 20
20.5740652501
 30
0.0
 11
4.6719706691
 21
15.8893177796
 31
0.0
  0
LINE
  5
228
330
1F
100
AcDbEntity
  8
TRMODEL1
  6
Continuous
 62
     2
100
AcDbLine
 10
4.4568691764
 20
16.3946158859
 30
0.0
 11
6.8171508614
 21
17.7571774997
 31
0.0
  0
LINE
  5
229
330
1F
100
AcDbEntity
  8
TRMODEL1
  6
Continuous
 62
     2
100
AcDbLine
 10
4.2715541762
 20
16.5375951847
 30
0.0
 11
6.6006562383
 21
17.8821571854
 31
0.0
  0
LINE
  5
22A
330
1F
100
AcDbEntity
  8
TRMODEL1
  6
Continuous
 62
     4
100
AcDbLine
 10
5.247883689
 20
15.4739721441
 30
0.0
 11
5.6809433224
 21
15.7239721491
 31
0.0
  0
LINE
  5
22B
330
1F
100
AcDbEntity
  8
TRMODEL1
  6
Continuous
 62
     4
100
AcDbLine
 10
5.3539832992
 20
15.2902022291
 30
0.0
 11
5.7870429326
 21
15.5402022341
 31
0.0
  0
LINE
  5
22C
330
1F
100
AcDbEntity
  8
TRMODEL1
  6
Continuous
 62
     4
100
AcDbLine
 10
5.3539832992
 20
14.9751510223
 30
0.0
 11
5.7870429326
 21
15.2251510273
 31
0.0
  0
LINE
  5
22D
330
1F
100
AcDbEntity
  8
TRMODEL1
  6
Continuous
 62
     4
100
AcDbLine
 10
5.351818001
 20
15.9139721529
 30
0.0
 11
5.6809433224
 21
15.7239721491
 31
0.0
  0
LINE
  5
22E
330
1F
100
AcDbEntity
  8
TRMODEL1
  6
Continuous
 62
     2
100
AcDbLine
 10
4.8686992537
 20
15.1326041014
 30
0.0
 11
5.9511723691
 21
14.5077056732
 31
0.0
  0
LINE
  5
22F
330
1F
100
AcDbEntity
  8
TRMODEL1
  6
Continuous
 62
     4
100
AcDbLine
 10
5.2768003441
 20
15.9214007125
 30
0.0
 11
5.2928722159
 21
15.9273525018
 31
0.0
  0
LINE
  5
230
330
1F
100
AcDbEntity
  8
TRMODEL1
  6
Continuous
 62
     4
100
AcDbLine
 10
5.2928722159
 20
15.9273525018
 30
0.0
 11
5.311215438
 21
15.9280852405
 31
0.0
  0
LINE
  5
231
330
1F
100
AcDbEntity
  8
TRMODEL1
  6
Continuous
 62
     4
100
AcDbLine
 10
5.311215438
 20
15.9280852405
 30
0.0
 11
5.3311189939
 21
15.9235672496
 31
0.0
  0
LINE
  5
232
330
1F
100
AcDbEntity
  8
TRMODEL1
  6
Continuous
 62
     4
100
AcDbLine
 10
5.3311189939
 20
15.9235672496
 30
0.0
 11
5.351818001
 21
15.9139721529
 31
0.0
  0
LINE
  5
233
330
1F
100
AcDbEntity
  8
TRMODEL1
  6
Continuous
 62
     4
100
AcDbLine
 10
5.3539832992
 20
14.9751510223
 30
0.0
 11
5.299850845
 21
15.0064010229
 31
0.0
  0
LINE
  5
234
330
1F
100
AcDbEntity
  8
TRMODEL1
  6
Continuous
 62
     4
100
AcDbLine
 10
5.299850845
 20
15.3214522297
 30
0.0
 11
5.299850845
 21
15.0064010229
 31
0.0
  0
LINE
  5
235
330
1F
100
AcDbEntity
  8
TRMODEL1
  6
Continuous
 62
     4
100
AcDbLine
 10
5.3539832992
 20
15.2902022291
 30
0.0
 11
5.3539832992
 21
14.9751510223
 31
0.0
  0
LINE
  5
236
330
1F
100
AcDbEntity
  8
TRMODEL1
  6
Continuous
 62
     4
100
AcDbLine
 10
5.247883689
 20
15.4739721441
 30
0.0
 11
5.2685826961
 21
15.4596686758
 31
0.0
  0
LINE
  5
237
330
1F
100
AcDbEntity
  8
TRMODEL1
  6
Continuous
 62
     4
100
AcDbLine
 10
5.2685826961
 20
15.4596686758
 30
0.0
 11
5.288486252
 21
15.4412065103
 31
0.0
  0
LINE
  5
238
330
1F
100
AcDbEntity
  8
TRMODEL1
  6
Continuous
 62
     4
100
AcDbLine
 10
5.288486252
 20
15.4412065103
 30
0.0
 11
5.3068294741
 21
15.4192951381
 31
0.0
  0
LINE
  5
239
330
1F
100
AcDbEntity
  8
TRMODEL1
  6
Continuous
 62
     4
100
AcDbLine
 10
5.3068294741
 20
15.4192951381
 30
0.0
 11
5.3229074428
 21
15.394776601
 31
0.0
  0
LINE
  5
23A
330
1F
100
AcDbEntity
  8
TRMODEL1
  6
Continuous
 62
     4
100
AcDbLine
 10
5.3229074428
 20
15.394776601
 30
0.0
 11
5.3361022907
 21
15.3685931326
 31
0.0
  0
LINE
  5
23B
330
1F
100
AcDbEntity
  8
TRMODEL1
  6
Continuous
 62
     4
100
AcDbLine
 10
5.3361022907
 20
15.3685931326
 30
0.0
 11
5.3459069473
 21
15.3417509489
 31
0.0
  0
LINE
  5
23C
330
1F
100
AcDbEntity
  8
TRMODEL1
  6
Continuous
 62
     4
100
AcDbLine
 10
5.3459069473
 20
15.3417509489
 30
0.0
 11
5.3519446249
 21
15.3152815801
 31
0.0
  0
LINE
  5
23D
330
1F
100
AcDbEntity
  8
TRMODEL1
  6
Continuous
 62
     4
100
AcDbLine
 10
5.3519446249
 20
15.3152815801
 30
0.0
 11
5.3539832992
 21
15.2902022291
 31
0.0
  0
LINE
  5
23E
330
1F
100
AcDbEntity
  8
TRMODEL1
  6
Continuous
 62
     4
100
AcDbLine
 10
5.247883689
 20
15.411461984
 30
0.0
 11
5.2580219782
 21
15.4044562036
 31
0.0
  0
LINE
  5
23F
330
1F
100
AcDbEntity
  8
TRMODEL1
  6
Continuous
 62
     4
100
AcDbLine
 10
5.2580219782
 20
15.4044562036
 30
0.0
 11
5.2677706586
 21
15.3954135103
 31
0.0
  0
LINE
  5
240
330
1F
100
AcDbEntity
  8
TRMODEL1
  6
Continuous
 62
     4
100
AcDbLine
 10
5.2677706586
 20
15.3954135103
 30
0.0
 11
5.276755094
 21
15.3846814096
 31
0.0
  0
LINE
  5
241
330
1F
100
AcDbEntity
  8
TRMODEL1
  6
Continuous
 62
     4
100
AcDbLine
 10
5.276755094
 20
15.3846814096
 30
0.0
 11
5.2846300174
 21
15.3726723302
 31
0.0
  0
LINE
  5
242
330
1F
100
AcDbEntity
  8
TRMODEL1
  6
Continuous
 62
     4
100
AcDbLine
 10
5.2846300174
 20
15.3726723302
 30
0.0
 11
5.2910928
 21
15.3598477743
 31
0.0
  0
LINE
  5
243
330
1F
100
AcDbEntity
  8
TRMODEL1
  6
Continuous
 62
     4
100
AcDbLine
 10
5.2910928
 20
15.3598477743
 30
0.0
 11
5.2958950808
 21
15.3467005823
 31
0.0
  0
LINE
  5
244
330
1F
100
AcDbEntity
  8
TRMODEL1
  6
Continuous
 62
     4
100
AcDbLine
 10
5.2958950808
 20
15.3467005823
 30
0.0
 11
5.2988523107
 21
15.3337359935
 31
0.0
  0
LINE
  5
245
330
1F
100
AcDbEntity
  8
TRMODEL1
  6
Continuous
 62
     4
100
AcDbLine
 10
5.2988523107
 20
15.3337359935
 30
0.0
 11
5.299850845
 21
15.3214522297
 31
0.0
  0
LINE
  5
246
330
1F
100
AcDbEntity
  8
TRMODEL1
  6
Continuous
 62
     4
100
AcDbLine
 10
4.0526391006
 20
16.6639721679
 30
0.0
 11
4.381764422
 21
16.4739721641
 31
0.0
  0
LINE
  5
247
330
1F
100
AcDbEntity
  8
TRMODEL1
  6
Continuous
 62
     4
100
AcDbLine
 10
3.9487047886
 20
16.2239721591
 30
0.0
 11
4.381764422
 21
16.4739721641
 31
0.0
  0
LINE
  5
248
330
1F
100
AcDbEntity
  8
TRMODEL1
  6
Continuous
 62
     4
100
AcDbLine
 10
4.0548043988
 20
16.0402022441
 30
0.0
 11
4.4878640322
 21
16.2902022491
 31
0.0
  0
LINE
  5
249
330
1F
100
AcDbEntity
  8
TRMODEL1
  6
Continuous
 62
     4
100
AcDbLine
 10
4.4878640322
 20
16.2902022491
 30
0.0
 11
4.4878640322
 21
15.9726506359
 31
0.0
  0
LINE
  5
24A
330
1F
100
AcDbEntity
  8
TRMODEL1
  6
Continuous
 62
     4
100
AcDbLine
 10
3.9776214437
 20
16.6714007275
 30
0.0
 11
3.9936933155
 21
16.6773525168
 31
0.0
  0
LINE
  5
24B
330
1F
100
AcDbEntity
  8
TRMODEL1
  6
Continuous
 62
     4
100
AcDbLine
 10
3.9936933155
 20
16.6773525168
 30
0.0
 11
4.0120365376
 21
16.6780852555
 31
0.0
  0
LINE
  5
24C
330
1F
100
AcDbEntity
  8
TRMODEL1
  6
Continuous
 62
     4
100
AcDbLine
 10
4.0120365376
 20
16.6780852555
 30
0.0
 11
4.0319400935
 21
16.6735672646
 31
0.0
  0
LINE
  5
24D
330
1F
100
AcDbEntity
  8
TRMODEL1
  6
Continuous
 62
     4
100
AcDbLine
 10
4.0319400935
 20
16.6735672646
 30
0.0
 11
4.0526391006
 21
16.6639721679
 31
0.0
  0
LINE
  5
24E
330
1F
100
AcDbEntity
  8
TRMODEL1
  6
Continuous
 62
     4
100
AcDbLine
 10
3.9487047886
 20
16.2239721591
 30
0.0
 11
3.9694037957
 21
16.2096686908
 31
0.0
  0
LINE
  5
24F
330
1F
100
AcDbEntity
  8
TRMODEL1
  6
Continuous
 62
     4
100
AcDbLine
 10
3.9694037957
 20
16.2096686908
 30
0.0
 11
3.9893073516
 21
16.1912065253
 31
0.0
  0
LINE
  5
250
330
1F
100
AcDbEntity
  8
TRMODEL1
  6
Continuous
 62
     4
100
AcDbLine
 10
3.9893073516
 20
16.1912065253
 30
0.0
 11
4.0076505737
 21
16.1692951531
 31
0.0
  0
LINE
  5
251
330
1F
100
AcDbEntity
  8
TRMODEL1
  6
Continuous
 62
     4
100
AcDbLine
 10
4.0076505737
 20
16.1692951531
 30
0.0
 11
4.0237285424
 21
16.144776616
 31
0.0
  0
LINE
  5
252
330
1F
100
AcDbEntity
  8
TRMODEL1
  6
Continuous
 62
     4
100
AcDbLine
 10
4.0237285424
 20
16.144776616
 30
0.0
 11
4.0369233903
 21
16.1185931476
 31
0.0
  0
LINE
  5
253
330
1F
100
AcDbEntity
  8
TRMODEL1
  6
Continuous
 62
     4
100
AcDbLine
 10
4.0369233903
 20
16.1185931476
 30
0.0
 11
4.0467280469
 21
16.0917509639
 31
0.0
  0
LINE
  5
254
330
1F
100
AcDbEntity
  8
TRMODEL1
  6
Continuous
 62
     4
100
AcDbLine
 10
4.0467280469
 20
16.0917509639
 30
0.0
 11
4.0527657245
 21
16.0652815951
 31
0.0
  0
LINE
  5
255
330
1F
100
AcDbEntity
  8
TRMODEL1
  6
Continuous
 62
     4
100
AcDbLine
 10
4.0527657245
 20
16.0652815951
 30
0.0
 11
4.0548043988
 21
16.0402022441
 31
0.0
  0
LINE
  5
256
330
1F
100
AcDbEntity
  8
TRMODEL1
  6
Continuous
 62
     4
100
AcDbLine
 10
3.9487047886
 20
16.161461999
 30
0.0
 11
3.9588430778
 21
16.1544562186
 31
0.0
  0
LINE
  5
257
330
1F
100
AcDbEntity
  8
TRMODEL1
  6
Continuous
 62
     4
100
AcDbLine
 10
3.9588430778
 20
16.1544562186
 30
0.0
 11
3.9685917582
 21
16.1454135253
 31
0.0
  0
LINE
  5
258
330
1F
100
AcDbEntity
  8
TRMODEL1
  6
Continuous
 62
     4
100
AcDbLine
 10
3.9685917582
 20
16.1454135253
 30
0.0
 11
3.9775761936
 21
16.1346814246
 31
0.0
  0
LINE
  5
259
330
1F
100
AcDbEntity
  8
TRMODEL1
  6
Continuous
 62
     4
100
AcDbLine
 10
3.9775761936
 20
16.1346814246
 30
0.0
 11
3.985451117
 21
16.1226723452
 31
0.0
  0
LINE
  5
25A
330
1F
100
AcDbEntity
  8
TRMODEL1
  6
Continuous
 62
     4
100
AcDbLine
 10
3.985451117
 20
16.1226723452
 30
0.0
 11
3.9919138996
 21
16.1098477893
 31
0.0
  0
LINE
  5
25B
330
1F
100
AcDbEntity
  8
TRMODEL1
  6
Continuous
 62
     4
100
AcDbLine
 10
3.9919138996
 20
16.1098477893
 30
0.0
 11
3.9967161804
 21
16.0967005973
 31
0.0
  0
LINE
  5
25C
330
1F
100
AcDbEntity
  8
TRMODEL1
  6
Continuous
 62
     4
100
AcDbLine
 10
3.9967161804
 20
16.0967005973
 30
0.0
 11
3.9996734103
 21
16.0837360085
 31
0.0
  0
LINE
  5
25D
330
1F
100
AcDbEntity
  8
TRMODEL1
  6
Continuous
 62
     4
100
AcDbLine
 10
3.9996734103
 20
16.0837360085
 30
0.0
 11
4.0006719446
 21
16.0714522447
 31
0.0
  0
LINE
  5
25E
330
1F
100
AcDbEntity
  8
TRMODEL1
  6
Continuous
 62
     4
100
AcDbLine
 10
4.4878640322
 20
15.9726506359
 30
0.0
 11
4.4888625666
 21
15.9603668721
 31
0.0
  0
LINE
  5
25F
330
1F
100
AcDbEntity
  8
TRMODEL1
  6
Continuous
 62
     4
100
AcDbLine
 10
4.4888625666
 20
15.9603668721
 30
0.0
 11
4.4918197965
 21
15.9474022833
 31
0.0
  0
LINE
  5
260
330
1F
100
AcDbEntity
  8
TRMODEL1
  6
Continuous
 62
     4
100
AcDbLine
 10
4.4918197965
 20
15.9474022833
 30
0.0
 11
4.4966220772
 21
15.9342550913
 31
0.0
  0
LINE
  5
261
330
1F
100
AcDbEntity
  8
TRMODEL1
  6
Continuous
 62
     4
100
AcDbLine
 10
4.4966220772
 20
15.9342550913
 30
0.0
 11
4.5030848598
 21
15.9214305354
 31
0.0
  0
LINE
  5
262
330
1F
100
AcDbEntity
  8
TRMODEL1
  6
Continuous
 62
     4
100
AcDbLine
 10
4.5030848598
 20
15.9214305354
 30
0.0
 11
4.5109597833
 21
15.909421456
 31
0.0
  0
LINE
  5
263
330
1F
100
AcDbEntity
  8
TRMODEL1
  6
Continuous
 62
     4
100
AcDbLine
 10
4.5109597833
 20
15.909421456
 30
0.0
 11
4.5199442186
 21
15.8986893553
 31
0.0
  0
LINE
  5
264
330
1F
100
AcDbEntity
  8
TRMODEL1
  6
Continuous
 62
     4
100
AcDbLine
 10
4.5199442186
 20
15.8986893553
 30
0.0
 11
4.5296928991
 21
15.889646662
 31
0.0
  0
LINE
  5
265
330
1F
100
AcDbEntity
  8
TRMODEL1
  6
Continuous
 62
     4
100
AcDbLine
 10
4.5296928991
 20
15.889646662
 30
0.0
 11
4.5398311883
 21
15.8826408816
 31
0.0
  0
LINE
  5
266
330
1F
100
AcDbEntity
  8
TRMODEL1
  6
Continuous
 62
     4
100
AcDbLine
 10
4.381764422
 20
16.4739721641
 30
0.0
 11
4.4024634292
 21
16.4596686958
 31
0.0
  0
LINE
  5
267
330
1F
100
AcDbEntity
  8
TRMODEL1
  6
Continuous
 62
     4
100
AcDbLine
 10
4.4024634292
 20
16.4596686958
 30
0.0
 11
4.4223669851
 21
16.4412065303
 31
0.0
  0
LINE
  5
268
330
1F
100
AcDbEntity
  8
TRMODEL1
  6
Continuous
 62
     4
100
AcDbLine
 10
4.4223669851
 20
16.4412065303
 30
0.0
 11
4.4407102072
 21
16.4192951581
 31
0.0
  0
LINE
  5
269
330
1F
100
AcDbEntity
  8
TRMODEL1
  6
Continuous
 62
     4
100
AcDbLine
 10
4.4407102072
 20
16.4192951581
 30
0.0
 11
4.4567881759
 21
16.394776621
 31
0.0
  0
LINE
  5
26A
330
1F
100
AcDbEntity
  8
TRMODEL1
  6
Continuous
 62
     4
100
AcDbLine
 10
4.4567881759
 20
16.394776621
 30
0.0
 11
4.4699830238
 21
16.3685931526
 31
0.0
  0
LINE
  5
26B
330
1F
100
AcDbEntity
  8
TRMODEL1
  6
Continuous
 62
     4
100
AcDbLine
 10
4.4699830238
 20
16.3685931526
 30
0.0
 11
4.4797876803
 21
16.3417509689
 31
0.0
  0
LINE
  5
26C
330
1F
100
AcDbEntity
  8
TRMODEL1
  6
Continuous
 62
     4
100
AcDbLine
 10
4.4797876803
 20
16.3417509689
 30
0.0
 11
4.485825358
 21
16.3152816001
 31
0.0
  0
LINE
  5
26D
330
1F
100
AcDbEntity
  8
TRMODEL1
  6
Continuous
 62
     4
100
AcDbLine
 10
4.485825358
 20
16.3152816001
 30
0.0
 11
4.4878640322
 21
16.2902022491
 31
0.0
  0
LINE
  5
26E
330
1F
100
AcDbEntity
  8
TRMODEL1
  6
Continuous
 62
     4
100
AcDbLine
 10
4.1067715548
 20
15.6326408766
 30
0.0
 11
4.7043322577
 21
15.2876764256
 31
0.0
  0
LINE
  5
26F
330
1F
100
AcDbEntity
  8
TRMODEL1
  6
Continuous
 62
     4
100
AcDbLine
 10
4.8126587573
 20
15.5686207243
 30
0.0
 11
4.7833986177
 21
15.5840270521
 31
0.0
  0
LINE
  5
270
330
1F
100
AcDbEntity
  8
TRMODEL1
  6
Continuous
 62
     4
100
AcDbLine
 10
4.7833986177
 20
15.5840270521
 30
0.0
 11
4.7329602391
 21
15.599416077
 31
0.0
  0
LINE
  5
271
330
1F
100
AcDbEntity
  8
TRMODEL1
  6
Continuous
 62
     4
100
AcDbLine
 10
4.7329602391
 20
15.599416077
 30
0.0
 11
4.6769052716
 21
15.6055388898
 31
0.0
  0
LINE
  5
272
330
1F
100
AcDbEntity
  8
TRMODEL1
  6
Continuous
 62
     4
100
AcDbLine
 10
4.6769052716
 20
15.6055388898
 30
0.0
 11
4.6202144448
 21
15.6018514518
 31
0.0
  0
LINE
  5
273
330
1F
100
AcDbEntity
  8
TRMODEL1
  6
Continuous
 62
     4
100
AcDbLine
 10
4.6202144448
 20
15.6018514518
 30
0.0
 11
4.5679249876
 21
15.588681408
 31
0.0
  0
LINE
  5
274
330
1F
100
AcDbEntity
  8
TRMODEL1
  6
Continuous
 62
     4
100
AcDbLine
 10
4.5679249876
 20
15.588681408
 30
0.0
 11
4.5246830477
 21
15.5671989745
 31
0.0
  0
LINE
  5
275
330
1F
100
AcDbEntity
  8
TRMODEL1
  6
Continuous
 62
     4
100
AcDbLine
 10
4.5246830477
 20
15.5671989745
 30
0.0
 11
4.4943308613
 21
15.53931296
 31
0.0
  0
LINE
  5
276
330
1F
100
AcDbEntity
  8
TRMODEL1
  6
Continuous
 62
     4
100
AcDbLine
 10
4.4943308613
 20
15.53931296
 30
0.0
 11
4.4861795896
 21
15.526385795
 31
0.0
  0
LINE
  5
277
330
1F
100
AcDbEntity
  8
TRMODEL1
  6
Continuous
 62
     4
100
AcDbLine
 10
4.8155042647
 20
15.6292442372
 30
0.0
 11
4.7833986177
 21
15.6465372122
 31
0.0
  0
LINE
  5
278
330
1F
100
AcDbEntity
  8
TRMODEL1
  6
Continuous
 62
     4
100
AcDbLine
 10
4.7833986177
 20
15.6465372122
 30
0.0
 11
4.7329602391
 21
15.6619262371
 31
0.0
  0
LINE
  5
279
330
1F
100
AcDbEntity
  8
TRMODEL1
  6
Continuous
 62
     4
100
AcDbLine
 10
4.7329602391
 20
15.6619262371
 30
0.0
 11
4.6769052716
 21
15.6680490499
 31
0.0
  0
LINE
  5
27A
330
1F
100
AcDbEntity
  8
TRMODEL1
  6
Continuous
 62
     4
100
AcDbLine
 10
4.6769052716
 20
15.6680490499
 30
0.0
 11
4.6202144448
 21
15.6643616119
 31
0.0
  0
LINE
  5
27B
330
1F
100
AcDbEntity
  8
TRMODEL1
  6
Continuous
 62
     4
100
AcDbLine
 10
4.6202144448
 20
15.6643616119
 30
0.0
 11
4.5679249876
 21
15.6511915681
 31
0.0
  0
LINE
  5
27C
330
1F
100
AcDbEntity
  8
TRMODEL1
  6
Continuous
 62
     4
100
AcDbLine
 10
4.5679249876
 20
15.6511915681
 30
0.0
 11
4.5246830477
 21
15.6297091346
 31
0.0
  0
LINE
  5
27D
330
1F
100
AcDbEntity
  8
TRMODEL1
  6
Continuous
 62
     4
100
AcDbLine
 10
4.5246830477
 20
15.6297091346
 30
0.0
 11
4.4943308613
 21
15.6018231201
 31
0.0
  0
LINE
  5
27E
330
1F
100
AcDbEntity
  8
TRMODEL1
  6
Continuous
 62
     4
100
AcDbLine
 10
4.4943308613
 20
15.6018231201
 30
0.0
 11
4.4795653532
 21
15.5700113191
 31
0.0
  0
LINE
  5
27F
330
1F
100
AcDbEntity
  8
TRMODEL1
  6
Continuous
 62
     4
100
AcDbLine
 10
4.4795653532
 20
15.5700113191
 30
0.0
 11
4.4816985037
 21
15.53710035
 31
0.0
  0
LINE
  5
280
330
1F
100
AcDbEntity
  8
TRMODEL1
  6
Continuous
 62
     4
100
AcDbLine
 10
4.4816985037
 20
15.53710035
 30
0.0
 11
4.500540773
 21
15.5060144966
 31
0.0
  0
LINE
  5
281
330
1F
100
AcDbEntity
  8
TRMODEL1
  6
Continuous
 62
     4
100
AcDbLine
 10
4.500540773
 20
15.5060144966
 30
0.0
 11
4.5344179428
 21
15.4795158735
 31
0.0
  0
LINE
  5
282
330
1F
100
AcDbEntity
  8
TRMODEL1
  6
Continuous
 62
     4
100
AcDbLine
 10
4.5344179428
 20
15.4795158735
 30
0.0
 11
4.5803198779
 21
15.4599589997
 31
0.0
  0
LINE
  5
283
330
1F
100
AcDbEntity
  8
TRMODEL1
  6
Continuous
 62
     4
100
AcDbLine
 10
4.5803198779
 20
15.4599589997
 30
0.0
 11
4.6341679899
 21
15.4490815891
 31
0.0
  0
LINE
  5
284
330
1F
100
AcDbEntity
  8
TRMODEL1
  6
Continuous
 62
     4
100
AcDbLine
 10
4.6341679899
 20
15.4490815891
 30
0.0
 11
4.6769052716
 21
15.448158439
 31
0.0
  0
LINE
  5
285
330
1F
100
AcDbEntity
  8
TRMODEL1
  6
Continuous
 62
     2
100
AcDbLine
 10
4.6522046306
 20
15.257583787
 30
0.0
 11
5.0833210283
 21
15.5064619859
 31
0.0
  0
LINE
  5
286
330
1F
100
AcDbEntity
  8
TRMODEL1
  6
Continuous
 62
     4
100
AcDbLine
 10
4.0348724668
 20
15.6139620595
 30
0.0
 11
4.0317478009
 21
15.6187271039
 31
0.0
  0
LINE
  5
287
330
1F
100
AcDbEntity
  8
TRMODEL1
  6
Continuous
 62
     4
100
AcDbLine
 10
4.0317478009
 20
15.6187271039
 30
0.0
 11
4.018552953
 21
15.6449105723
 31
0.0
  0
LINE
  5
288
330
1F
100
AcDbEntity
  8
TRMODEL1
  6
Continuous
 62
     4
100
AcDbLine
 10
4.018552953
 20
15.6449105723
 30
0.0
 11
4.0087482965
 21
15.671752756
 31
0.0
  0
LINE
  5
289
330
1F
100
AcDbEntity
  8
TRMODEL1
  6
Continuous
 62
     4
100
AcDbLine
 10
4.0087482965
 20
15.671752756
 30
0.0
 11
4.0027106189
 21
15.6982221248
 31
0.0
  0
LINE
  5
28A
330
1F
100
AcDbEntity
  8
TRMODEL1
  6
Continuous
 62
     4
100
AcDbLine
 10
4.0027106189
 20
15.6982221248
 30
0.0
 11
4.0006719446
 21
15.7233014758
 31
0.0
  0
LINE
  5
28B
330
1F
100
AcDbEntity
  8
TRMODEL1
  6
Continuous
 62
     4
100
AcDbLine
 10
4.0548043988
 20
15.7226506309
 30
0.0
 11
4.0558029331
 21
15.7103668671
 31
0.0
  0
LINE
  5
28C
330
1F
100
AcDbEntity
  8
TRMODEL1
  6
Continuous
 62
     4
100
AcDbLine
 10
4.0558029331
 20
15.7103668671
 30
0.0
 11
4.058760163
 21
15.6974022783
 31
0.0
  0
LINE
  5
28D
330
1F
100
AcDbEntity
  8
TRMODEL1
  6
Continuous
 62
     4
100
AcDbLine
 10
4.058760163
 20
15.6974022783
 30
0.0
 11
4.0635624437
 21
15.6842550863
 31
0.0
  0
LINE
  5
28E
330
1F
100
AcDbEntity
  8
TRMODEL1
  6
Continuous
 62
     4
100
AcDbLine
 10
4.0635624437
 20
15.6842550863
 30
0.0
 11
4.0700252264
 21
15.6714305304
 31
0.0
  0
LINE
  5
28F
330
1F
100
AcDbEntity
  8
TRMODEL1
  6
Continuous
 62
     4
100
AcDbLine
 10
4.0700252264
 20
15.6714305304
 30
0.0
 11
4.0779001498
 21
15.659421451
 31
0.0
  0
LINE
  5
290
330
1F
100
AcDbEntity
  8
TRMODEL1
  6
Continuous
 62
     4
100
AcDbLine
 10
4.0779001498
 20
15.659421451
 30
0.0
 11
4.0868845852
 21
15.6486893503
 31
0.0
  0
LINE
  5
291
330
1F
100
AcDbEntity
  8
TRMODEL1
  6
Continuous
 62
     4
100
AcDbLine
 10
4.0868845852
 20
15.6486893503
 30
0.0
 11
4.0966332656
 21
15.639646657
 31
0.0
  0
LINE
  5
292
330
1F
100
AcDbEntity
  8
TRMODEL1
  6
Continuous
 62
     4
100
AcDbLine
 10
4.0966332656
 20
15.639646657
 30
0.0
 11
4.1067715548
 21
15.6326408766
 31
0.0
  0
LINE
  5
293
330
1F
100
AcDbEntity
  8
TRMODEL1
  6
Continuous
 62
     4
100
AcDbLine
 10
4.8667912115
 20
15.5714522347
 30
0.0
 11
4.9187583675
 21
15.6014619878
 31
0.0
  0
LINE
  5
294
330
1F
100
AcDbEntity
  8
TRMODEL1
  6
Continuous
 62
     4
100
AcDbLine
 10
4.8667912115
 20
15.3814619834
 30
0.0
 11
4.8667912115
 21
15.5714522347
 31
0.0
  0
LINE
  5
295
330
1F
100
AcDbEntity
  8
TRMODEL1
  6
Continuous
 62
     4
100
AcDbLine
 10
4.8126587573
 20
15.3502119828
 30
0.0
 11
4.8126587573
 21
15.6027022353
 31
0.0
  0
LINE
  5
296
330
1F
100
AcDbEntity
  8
TRMODEL1
  6
Continuous
 62
     4
100
AcDbLine
 10
4.8126587573
 20
15.6027022353
 30
0.0
 11
4.8146974316
 21
15.6254277832
 31
0.0
  0
LINE
  5
297
330
1F
100
AcDbEntity
  8
TRMODEL1
  6
Continuous
 62
     4
100
AcDbLine
 10
4.8146974316
 20
15.6254277832
 30
0.0
 11
4.8207351093
 21
15.6449261977
 31
0.0
  0
LINE
  5
298
330
1F
100
AcDbEntity
  8
TRMODEL1
  6
Continuous
 62
     4
100
AcDbLine
 10
4.8207351093
 20
15.6449261977
 30
0.0
 11
4.8305397658
 21
15.6604481659
 31
0.0
  0
LINE
  5
299
330
1F
100
AcDbEntity
  8
TRMODEL1
  6
Continuous
 62
     4
100
AcDbLine
 10
4.8305397658
 20
15.6604481659
 30
0.0
 11
4.8437346137
 21
15.6713971872
 31
0.0
  0
LINE
  5
29A
330
1F
100
AcDbEntity
  8
TRMODEL1
  6
Continuous
 62
     4
100
AcDbLine
 10
4.8437346137
 20
15.6713971872
 30
0.0
 11
4.8598125824
 21
15.6773524968
 31
0.0
  0
LINE
  5
29B
330
1F
100
AcDbEntity
  8
TRMODEL1
  6
Continuous
 62
     4
100
AcDbLine
 10
4.8598125824
 20
15.6773524968
 30
0.0
 11
4.8781558045
 21
15.6780852355
 31
0.0
  0
LINE
  5
29C
330
1F
100
AcDbEntity
  8
TRMODEL1
  6
Continuous
 62
     4
100
AcDbLine
 10
4.8781558045
 20
15.6780852355
 30
0.0
 11
4.8980593604
 21
15.6735672446
 31
0.0
  0
LINE
  5
29D
330
1F
100
AcDbEntity
  8
TRMODEL1
  6
Continuous
 62
     4
100
AcDbLine
 10
4.8980593604
 20
15.6735672446
 30
0.0
 11
4.9187583675
 21
15.6639721479
 31
0.0
  0
LINE
  5
29E
330
1F
100
AcDbEntity
  8
TRMODEL1
  6
Continuous
 62
     4
100
AcDbLine
 10
4.8667912115
 20
15.5714522347
 30
0.0
 11
4.8677897459
 21
15.5825831153
 31
0.0
  0
LINE
  5
29F
330
1F
100
AcDbEntity
  8
TRMODEL1
  6
Continuous
 62
     4
100
AcDbLine
 10
4.8677897459
 20
15.5825831153
 30
0.0
 11
4.8707469757
 21
15.5921333592
 31
0.0
  0
LINE
  5
2A0
330
1F
100
AcDbEntity
  8
TRMODEL1
  6
Continuous
 62
     4
100
AcDbLine
 10
4.8707469757
 20
15.5921333592
 30
0.0
 11
4.8755492565
 21
15.5997359558
 31
0.0
  0
LINE
  5
2A1
330
1F
100
AcDbEntity
  8
TRMODEL1
  6
Continuous
 62
     4
100
AcDbLine
 10
4.8755492565
 20
15.5997359558
 30
0.0
 11
4.8820120391
 21
15.6050987417
 31
0.0
  0
LINE
  5
2A2
330
1F
100
AcDbEntity
  8
TRMODEL1
  6
Continuous
 62
     4
100
AcDbLine
 10
4.8820120391
 20
15.6050987417
 30
0.0
 11
4.8898869626
 21
15.6080156281
 31
0.0
  0
LINE
  5
2A3
330
1F
100
AcDbEntity
  8
TRMODEL1
  6
Continuous
 62
     4
100
AcDbLine
 10
4.8898869626
 20
15.6080156281
 30
0.0
 11
4.8988713979
 21
15.6083745205
 31
0.0
  0
LINE
  5
2A4
330
1F
100
AcDbEntity
  8
TRMODEL1
  6
Continuous
 62
     4
100
AcDbLine
 10
4.8988713979
 20
15.6083745205
 30
0.0
 11
4.9086200783
 21
15.606161627
 31
0.0
  0
LINE
  5
2A5
330
1F
100
AcDbEntity
  8
TRMODEL1
  6
Continuous
 62
     4
100
AcDbLine
 10
4.9086200783
 20
15.606161627
 30
0.0
 11
4.9187583675
 21
15.6014619878
 31
0.0
  0
LINE
  5
2A6
330
1F
100
AcDbEntity
  8
TRMODEL1
  6
Continuous
 62
     4
100
AcDbLine
 10
4.5398311883
 20
15.8826408816
 30
0.0
 11
4.8747451306
 21
15.6892991781
 31
0.0
  0
LINE
  5
2A7
330
1F
100
AcDbEntity
  8
TRMODEL1
  6
Continuous
 62
     4
100
AcDbLine
 10
4.0548043988
 20
16.0402022441
 30
0.0
 11
4.0548043988
 21
15.7226506309
 31
0.0
  0
LINE
  5
2A8
330
1F
100
AcDbEntity
  8
TRMODEL1
  6
Continuous
 62
     4
100
AcDbLine
 10
4.0006719446
 20
16.0714522447
 30
0.0
 11
4.0006719446
 21
15.7233014758
 31
0.0
  0
LINE
  5
2A9
330
1F
100
AcDbEntity
  8
TRMODEL1
  6
Continuous
 62
     4
100
AcDbLine
 10
4.0548043988
 20
15.7226506309
 30
0.0
 11
4.4878640322
 21
15.9726506359
 31
0.0
  0
LINE
  5
2AA
330
1F
100
AcDbEntity
  8
TRMODEL1
  6
Continuous
 62
     4
100
AcDbLine
 10
4.1067715548
 20
15.6326408766
 30
0.0
 11
4.5398311883
 21
15.8826408816
 31
0.0
  0
LINE
  5
2AB
330
1F
100
AcDbEntity
  8
TRMODEL1
  6
Continuous
 62
     4
100
AcDbLine
 10
4.9187583675
 20
15.6639721479
 30
0.0
 11
5.247883689
 21
15.4739721441
 31
0.0
  0
LINE
  5
2AC
330
1F
100
AcDbEntity
  8
TRMODEL1
  6
Continuous
 62
     4
100
AcDbLine
 10
4.9187583675
 20
15.6014619878
 30
0.0
 11
5.247883689
 21
15.411461984
 31
0.0
  0
LINE
  5
2AD
330
1F
100
AcDbEntity
  8
TRMODEL1
  6
Continuous
 62
     2
100
AcDbLine
 10
4.8686992537
 20
15.1326041014
 30
0.0
 11
5.2846093301
 21
15.3727038779
 31
0.0
  0
LINE
  5
2AE
330
1F
100
AcDbEntity
  8
TRMODEL1
  6
Continuous
 62
     4
100
AcDbLine
 10
4.9187583675
 20
15.6639721479
 30
0.0
 11
5.351818001
 21
15.9139721529
 31
0.0
  0
LINE
  5
2AF
330
1F
100
AcDbEntity
  8
TRMODEL1
  6
Continuous
 62
     4
100
AcDbLine
 10
5.2768003441
 20
15.9214007125
 30
0.0
 11
4.8437407107
 21
15.6714007075
 31
0.0
  0
LINE
  5
2B0
330
1F
100
AcDbEntity
  8
TRMODEL1
  6
Continuous
 62
     4
100
AcDbLine
 10
5.7870429326
 20
15.5402022341
 30
0.0
 11
5.7870429326
 21
15.2251510273
 31
0.0
  0
LINE
  5
2B1
330
1F
100
AcDbEntity
  8
TRMODEL1
  6
Continuous
 62
     4
100
AcDbLine
 10
5.6809433224
 20
15.7239721491
 30
0.0
 11
5.7016423296
 21
15.7096686808
 31
0.0
  0
LINE
  5
2B2
330
1F
100
AcDbEntity
  8
TRMODEL1
  6
Continuous
 62
     4
100
AcDbLine
 10
5.7016423296
 20
15.7096686808
 30
0.0
 11
5.7215458855
 21
15.6912065153
 31
0.0
  0
LINE
  5
2B3
330
1F
100
AcDbEntity
  8
TRMODEL1
  6
Continuous
 62
     4
100
AcDbLine
 10
5.7215458855
 20
15.6912065153
 30
0.0
 11
5.7398891076
 21
15.6692951431
 31
0.0
  0
LINE
  5
2B4
330
1F
100
AcDbEntity
  8
TRMODEL1
  6
Continuous
 62
     4
100
AcDbLine
 10
5.7398891076
 20
15.6692951431
 30
0.0
 11
5.7559670763
 21
15.644776606
 31
0.0
  0
LINE
  5
2B5
330
1F
100
AcDbEntity
  8
TRMODEL1
  6
Continuous
 62
     4
100
AcDbLine
 10
5.7559670763
 20
15.644776606
 30
0.0
 11
5.7691619242
 21
15.6185931376
 31
0.0
  0
LINE
  5
2B6
330
1F
100
AcDbEntity
  8
TRMODEL1
  6
Continuous
 62
     4
100
AcDbLine
 10
5.7691619242
 20
15.6185931376
 30
0.0
 11
5.7789665807
 21
15.5917509539
 31
0.0
  0
LINE
  5
2B7
330
1F
100
AcDbEntity
  8
TRMODEL1
  6
Continuous
 62
     4
100
AcDbLine
 10
5.7789665807
 20
15.5917509539
 30
0.0
 11
5.7850042584
 21
15.5652815851
 31
0.0
  0
LINE
  5
2B8
330
1F
100
AcDbEntity
  8
TRMODEL1
  6
Continuous
 62
     4
100
AcDbLine
 10
5.7850042584
 20
15.5652815851
 30
0.0
 11
5.7870429326
 21
15.5402022341
 31
0.0
  0
LINE
  5
2B9
330
1F
100
AcDbEntity
  8
TRMODEL1
  6
Continuous
 62
     2
100
AcDbLine
 10
4.6807743282
 20
20.5713779592
 30
0.0
 11
4.6853580039
 21
20.5716004908
 31
0.0
  0
LINE
  5
2BA
330
1F
100
AcDbEntity
  8
TRMODEL1
  6
Continuous
 62
     2
100
AcDbLine
 10
4.6853580039
 20
20.5716004908
 30
0.0
 11
4.6899280314
 21
20.5719024094
 31
0.0
  0
LINE
  5
2BB
330
1F
100
AcDbEntity
  8
TRMODEL1
  6
Continuous
 62
     2
100
AcDbLine
 10
4.6899280314
 20
20.5719024094
 30
0.0
 11
4.694480286
 21
20.5722834425
 31
0.0
  0
LINE
  5
2BC
330
1F
100
AcDbEntity
  8
TRMODEL1
  6
Continuous
 62
     2
100
AcDbLine
 10
4.694480286
 20
20.5722834425
 30
0.0
 11
4.699010659
 21
20.5727432463
 31
0.0
  0
LINE
  5
2BD
330
1F
100
AcDbEntity
  8
TRMODEL1
  6
Continuous
 62
     2
100
AcDbLine
 10
4.699010659
 20
20.5727432463
 30
0.0
 11
4.7035150613
 21
20.5732814058
 31
0.0
  0
LINE
  5
2BE
330
1F
100
AcDbEntity
  8
TRMODEL1
  6
Continuous
 62
     2
100
AcDbLine
 10
4.7035150613
 20
20.5732814058
 30
0.0
 11
4.7079894275
 21
20.5738974351
 31
0.0
  0
LINE
  5
2BF
330
1F
100
AcDbEntity
  8
TRMODEL1
  6
Continuous
 62
     2
100
AcDbLine
 10
4.7079894275
 20
20.5738974351
 30
0.0
 11
4.712429719
 21
20.5745907783
 31
0.0
  0
LINE
  5
2C0
330
1F
100
AcDbEntity
  8
TRMODEL1
  6
Continuous
 62
     2
100
AcDbLine
 10
4.712429719
 20
20.5745907783
 30
0.0
 11
4.7168319281
 21
20.5753608096
 31
0.0
  0
LINE
  5
2C1
330
1F
100
AcDbEntity
  8
TRMODEL1
  6
Continuous
 62
     2
100
AcDbLine
 10
4.6807743282
 20
20.5713779592
 30
0.0
 11
4.7276377501
 21
20.5761360216
 31
0.0
  0
LINE
  5
2C2
330
1F
100
AcDbEntity
  8
TRMODEL1
  6
Continuous
 62
     2
100
AcDbLine
 10
4.7276377501
 20
20.5761360216
 30
0.0
 11
4.764481647
 21
20.589006406
 31
0.0
  0
LINE
  5
2C3
330
1F
100
AcDbEntity
  8
TRMODEL1
  6
Continuous
 62
     2
100
AcDbLine
 10
4.764481647
 20
20.589006406
 30
0.0
 11
4.766323868
 21
20.5905392658
 31
0.0
  0
LINE
  5
2C4
330
1F
100
AcDbEntity
  8
TRMODEL1
  6
Continuous
 62
     2
100
AcDbLine
 10
4.7168319281
 20
20.5753608096
 30
0.0
 11
4.6658260687
 21
20.5738877986
 31
0.0
  0
LINE
  5
2C5
330
1F
100
AcDbEntity
  8
TRMODEL1
  6
Continuous
 62
     2
100
AcDbLine
 10
4.6658260687
 20
20.5738877986
 30
0.0
 11
4.6153192403
 21
20.5824333134
 31
0.0
  0
LINE
  5
2C6
330
1F
100
AcDbEntity
  8
TRMODEL1
  6
Continuous
 62
     2
100
AcDbLine
 10
4.6153192403
 20
20.5824333134
 30
0.0
 11
4.5710250295
 21
20.6002972287
 31
0.0
  0
LINE
  5
2C7
330
1F
100
AcDbEntity
  8
TRMODEL1
  6
Continuous
 62
     2
100
AcDbLine
 10
4.5710250295
 20
20.6002972287
 30
0.0
 11
4.5379648299
 21
20.6258032202
 31
0.0
  0
LINE
  5
2C8
330
1F
100
AcDbEntity
  8
TRMODEL1
  6
Continuous
 62
     2
100
AcDbLine
 10
4.5379648299
 20
20.6258032202
 30
0.0
 11
4.5198753638
 21
20.6563296365
 31
0.0
  0
LINE
  5
2C9
330
1F
100
AcDbEntity
  8
TRMODEL1
  6
Continuous
 62
     2
100
AcDbLine
 10
4.5198753638
 20
20.6563296365
 30
0.0
 11
4.5188072136
 21
20.6887591676
 31
0.0
  0
LINE
  5
2CA
330
1F
100
AcDbEntity
  8
TRMODEL1
  6
Continuous
 62
     2
100
AcDbLine
 10
4.5188072136
 20
20.6887591676
 30
0.0
 11
4.5348807414
 21
20.7196998575
 31
0.0
  0
LINE
  5
2CB
330
1F
100
AcDbEntity
  8
TRMODEL1
  6
Continuous
 62
     2
100
AcDbLine
 10
4.5189714552
 20
20.7226958955
 30
0.0
 11
4.5213363705
 21
20.7001642589
 31
0.0
  0
LINE
  5
2CC
330
1F
100
AcDbEntity
  8
TRMODEL1
  6
Continuous
 62
     2
100
AcDbLine
 10
4.5213363705
 20
20.7001642589
 30
0.0
 11
4.5415899117
 21
20.6701389174
 31
0.0
  0
LINE
  5
2CD
330
1F
100
AcDbEntity
  8
TRMODEL1
  6
Continuous
 62
     2
100
AcDbLine
 10
4.5415899117
 20
20.6701389174
 30
0.0
 11
4.5764038652
 21
20.6455193157
 31
0.0
  0
LINE
  5
2CE
330
1F
100
AcDbEntity
  8
TRMODEL1
  6
Continuous
 62
     2
100
AcDbLine
 10
4.5764038652
 20
20.6455193157
 30
0.0
 11
4.6218428435
 21
20.6288273884
 31
0.0
  0
LINE
  5
2CF
330
1F
100
AcDbEntity
  8
TRMODEL1
  6
Continuous
 62
     2
100
AcDbLine
 10
4.6218428435
 20
20.6288273884
 30
0.0
 11
4.6727559365
 21
20.6216092521
 31
0.0
  0
LINE
  5
2D0
330
1F
100
AcDbEntity
  8
TRMODEL1
  6
Continuous
 62
     2
100
AcDbLine
 10
4.6727559365
 20
20.6216092521
 30
0.0
 11
4.7233872471
 21
20.6244082643
 31
0.0
  0
LINE
  5
2D1
330
1F
100
AcDbEntity
  8
TRMODEL1
  6
Continuous
 62
     2
100
AcDbLine
 10
4.7233872471
 20
20.6244082643
 30
0.0
 11
4.7680001802
 21
20.6365846386
 31
0.0
  0
LINE
  5
2D2
330
1F
100
AcDbEntity
  8
TRMODEL1
  6
Continuous
 62
     2
100
AcDbLine
 10
4.7680001802
 20
20.6365846386
 30
0.0
 11
4.8015468945
 21
20.6564589309
 31
0.0
  0
LINE
  5
2D3
330
1F
100
AcDbEntity
  8
TRMODEL1
  6
Continuous
 62
     2
100
AcDbLine
 10
4.8015468945
 20
20.6564589309
 30
0.0
 11
4.8202299343
 21
20.681488219
 31
0.0
  0
LINE
  5
2D4
330
1F
100
AcDbEntity
  8
TRMODEL1
  6
Continuous
 62
     2
100
AcDbLine
 10
4.8202299343
 20
20.681488219
 30
0.0
 11
4.8212494773
 21
20.6976548239
 31
0.0
  0
LINE
  5
2D5
330
1F
100
AcDbEntity
  8
TRMODEL1
  6
Continuous
 62
     2
100
AcDbLine
 10
4.5179658427
 20
20.6725415023
 30
0.0
 11
4.517230886
 21
20.6690575814
 31
0.0
  0
LINE
  5
2D6
330
1F
100
AcDbEntity
  8
TRMODEL1
  6
Continuous
 62
     2
100
AcDbLine
 10
4.517230886
 20
20.6690575814
 30
0.0
 11
4.5277622741
 21
20.6372689144
 31
0.0
  0
LINE
  5
2D7
330
1F
100
AcDbEntity
  8
TRMODEL1
  6
Continuous
 62
     2
100
AcDbLine
 10
4.5277622741
 20
20.6372689144
 30
0.0
 11
4.5544196963
 21
20.6091225362
 31
0.0
  0
LINE
  5
2D8
330
1F
100
AcDbEntity
  8
TRMODEL1
  6
Continuous
 62
     2
100
AcDbLine
 10
4.5544196963
 20
20.6091225362
 30
0.0
 11
4.5941899317
 21
20.5875369668
 31
0.0
  0
LINE
  5
2D9
330
1F
100
AcDbEntity
  8
TRMODEL1
  6
Continuous
 62
     2
100
AcDbLine
 10
4.5941899317
 20
20.5875369668
 30
0.0
 11
4.6425659568
 21
20.5746243287
 31
0.0
  0
LINE
  5
2DA
330
1F
100
AcDbEntity
  8
TRMODEL1
  6
Continuous
 62
     2
100
AcDbLine
 10
4.6425659568
 20
20.5746243287
 30
0.0
 11
4.6807743282
 21
20.5713779592
 31
0.0
  0
LINE
  5
2DB
330
1F
100
AcDbEntity
  8
TRMODEL1
  6
Continuous
 62
     2
100
AcDbLine
 10
4.8099391768
 20
20.6677019006
 30
0.0
 11
4.8156085708
 21
20.6522074361
 31
0.0
  0
LINE
  5
2DC
330
1F
100
AcDbEntity
  8
TRMODEL1
  6
Continuous
 62
     2
100
AcDbLine
 10
4.8156085708
 20
20.6522074361
 30
0.0
 11
4.8090017765
 21
20.6261567452
 31
0.0
  0
LINE
  5
2DD
330
1F
100
AcDbEntity
  8
TRMODEL1
  6
Continuous
 62
     2
100
AcDbLine
 10
4.8090017765
 20
20.6261567452
 30
0.0
 11
4.786746105
 21
20.6025302865
 31
0.0
  0
LINE
  5
2DE
330
1F
100
AcDbEntity
  8
TRMODEL1
  6
Continuous
 62
     2
100
AcDbLine
 10
4.786746105
 20
20.6025302865
 30
0.0
 11
4.7509401202
 21
20.5842319325
 31
0.0
  0
LINE
  5
2DF
330
1F
100
AcDbEntity
  8
TRMODEL1
  6
Continuous
 62
     2
100
AcDbLine
 10
4.7509401202
 20
20.5842319325
 30
0.0
 11
4.7168319281
 21
20.5753608096
 31
0.0
  0
LINE
  5
2E0
330
1F
100
AcDbEntity
  8
TRMODEL1
  6
Continuous
 62
     2
100
AcDbLine
 10
4.779817839
 20
20.5978168143
 30
0.0
 11
4.7665798488
 21
20.5901722011
 31
0.0
  0
LINE
  5
2E1
330
1F
100
AcDbEntity
  8
TRMODEL1
  6
Continuous
 62
     2
100
AcDbLine
 10
6.8171508614
 20
17.0571774997
 30
0.0
 11
6.8171508614
 21
17.7571774997
 31
0.0
  0
LINE
  5
2E2
330
1F
100
AcDbEntity
  8
TRMODEL1
  6
Continuous
 62
     2
100
AcDbLine
 10
5.8642602174
 20
17.6072695595
 30
0.0
 11
5.9943727636
 21
17.5321571854
 31
0.0
  0
LINE
  5
2E3
330
1F
100
AcDbEntity
  8
TRMODEL1
  6
Continuous
 62
     2
100
AcDbLine
 10
5.8642602174
 20
18.3072695595
 30
0.0
 11
5.8642602174
 21
17.6072695595
 31
0.0
  0
LINE
  5
2E4
330
1F
100
AcDbEntity
  8
TRMODEL1
  6
Continuous
 62
     2
100
AcDbLine
 10
6.0807548404
 20
18.4322492451
 30
0.0
 11
5.8642602174
 21
18.3072695595
 31
0.0
  0
LINE
  5
2E5
330
1F
100
AcDbEntity
  8
TRMODEL1
  6
Continuous
 62
     2
100
AcDbLine
 10
6.0807548404
 20
18.4322492451
 30
0.0
 11
6.8171508614
 21
18.007136871
 31
0.0
  0
LINE
  5
2E6
330
1F
100
AcDbEntity
  8
TRMODEL1
  6
Continuous
 62
     2
100
AcDbLine
 10
5.8642602174
 20
18.3072695595
 30
0.0
 11
6.6006562383
 21
17.8821571854
 31
0.0
  0
LINE
  5
2E7
330
1F
100
AcDbEntity
  8
TRMODEL1
  6
Continuous
 62
     2
100
AcDbLine
 10
8.3326132229
 20
17.1322790716
 30
0.0
 11
9.4150863383
 21
16.5073806434
 31
0.0
  0
LINE
  5
2E8
330
1F
100
AcDbEntity
  8
TRMODEL1
  6
Continuous
 62
     2
100
AcDbLine
 10
8.1161185998
 20
17.0072993859
 30
0.0
 11
9.1985917152
 21
16.3824009578
 31
0.0
  0
LINE
  5
2E9
330
1F
100
AcDbEntity
  8
TRMODEL1
  6
Continuous
 62
     2
100
AcDbLine
 10
7.2501401075
 20
13.7578275594
 30
0.0
 11
10.4975594537
 21
15.6325228439
 31
0.0
  0
LINE
  5
2EA
330
1F
100
AcDbEntity
  8
TRMODEL1
  6
Continuous
 62
     2
100
AcDbLine
 10
8.1161185998
 20
16.3072993859
 30
0.0
 11
8.1161185998
 21
17.0072993859
 31
0.0
  0
LINE
  5
2EB
330
1F
100
AcDbEntity
  8
TRMODEL1
  6
Continuous
 62
     2
100
AcDbLine
 10
8.1161185998
 20
16.3072993859
 30
0.0
 11
8.5923082405
 21
16.0324009578
 31
0.0
  0
LINE
  5
2EC
330
1F
100
AcDbEntity
  8
TRMODEL1
  6
Continuous
 62
     2
100
AcDbLine
 10
9.4150863383
 20
15.5574212721
 30
0.0
 11
9.891275979
 21
15.2825228439
 31
0.0
  0
LINE
  5
2ED
330
1F
100
AcDbEntity
  8
TRMODEL1
  6
Continuous
 62
     2
100
AcDbLine
 10
9.4150863383
 20
16.2574212721
 30
0.0
 11
10.4975594537
 21
15.6325228439
 31
0.0
  0
LINE
  5
2EE
330
1F
100
AcDbEntity
  8
TRMODEL1
  6
Continuous
 62
     2
100
AcDbLine
 10
9.4150863383
 20
15.5574212721
 30
0.0
 11
9.4150863383
 21
16.2574212721
 31
0.0
  0
LINE
  5
2EF
330
1F
100
AcDbEntity
  8
TRMODEL1
  6
Continuous
 62
     2
100
AcDbLine
 10
8.1161185998
 20
17.2572587572
 30
0.0
 11
10.4334981251
 21
18.5950534814
 31
0.0
  0
LINE
  5
2F0
330
1F
100
AcDbEntity
  8
TRMODEL1
  6
Continuous
 62
     2
100
AcDbLine
 10
9.3510250097
 20
19.2199519095
 30
0.0
 11
9.3510250097
 21
17.9701550532
 31
0.0
  0
LINE
  5
2F1
330
1F
100
AcDbEntity
  8
TRMODEL1
  6
Continuous
 62
     2
100
AcDbLine
 10
9.1345303866
 20
19.3449315952
 30
0.0
 11
9.3510250097
 21
19.2199519095
 31
0.0
  0
LINE
  5
2F2
330
1F
100
AcDbEntity
  8
TRMODEL1
  6
Continuous
 62
     2
100
AcDbLine
 10
10.6403473748
 20
10.3007025626
 30
0.0
 11
10.6403473748
 21
11.8007025626
 31
0.0
  0
LINE
  5
2F3
330
1F
100
AcDbEntity
  8
TRMODEL1
  6
Continuous
 62
     2
100
AcDbLine
 10
10.6403473748
 20
10.9654807297
 30
0.0
 11
11.7983128841
 21
11.6339599892
 31
0.0
  0
LINE
  5
2F4
330
1F
100
AcDbEntity
  8
TRMODEL1
  6
Continuous
 62
     2
100
AcDbLine
 10
11.1281130759
 20
14.6390459773
 30
0.0
 11
11.2835168513
 21
14.9082132122
 31
0.0
  0
LINE
  5
2F5
330
1F
100
AcDbEntity
  8
TRMODEL1
  6
Continuous
 62
     2
100
AcDbLine
 10
11.0670222283
 20
14.7832335254
 30
0.0
 11
11.2835168513
 21
15.1582132122
 31
0.0
  0
LINE
  5
2F6
330
1F
100
AcDbEntity
  8
TRMODEL1
  6
Continuous
 62
     2
100
AcDbLine
 10
11.0670222283
 20
15.0332335254
 30
0.0
 11
11.2835168513
 21
15.4082132122
 31
0.0
  0
LINE
  5
2F7
330
1F
100
AcDbEntity
  8
TRMODEL1
  6
Continuous
 62
     2
100
AcDbLine
 10
11.0670222283
 20
15.2832335254
 30
0.0
 11
11.0848141514
 21
15.3140500403
 31
0.0
  0
LINE
  5
2F8
330
1F
100
AcDbEntity
  8
TRMODEL1
  6
Continuous
 62
     2
100
AcDbLine
 10
11.3487254303
 20
14.6241342755
 30
0.0
 11
11.5652200533
 21
14.4991545899
 31
0.0
  0
LINE
  5
2F9
330
1F
100
AcDbEntity
  8
TRMODEL1
  6
Continuous
 62
     2
100
AcDbLine
 10
11.0670222283
 20
15.3037789817
 30
0.0
 11
11.2835168513
 21
15.4287586673
 31
0.0
  0
LINE
  5
2FA
330
1F
100
AcDbEntity
  8
TRMODEL1
  6
Continuous
 62
     2
100
AcDbLine
 10
11.2835168513
 20
14.7287586673
 30
0.0
 11
11.2835168513
 21
15.4287586673
 31
0.0
  0
LINE
  5
2FB
330
1F
100
AcDbEntity
  8
TRMODEL1
  6
Continuous
 62
     2
100
AcDbLine
 10
11.0670222283
 20
15.3037789817
 30
0.0
 11
11.0670222283
 21
14.6037789817
 31
0.0
  0
LINE
  5
2FC
330
1F
100
AcDbEntity
  8
TRMODEL1
  6
Continuous
 62
     2
100
AcDbLine
 10
11.0670222283
 20
14.6037789817
 30
0.0
 11
11.2835168513
 21
14.7287586673
 31
0.0
  0
LINE
  5
2FD
330
1F
100
AcDbEntity
  8
TRMODEL1
  6
Continuous
 62
     2
100
AcDbLine
 10
10.9305486998
 20
15.6325228439
 30
0.0
 11
11.2835168513
 21
15.4287586673
 31
0.0
  0
LINE
  5
2FE
330
1F
100
AcDbEntity
  8
TRMODEL1
  6
Continuous
 62
     2
100
AcDbLine
 10
10.7140540768
 20
14.8075431583
 30
0.0
 11
10.7140540768
 21
15.5075431583
 31
0.0
  0
LINE
  5
2FF
330
1F
100
AcDbEntity
  8
TRMODEL1
  6
Continuous
 62
     2
100
AcDbLine
 10
10.7140540768
 20
15.5075431583
 30
0.0
 11
11.0670222283
 21
15.3037789817
 31
0.0
  0
LINE
  5
300
330
1F
100
AcDbEntity
  8
TRMODEL1
  6
Continuous
 62
     2
100
AcDbLine
 10
10.7140540768
 20
14.8075431583
 30
0.0
 11
11.0670222283
 21
14.6037789817
 31
0.0
  0
LINE
  5
301
330
1F
100
AcDbEntity
  8
TRMODEL1
  6
Continuous
 62
     2
100
AcDbLine
 10
10.9305486998
 20
15.6325228439
 30
0.0
 11
11.7038763379
 21
16.0789553868
 31
0.0
  0
LINE
  5
302
330
1F
100
AcDbEntity
  8
TRMODEL1
  6
Continuous
 62
     2
100
AcDbLine
 10
10.7140540768
 20
15.7575025296
 30
0.0
 11
11.4873817148
 21
16.2039350724
 31
0.0
  0
LINE
  5
303
330
1F
100
AcDbEntity
  8
TRMODEL1
  6
Continuous
 62
     2
100
AcDbLine
 10
10.6499927482
 20
18.4700737957
 30
0.0
 11
10.6499927482
 21
17.2202769394
 31
0.0
  0
LINE
  5
304
330
1F
100
AcDbEntity
  8
TRMODEL1
  6
Continuous
 62
     2
100
AcDbLine
 10
4.7503134296
 20
22.6980991529
 30
0.0
 11
4.7779920342
 21
22.6888204489
 31
0.0
  0
LINE
  5
305
330
1F
100
AcDbEntity
  8
TRMODEL1
  6
Continuous
 62
     2
100
AcDbLine
 10
4.7779920342
 20
22.6888204489
 30
0.0
 11
4.85063318
 21
22.6558517953
 31
0.0
  0
LINE
  5
306
330
1F
100
AcDbEntity
  8
TRMODEL1
  6
Continuous
 62
     2
100
AcDbLine
 10
4.85063318
 20
22.6558517953
 30
0.0
 11
4.9256495485
 21
22.6066586078
 31
0.0
  0
LINE
  5
307
330
1F
100
AcDbEntity
  8
TRMODEL1
  6
Continuous
 62
     2
100
AcDbLine
 10
4.9256495485
 20
22.6066586078
 30
0.0
 11
4.9690871385
 21
22.571803779
 31
0.0
  0
LINE
  5
308
330
1F
100
AcDbEntity
  8
TRMODEL1
  6
Continuous
 62
     2
100
AcDbLine
 10
4.8983710854
 20
22.2989623407
 30
0.0
 11
4.9022812541
 21
22.3027465636
 31
0.0
  0
LINE
  5
309
330
1F
100
AcDbEntity
  8
TRMODEL1
  6
Continuous
 62
     2
100
AcDbLine
 10
4.9022812541
 20
22.3027465636
 30
0.0
 11
4.9290487709
 21
22.34005234
 31
0.0
  0
LINE
  5
30A
330
1F
100
AcDbEntity
  8
TRMODEL1
  6
Continuous
 62
     2
100
AcDbLine
 10
4.9290487709
 20
22.34005234
 30
0.0
 11
4.9381786724
 21
22.3800863694
 31
0.0
  0
LINE
  5
30B
330
1F
100
AcDbEntity
  8
TRMODEL1
  6
Continuous
 62
     2
100
AcDbLine
 10
4.8890104034
 20
22.2787950595
 30
0.0
 11
4.9290487709
 21
22.3650564041
 31
0.0
  0
LINE
  5
30C
330
1F
100
AcDbEntity
  8
TRMODEL1
  6
Continuous
 62
     2
100
AcDbLine
 10
4.8890104034
 20
22.2787950595
 30
0.0
 11
4.8890104034
 21
22.3992810899
 31
0.0
  0
LINE
  5
30D
330
1F
100
AcDbEntity
  8
TRMODEL1
  6
Continuous
 62
     2
100
AcDbLine
 10
4.7395851813
 20
22.2556814019
 30
0.0
 11
4.8890104034
 21
22.2787950595
 31
0.0
  0
LINE
  5
30E
330
1F
100
AcDbEntity
  8
TRMODEL1
  6
Continuous
 62
     2
100
AcDbLine
 10
4.9690871385
 20
22.571803779
 30
0.0
 11
4.9403708583
 21
22.5243675124
 31
0.0
  0
LINE
  5
30F
330
1F
100
AcDbEntity
  8
TRMODEL1
  6
Continuous
 62
     2
100
AcDbLine
 10
4.9403708583
 20
22.5243675124
 30
0.0
 11
4.9104205599
 21
22.4575747402
 31
0.0
  0
LINE
  5
310
330
1F
100
AcDbEntity
  8
TRMODEL1
  6
Continuous
 62
     2
100
AcDbLine
 10
4.9104205599
 20
22.4575747402
 30
0.0
 11
4.8890104034
 21
22.3992810899
 31
0.0
  0
LINE
  5
311
330
1F
100
AcDbEntity
  8
TRMODEL1
  6
Continuous
 62
     2
100
AcDbLine
 10
4.9690871385
 20
22.4513177486
 30
0.0
 11
4.9690871385
 21
22.571803779
 31
0.0
  0
LINE
  5
312
330
1F
100
AcDbEntity
  8
TRMODEL1
  6
Continuous
 62
     2
100
AcDbLine
 10
4.9290487709
 20
22.3650564041
 30
0.0
 11
4.9690871385
 21
22.4513177486
 31
0.0
  0
LINE
  5
313
330
1F
100
AcDbEntity
  8
TRMODEL1
  6
Continuous
 62
     2
100
AcDbLine
 10
4.4514629854
 20
22.6518718377
 30
0.0
 11
4.5586336024
 21
22.682881407
 31
0.0
  0
LINE
  5
314
330
1F
100
AcDbEntity
  8
TRMODEL1
  6
Continuous
 62
     2
100
AcDbLine
 10
4.5586336024
 20
22.682881407
 30
0.0
 11
4.6704096377
 21
22.6979055058
 31
0.0
  0
LINE
  5
315
330
1F
100
AcDbEntity
  8
TRMODEL1
  6
Continuous
 62
     2
100
AcDbLine
 10
4.6704096377
 20
22.6979055058
 30
0.0
 11
4.7503134296
 21
22.6980991529
 31
0.0
  0
LINE
  5
316
330
1F
100
AcDbEntity
  8
TRMODEL1
  6
Continuous
 62
     2
100
AcDbLine
 10
4.4840297847
 20
22.6506078277
 30
0.0
 11
4.4421807367
 21
22.6191232826
 31
0.0
  0
LINE
  5
317
330
1F
100
AcDbEntity
  8
TRMODEL1
  6
Continuous
 62
     2
100
AcDbLine
 10
4.4421807367
 20
22.6191232826
 30
0.0
 11
4.4158733254
 21
22.5824587533
 31
0.0
  0
LINE
  5
318
330
1F
100
AcDbEntity
  8
TRMODEL1
  6
Continuous
 62
     2
100
AcDbLine
 10
4.4158733254
 20
22.5824587533
 30
0.0
 11
4.4069003573
 21
22.5431128669
 31
0.0
  0
LINE
  5
319
330
1F
100
AcDbEntity
  8
TRMODEL1
  6
Continuous
 62
     2
100
AcDbLine
 10
4.4069003573
 20
22.5431128669
 30
0.0
 11
4.4158733254
 21
22.5037669804
 31
0.0
  0
LINE
  5
31A
330
1F
100
AcDbEntity
  8
TRMODEL1
  6
Continuous
 62
     2
100
AcDbLine
 10
4.4158733254
 20
22.5037669804
 30
0.0
 11
4.4421807367
 21
22.4671024511
 31
0.0
  0
LINE
  5
31B
330
1F
100
AcDbEntity
  8
TRMODEL1
  6
Continuous
 62
     2
100
AcDbLine
 10
4.4421807367
 20
22.4671024511
 30
0.0
 11
4.4840297847
 21
22.435617906
 31
0.0
  0
LINE
  5
31C
330
1F
100
AcDbEntity
  8
TRMODEL1
  6
Continuous
 62
     2
100
AcDbLine
 10
4.4840297847
 20
22.435617906
 30
0.0
 11
4.5385685258
 21
22.4114589648
 31
0.0
  0
LINE
  5
31D
330
1F
100
AcDbEntity
  8
TRMODEL1
  6
Continuous
 62
     2
100
AcDbLine
 10
4.5385685258
 20
22.4114589648
 30
0.0
 11
4.6020802351
 21
22.3962720195
 31
0.0
  0
LINE
  5
31E
330
1F
100
AcDbEntity
  8
TRMODEL1
  6
Continuous
 62
     2
100
AcDbLine
 10
4.6020802351
 20
22.3962720195
 30
0.0
 11
4.6702366944
 21
22.3910920353
 31
0.0
  0
LINE
  5
31F
330
1F
100
AcDbEntity
  8
TRMODEL1
  6
Continuous
 62
     2
100
AcDbLine
 10
4.6702366944
 20
22.3910920353
 30
0.0
 11
4.7383931537
 21
22.3962720195
 31
0.0
  0
LINE
  5
320
330
1F
100
AcDbEntity
  8
TRMODEL1
  6
Continuous
 62
     2
100
AcDbLine
 10
4.7383931537
 20
22.3962720195
 30
0.0
 11
4.801904863
 21
22.4114589648
 31
0.0
  0
LINE
  5
321
330
1F
100
AcDbEntity
  8
TRMODEL1
  6
Continuous
 62
     2
100
AcDbLine
 10
4.801904863
 20
22.4114589648
 30
0.0
 11
4.8564436041
 21
22.435617906
 31
0.0
  0
LINE
  5
322
330
1F
100
AcDbEntity
  8
TRMODEL1
  6
Continuous
 62
     2
100
AcDbLine
 10
4.8564436041
 20
22.435617906
 30
0.0
 11
4.8982926521
 21
22.4671024511
 31
0.0
  0
LINE
  5
323
330
1F
100
AcDbEntity
  8
TRMODEL1
  6
Continuous
 62
     2
100
AcDbLine
 10
4.8982926521
 20
22.4671024511
 30
0.0
 11
4.9246000634
 21
22.5037669804
 31
0.0
  0
LINE
  5
324
330
1F
100
AcDbEntity
  8
TRMODEL1
  6
Continuous
 62
     2
100
AcDbLine
 10
4.9246000634
 20
22.5037669804
 30
0.0
 11
4.9335730315
 21
22.5431128669
 31
0.0
  0
LINE
  5
325
330
1F
100
AcDbEntity
  8
TRMODEL1
  6
Continuous
 62
     2
100
AcDbLine
 10
4.9335730315
 20
22.5431128669
 30
0.0
 11
4.9246000634
 21
22.5824587533
 31
0.0
  0
LINE
  5
326
330
1F
100
AcDbEntity
  8
TRMODEL1
  6
Continuous
 62
     2
100
AcDbLine
 10
4.9246000634
 20
22.5824587533
 30
0.0
 11
4.8982926521
 21
22.6191232826
 31
0.0
  0
LINE
  5
327
330
1F
100
AcDbEntity
  8
TRMODEL1
  6
Continuous
 62
     2
100
AcDbLine
 10
4.8982926521
 20
22.6191232826
 30
0.0
 11
4.8564436041
 21
22.6506078277
 31
0.0
  0
LINE
  5
328
330
1F
100
AcDbEntity
  8
TRMODEL1
  6
Continuous
 62
     2
100
AcDbLine
 10
4.8564436041
 20
22.6506078277
 30
0.0
 11
4.801904863
 21
22.6747667689
 31
0.0
  0
LINE
  5
329
330
1F
100
AcDbEntity
  8
TRMODEL1
  6
Continuous
 62
     2
100
AcDbLine
 10
4.801904863
 20
22.6747667689
 30
0.0
 11
4.7383931537
 21
22.6899537142
 31
0.0
  0
LINE
  5
32A
330
1F
100
AcDbEntity
  8
TRMODEL1
  6
Continuous
 62
     2
100
AcDbLine
 10
4.7383931537
 20
22.6899537142
 30
0.0
 11
4.6702366944
 21
22.6951336984
 31
0.0
  0
LINE
  5
32B
330
1F
100
AcDbEntity
  8
TRMODEL1
  6
Continuous
 62
     2
100
AcDbLine
 10
4.6702366944
 20
22.6951336984
 30
0.0
 11
4.6020802351
 21
22.6899537142
 31
0.0
  0
LINE
  5
32C
330
1F
100
AcDbEntity
  8
TRMODEL1
  6
Continuous
 62
     2
100
AcDbLine
 10
4.6020802351
 20
22.6899537142
 30
0.0
 11
4.5385685258
 21
22.6747667689
 31
0.0
  0
LINE
  5
32D
330
1F
100
AcDbEntity
  8
TRMODEL1
  6
Continuous
 62
     2
100
AcDbLine
 10
4.5385685258
 20
22.6747667689
 30
0.0
 11
4.4840297847
 21
22.6506078277
 31
0.0
  0
LINE
  5
32E
330
1F
100
AcDbEntity
  8
TRMODEL1
  6
Continuous
 62
     2
100
AcDbLine
 10
4.3713862503
 20
22.4793491486
 30
0.0
 11
4.4001025305
 21
22.5556494424
 31
0.0
  0
LINE
  5
32F
330
1F
100
AcDbEntity
  8
TRMODEL1
  6
Continuous
 62
     2
100
AcDbLine
 10
4.4001025305
 20
22.5556494424
 30
0.0
 11
4.4300528289
 21
22.6179105337
 31
0.0
  0
LINE
  5
330
330
1F
100
AcDbEntity
  8
TRMODEL1
  6
Continuous
 62
     2
100
AcDbLine
 10
4.4300528289
 20
22.6179105337
 30
0.0
 11
4.4514629854
 21
22.6518718377
 31
0.0
  0
LINE
  5
331
330
1F
100
AcDbEntity
  8
TRMODEL1
  6
Continuous
 62
     2
100
AcDbLine
 10
4.5901599592
 20
22.3530537746
 30
0.0
 11
4.5467223692
 21
22.3879086034
 31
0.0
  0
LINE
  5
332
330
1F
100
AcDbEntity
  8
TRMODEL1
  6
Continuous
 62
     2
100
AcDbLine
 10
4.5467223692
 20
22.3879086034
 30
0.0
 11
4.4738860469
 21
22.4358926578
 31
0.0
  0
LINE
  5
333
330
1F
100
AcDbEntity
  8
TRMODEL1
  6
Continuous
 62
     2
100
AcDbLine
 10
4.4738860469
 20
22.4358926578
 30
0.0
 11
4.3990648549
 21
22.4700704445
 31
0.0
  0
LINE
  5
334
330
1F
100
AcDbEntity
  8
TRMODEL1
  6
Continuous
 62
     2
100
AcDbLine
 10
4.3990648549
 20
22.4700704445
 30
0.0
 11
4.3713862503
 21
22.4793491486
 31
0.0
  0
LINE
  5
335
330
1F
100
AcDbEntity
  8
TRMODEL1
  6
Continuous
 62
     2
100
AcDbLine
 10
4.3713862503
 20
22.3588631182
 30
0.0
 11
4.3713862503
 21
22.4793491486
 31
0.0
  0
LINE
  5
336
330
1F
100
AcDbEntity
  8
TRMODEL1
  6
Continuous
 62
     2
100
AcDbLine
 10
4.4807731048
 20
22.2957154312
 30
0.0
 11
4.5901599592
 21
22.2325677443
 31
0.0
  0
LINE
  5
337
330
1F
100
AcDbEntity
  8
TRMODEL1
  6
Continuous
 62
     2
100
AcDbLine
 10
4.3713862503
 20
22.3588631182
 30
0.0
 11
4.4807731048
 21
22.2957154312
 31
0.0
  0
LINE
  5
338
330
1F
100
AcDbEntity
  8
TRMODEL1
  6
Continuous
 62
     2
100
AcDbLine
 10
4.5901599592
 20
22.2325677443
 30
0.0
 11
4.5901599592
 21
22.3530537746
 31
0.0
  0
LINE
  5
339
330
1F
100
AcDbEntity
  8
TRMODEL1
  6
Continuous
 62
     2
100
AcDbLine
 10
4.8890104034
 20
22.3992810899
 30
0.0
 11
4.7818397864
 21
22.3971355478
 31
0.0
  0
LINE
  5
33A
330
1F
100
AcDbEntity
  8
TRMODEL1
  6
Continuous
 62
     2
100
AcDbLine
 10
4.7818397864
 20
22.3971355478
 30
0.0
 11
4.6700637511
 21
22.3775797681
 31
0.0
  0
LINE
  5
33B
330
1F
100
AcDbEntity
  8
TRMODEL1
  6
Continuous
 62
     2
100
AcDbLine
 10
4.6700637511
 20
22.3775797681
 30
0.0
 11
4.5901599592
 21
22.3530537746
 31
0.0
  0
LINE
  5
33C
330
1F
100
AcDbEntity
  8
TRMODEL1
  6
Continuous
 62
     2
100
AcDbLine
 10
4.414468064
 20
22.3339925165
 30
0.0
 11
4.4381921347
 21
22.3027465636
 31
0.0
  0
LINE
  5
33D
330
1F
100
AcDbEntity
  8
TRMODEL1
  6
Continuous
 62
     2
100
AcDbLine
 10
4.4381921347
 20
22.3027465636
 30
0.0
 11
4.4807731048
 21
22.2707113672
 31
0.0
  0
LINE
  5
33E
330
1F
100
AcDbEntity
  8
TRMODEL1
  6
Continuous
 62
     2
100
AcDbLine
 10
4.4807731048
 20
22.2707113672
 30
0.0
 11
4.5362657054
 21
22.2461298964
 31
0.0
  0
LINE
  5
33F
330
1F
100
AcDbEntity
  8
TRMODEL1
  6
Continuous
 62
     2
100
AcDbLine
 10
4.5362657054
 20
22.2461298964
 30
0.0
 11
4.6008882075
 21
22.2306773378
 31
0.0
  0
LINE
  5
340
330
1F
100
AcDbEntity
  8
TRMODEL1
  6
Continuous
 62
     2
100
AcDbLine
 10
4.6008882075
 20
22.2306773378
 30
0.0
 11
4.6702366944
 21
22.2254067579
 31
0.0
  0
LINE
  5
341
330
1F
100
AcDbEntity
  8
TRMODEL1
  6
Continuous
 62
     2
100
AcDbLine
 10
4.6702366944
 20
22.2254067579
 30
0.0
 11
4.7395851813
 21
22.2306773378
 31
0.0
  0
LINE
  5
342
330
1F
100
AcDbEntity
  8
TRMODEL1
  6
Continuous
 62
     2
100
AcDbLine
 10
4.7395851813
 20
22.2306773378
 30
0.0
 11
4.8042076834
 21
22.2461298964
 31
0.0
  0
LINE
  5
343
330
1F
100
AcDbEntity
  8
TRMODEL1
  6
Continuous
 62
     2
100
AcDbLine
 10
4.8042076834
 20
22.2461298964
 30
0.0
 11
4.859700284
 21
22.2707113672
 31
0.0
  0
LINE
  5
344
330
1F
100
AcDbEntity
  8
TRMODEL1
  6
Continuous
 62
     2
100
AcDbLine
 10
4.859700284
 20
22.2707113672
 30
0.0
 11
4.8676270667
 21
22.2754874042
 31
0.0
  0
LINE
  5
345
330
1F
100
AcDbEntity
  8
TRMODEL1
  6
Continuous
 62
     2
100
AcDbLine
 10
4.5901599592
 20
22.2325677443
 30
0.0
 11
4.7395851813
 21
22.2556814019
 31
0.0
  0
LINE
  5
346
330
1F
100
AcDbEntity
  8
TRMODEL1
  6
Continuous
 62
     2
100
AcDbLine
 10
4.5171269927
 20
21.3727280872
 30
0.0
 11
4.5171269927
 21
22.2531482667
 31
0.0
  0
LINE
  5
347
330
1F
100
AcDbEntity
  8
TRMODEL1
  6
Continuous
 62
     2
100
AcDbLine
 10
4.8233463961
 20
22.2531482667
 30
0.0
 11
4.8233463961
 21
21.3507546708
 31
0.0
  0
LINE
  5
348
330
1F
100
AcDbEntity
  8
TRMODEL1
  6
Continuous
 62
     2
100
AcDbLine
 10
4.8142950611
 20
20.8737031721
 30
0.0
 11
4.8200684104
 21
20.8660922308
 31
0.0
  0
LINE
  5
349
330
1F
100
AcDbEntity
  8
TRMODEL1
  6
Continuous
 62
     2
100
AcDbLine
 10
4.8200684104
 20
20.8660922308
 30
0.0
 11
4.822039101
 21
20.8390540203
 31
0.0
  0
LINE
  5
34A
330
1F
100
AcDbEntity
  8
TRMODEL1
  6
Continuous
 62
     2
100
AcDbLine
 10
4.822039101
 20
20.8390540203
 30
0.0
 11
4.806826868
 21
20.8133463249
 31
0.0
  0
LINE
  5
34B
330
1F
100
AcDbEntity
  8
TRMODEL1
  6
Continuous
 62
     2
100
AcDbLine
 10
4.806826868
 20
20.8133463249
 30
0.0
 11
4.776150819
 21
20.7921343342
 31
0.0
  0
LINE
  5
34C
330
1F
100
AcDbEntity
  8
TRMODEL1
  6
Continuous
 62
     2
100
AcDbLine
 10
4.776150819
 20
20.7921343342
 30
0.0
 11
4.7334882393
 21
20.7781658324
 31
0.0
  0
LINE
  5
34D
330
1F
100
AcDbEntity
  8
TRMODEL1
  6
Continuous
 62
     2
100
AcDbLine
 10
4.7334882393
 20
20.7781658324
 30
0.0
 11
4.6836635784
 21
20.7732993454
 31
0.0
  0
LINE
  5
34E
330
1F
100
AcDbEntity
  8
TRMODEL1
  6
Continuous
 62
     2
100
AcDbLine
 10
4.6836635784
 20
20.7732993454
 30
0.0
 11
4.6323200371
 21
20.7784016148
 31
0.0
  0
LINE
  5
34F
330
1F
100
AcDbEntity
  8
TRMODEL1
  6
Continuous
 62
     2
100
AcDbLine
 10
4.6323200371
 20
20.7784016148
 30
0.0
 11
4.585268959
 21
20.7932040214
 31
0.0
  0
LINE
  5
350
330
1F
100
AcDbEntity
  8
TRMODEL1
  6
Continuous
 62
     2
100
AcDbLine
 10
4.585268959
 20
20.7932040214
 30
0.0
 11
4.5478346398
 21
20.8163154339
 31
0.0
  0
LINE
  5
351
330
1F
100
AcDbEntity
  8
TRMODEL1
  6
Continuous
 62
     2
100
AcDbLine
 10
4.5478346398
 20
20.8163154339
 30
0.0
 11
4.5242576676
 21
20.8454579957
 31
0.0
  0
LINE
  5
352
330
1F
100
AcDbEntity
  8
TRMODEL1
  6
Continuous
 62
     2
100
AcDbLine
 10
4.5242576676
 20
20.8454579957
 30
0.0
 11
4.5172038248
 21
20.8775945869
 31
0.0
  0
LINE
  5
353
330
1F
100
AcDbEntity
  8
TRMODEL1
  6
Continuous
 62
     2
100
AcDbLine
 10
4.5172038248
 20
20.8775945869
 30
0.0
 11
4.5274728702
 21
20.9094358848
 31
0.0
  0
LINE
  5
354
330
1F
100
AcDbEntity
  8
TRMODEL1
  6
Continuous
 62
     2
100
AcDbLine
 10
4.5274728702
 20
20.9094358848
 30
0.0
 11
4.531413536
 21
20.9136416564
 31
0.0
  0
LINE
  5
355
330
1F
100
AcDbEntity
  8
TRMODEL1
  6
Continuous
 62
     2
100
AcDbLine
 10
4.8144884189
 20
20.9234648895
 30
0.0
 11
4.8229986449
 21
20.9049648886
 31
0.0
  0
LINE
  5
356
330
1F
100
AcDbEntity
  8
TRMODEL1
  6
Continuous
 62
     2
100
AcDbLine
 10
4.8229986449
 20
20.9049648886
 30
0.0
 11
4.8177735452
 21
20.878080668
 31
0.0
  0
LINE
  5
357
330
1F
100
AcDbEntity
  8
TRMODEL1
  6
Continuous
 62
     2
100
AcDbLine
 10
4.8177735452
 20
20.878080668
 30
0.0
 11
4.795846991
 21
20.8538558951
 31
0.0
  0
LINE
  5
358
330
1F
100
AcDbEntity
  8
TRMODEL1
  6
Continuous
 62
     2
100
AcDbLine
 10
4.795846991
 20
20.8538558951
 30
0.0
 11
4.7597026756
 21
20.8353589383
 31
0.0
  0
LINE
  5
359
330
1F
100
AcDbEntity
  8
TRMODEL1
  6
Continuous
 62
     2
100
AcDbLine
 10
4.7597026756
 20
20.8353589383
 30
0.0
 11
4.7134310391
 21
20.8249853514
 31
0.0
  0
LINE
  5
35A
330
1F
100
AcDbEntity
  8
TRMODEL1
  6
Continuous
 62
     2
100
AcDbLine
 10
4.7134310391
 20
20.8249853514
 30
0.0
 11
4.6622682261
 21
20.8241956206
 31
0.0
  0
LINE
  5
35B
330
1F
100
AcDbEntity
  8
TRMODEL1
  6
Continuous
 62
     2
100
AcDbLine
 10
4.6622682261
 20
20.8241956206
 30
0.0
 11
4.6120108828
 21
20.8334193224
 31
0.0
  0
LINE
  5
35C
330
1F
100
AcDbEntity
  8
TRMODEL1
  6
Continuous
 62
     2
100
AcDbLine
 10
4.6120108828
 20
20.8334193224
 30
0.0
 11
4.5683400302
 21
20.8518727012
 31
0.0
  0
LINE
  5
35D
330
1F
100
AcDbEntity
  8
TRMODEL1
  6
Continuous
 62
     2
100
AcDbLine
 10
4.5683400302
 20
20.8518727012
 30
0.0
 11
4.5362074263
 21
20.8778163512
 31
0.0
  0
LINE
  5
35E
330
1F
100
AcDbEntity
  8
TRMODEL1
  6
Continuous
 62
     2
100
AcDbLine
 10
4.5362074263
 20
20.8778163512
 30
0.0
 11
4.5192444788
 21
20.9085789036
 31
0.0
  0
LINE
  5
35F
330
1F
100
AcDbEntity
  8
TRMODEL1
  6
Continuous
 62
     2
100
AcDbLine
 10
4.5192444788
 20
20.9085789036
 30
0.0
 11
4.5193741945
 21
20.9410130181
 31
0.0
  0
LINE
  5
360
330
1F
100
AcDbEntity
  8
TRMODEL1
  6
Continuous
 62
     2
100
AcDbLine
 10
4.5193741945
 20
20.9410130181
 30
0.0
 11
4.5349253902
 21
20.9687765919
 31
0.0
  0
LINE
  5
361
330
1F
100
AcDbEntity
  8
TRMODEL1
  6
Continuous
 62
     2
100
AcDbLine
 10
4.8150944334
 20
20.9738744397
 30
0.0
 11
4.8179777583
 21
20.9706456719
 31
0.0
  0
LINE
  5
362
330
1F
100
AcDbEntity
  8
TRMODEL1
  6
Continuous
 62
     2
100
AcDbLine
 10
4.8179777583
 20
20.9706456719
 30
0.0
 11
4.8229447275
 21
20.9437405745
 31
0.0
  0
LINE
  5
363
330
1F
100
AcDbEntity
  8
TRMODEL1
  6
Continuous
 62
     2
100
AcDbLine
 10
4.8229447275
 20
20.9437405745
 30
0.0
 11
4.81062578
 21
20.9175569201
 31
0.0
  0
LINE
  5
364
330
1F
100
AcDbEntity
  8
TRMODEL1
  6
Continuous
 62
     2
100
AcDbLine
 10
4.81062578
 20
20.9175569201
 30
0.0
 11
4.7824146526
 21
20.8953593112
 31
0.0
  0
LINE
  5
365
330
1F
100
AcDbEntity
  8
TRMODEL1
  6
Continuous
 62
     2
100
AcDbLine
 10
4.7824146526
 20
20.8953593112
 30
0.0
 11
4.7415066996
 21
20.8799847084
 31
0.0
  0
LINE
  5
366
330
1F
100
AcDbEntity
  8
TRMODEL1
  6
Continuous
 62
     2
100
AcDbLine
 10
4.7415066996
 20
20.8799847084
 30
0.0
 11
4.6925285866
 21
20.8734485506
 31
0.0
  0
LINE
  5
367
330
1F
100
AcDbEntity
  8
TRMODEL1
  6
Continuous
 62
     2
100
AcDbLine
 10
4.6925285866
 20
20.8734485506
 30
0.0
 11
4.6410304864
 21
20.876831082
 31
0.0
  0
LINE
  5
368
330
1F
100
AcDbEntity
  8
TRMODEL1
  6
Continuous
 62
     2
100
AcDbLine
 10
4.6410304864
 20
20.876831082
 30
0.0
 11
4.5928347577
 21
20.8900142649
 31
0.0
  0
LINE
  5
369
330
1F
100
AcDbEntity
  8
TRMODEL1
  6
Continuous
 62
     2
100
AcDbLine
 10
4.5928347577
 20
20.8900142649
 30
0.0
 11
4.5534041834
 21
20.9118489289
 31
0.0
  0
LINE
  5
36A
330
1F
100
AcDbEntity
  8
TRMODEL1
  6
Continuous
 62
     2
100
AcDbLine
 10
4.5534041834
 20
20.9118489289
 30
0.0
 11
4.5271962623
 21
20.9401362848
 31
0.0
  0
LINE
  5
36B
330
1F
100
AcDbEntity
  8
TRMODEL1
  6
Continuous
 62
     2
100
AcDbLine
 10
4.5271962623
 20
20.9401362848
 30
0.0
 11
4.5171813109
 21
20.9719986067
 31
0.0
  0
LINE
  5
36C
330
1F
100
AcDbEntity
  8
TRMODEL1
  6
Continuous
 62
     2
100
AcDbLine
 10
4.5171813109
 20
20.9719986067
 30
0.0
 11
4.5235896251
 21
21.0001638858
 31
0.0
  0
LINE
  5
36D
330
1F
100
AcDbEntity
  8
TRMODEL1
  6
Continuous
 62
     2
100
AcDbLine
 10
4.8140417667
 20
21.0235897817
 30
0.0
 11
4.8221378654
 21
21.0096509913
 31
0.0
  0
LINE
  5
36E
330
1F
100
AcDbEntity
  8
TRMODEL1
  6
Continuous
 62
     2
100
AcDbLine
 10
4.8221378654
 20
21.0096509913
 30
0.0
 11
4.819908055
 21
20.9826356714
 31
0.0
  0
LINE
  5
36F
330
1F
100
AcDbEntity
  8
TRMODEL1
  6
Continuous
 62
     2
100
AcDbLine
 10
4.819908055
 20
20.9826356714
 30
0.0
 11
4.8007353707
 21
20.9577161085
 31
0.0
  0
LINE
  5
370
330
1F
100
AcDbEntity
  8
TRMODEL1
  6
Continuous
 62
     2
100
AcDbLine
 10
4.8007353707
 20
20.9577161085
 30
0.0
 11
4.7667924295
 21
20.9380510481
 31
0.0
  0
LINE
  5
371
330
1F
100
AcDbEntity
  8
TRMODEL1
  6
Continuous
 62
     2
100
AcDbLine
 10
4.7667924295
 20
20.9380510481
 30
0.0
 11
4.7219159506
 21
20.9261232873
 31
0.0
  0
LINE
  5
372
330
1F
100
AcDbEntity
  8
TRMODEL1
  6
Continuous
 62
     2
100
AcDbLine
 10
4.7219159506
 20
20.9261232873
 30
0.0
 11
4.6711942877
 21
20.9236403673
 31
0.0
  0
LINE
  5
373
330
1F
100
AcDbEntity
  8
TRMODEL1
  6
Continuous
 62
     2
100
AcDbLine
 10
4.6711942877
 20
20.9236403673
 30
0.0
 11
4.6203594416
 21
20.9311411415
 31
0.0
  0
LINE
  5
374
330
1F
100
AcDbEntity
  8
TRMODEL1
  6
Continuous
 62
     2
100
AcDbLine
 10
4.6203594416
 20
20.9311411415
 30
0.0
 11
4.5751741401
 21
20.9481161681
 31
0.0
  0
LINE
  5
375
330
1F
100
AcDbEntity
  8
TRMODEL1
  6
Continuous
 62
     2
100
AcDbLine
 10
4.5751741401
 20
20.9481161681
 30
0.0
 11
4.5407478911
 21
20.9729281628
 31
0.0
  0
LINE
  5
376
330
1F
100
AcDbEntity
  8
TRMODEL1
  6
Continuous
 62
     2
100
AcDbLine
 10
4.5407478911
 20
20.9729281628
 30
0.0
 11
4.5209800249
 21
21.0030771291
 31
0.0
  0
LINE
  5
377
330
1F
100
AcDbEntity
  8
TRMODEL1
  6
Continuous
 62
     2
100
AcDbLine
 10
4.5209800249
 20
21.0030771291
 30
0.0
 11
4.5181074579
 21
21.035467633
 31
0.0
  0
LINE
  5
378
330
1F
100
AcDbEntity
  8
TRMODEL1
  6
Continuous
 62
     2
100
AcDbLine
 10
4.5181074579
 20
21.035467633
 30
0.0
 11
4.5324561361
 21
21.0667081032
 31
0.0
  0
LINE
  5
379
330
1F
100
AcDbEntity
  8
TRMODEL1
  6
Continuous
 62
     2
100
AcDbLine
 10
4.8159629916
 20
21.0731844536
 30
0.0
 11
4.8233311021
 21
21.0484475179
 31
0.0
  0
LINE
  5
37A
330
1F
100
AcDbEntity
  8
TRMODEL1
  6
Continuous
 62
     2
100
AcDbLine
 10
4.8233311021
 20
21.0484475179
 30
0.0
 11
4.8139474781
 21
21.021882899
 31
0.0
  0
LINE
  5
37B
330
1F
100
AcDbEntity
  8
TRMODEL1
  6
Continuous
 62
     2
100
AcDbLine
 10
4.8139474781
 20
21.021882899
 30
0.0
 11
4.7882977378
 21
20.9987971836
 31
0.0
  0
LINE
  5
37C
330
1F
100
AcDbEntity
  8
TRMODEL1
  6
Continuous
 62
     2
100
AcDbLine
 10
4.7882977378
 20
20.9987971836
 30
0.0
 11
4.7492810305
 21
20.98205878
 31
0.0
  0
LINE
  5
37D
330
1F
100
AcDbEntity
  8
TRMODEL1
  6
Continuous
 62
     2
100
AcDbLine
 10
4.7492810305
 20
20.98205878
 30
0.0
 11
4.7013198916
 21
20.9739079883
 31
0.0
  0
LINE
  5
37E
330
1F
100
AcDbEntity
  8
TRMODEL1
  6
Continuous
 62
     2
100
AcDbLine
 10
4.7013198916
 20
20.9739079883
 30
0.0
 11
4.6498376038
 21
20.9755429465
 31
0.0
  0
LINE
  5
37F
330
1F
100
AcDbEntity
  8
TRMODEL1
  6
Continuous
 62
     2
100
AcDbLine
 10
4.6498376038
 20
20.9755429465
 30
0.0
 11
4.6006658532
 21
20.9870952127
 31
0.0
  0
LINE
  5
380
330
1F
100
AcDbEntity
  8
TRMODEL1
  6
Continuous
 62
     2
100
AcDbLine
 10
4.6006658532
 20
20.9870952127
 30
0.0
 11
4.5593696056
 21
21.0075682714
 31
0.0
  0
LINE
  5
381
330
1F
100
AcDbEntity
  8
TRMODEL1
  6
Continuous
 62
     2
100
AcDbLine
 10
4.5593696056
 20
21.0075682714
 30
0.0
 11
4.5306216327
 21
21.0349266501
 31
0.0
  0
LINE
  5
382
330
1F
100
AcDbEntity
  8
TRMODEL1
  6
Continuous
 62
     2
100
AcDbLine
 10
4.5306216327
 20
21.0349266501
 30
0.0
 11
4.5176791729
 21
21.0664107133
 31
0.0
  0
LINE
  5
383
330
1F
100
AcDbEntity
  8
TRMODEL1
  6
Continuous
 62
     2
100
AcDbLine
 10
4.5176791729
 20
21.0664107133
 30
0.0
 11
4.5220055678
 21
21.0987250278
 31
0.0
  0
LINE
  5
384
330
1F
100
AcDbEntity
  8
TRMODEL1
  6
Continuous
 62
     2
100
AcDbLine
 10
4.5220055678
 20
21.0987250278
 30
0.0
 11
4.5231934819
 21
21.1004039168
 31
0.0
  0
LINE
  5
385
330
1F
100
AcDbEntity
  8
TRMODEL1
  6
Continuous
 62
     2
100
AcDbLine
 10
4.8141189433
 20
21.1236993114
 30
0.0
 11
4.8207606348
 21
21.1143018289
 31
0.0
  0
LINE
  5
386
330
1F
100
AcDbEntity
  8
TRMODEL1
  6
Continuous
 62
     2
100
AcDbLine
 10
4.8207606348
 20
21.1143018289
 30
0.0
 11
4.8215338128
 21
21.0872457179
 31
0.0
  0
LINE
  5
387
330
1F
100
AcDbEntity
  8
TRMODEL1
  6
Continuous
 62
     2
100
AcDbLine
 10
4.8215338128
 20
21.0872457179
 30
0.0
 11
4.8051812414
 21
21.0617481871
 31
0.0
  0
LINE
  5
388
330
1F
100
AcDbEntity
  8
TRMODEL1
  6
Continuous
 62
     2
100
AcDbLine
 10
4.8051812414
 20
21.0617481871
 30
0.0
 11
4.7735514239
 21
21.0409572009
 31
0.0
  0
LINE
  5
389
330
1F
100
AcDbEntity
  8
TRMODEL1
  6
Continuous
 62
     2
100
AcDbLine
 10
4.7735514239
 20
21.0409572009
 30
0.0
 11
4.7302286767
 21
21.0275627984
 31
0.0
  0
LINE
  5
38A
330
1F
100
AcDbEntity
  8
TRMODEL1
  6
Continuous
 62
     2
100
AcDbLine
 10
4.7302286767
 20
21.0275627984
 30
0.0
 11
4.6801138019
 21
21.023370035
 31
0.0
  0
LINE
  5
38B
330
1F
100
AcDbEntity
  8
TRMODEL1
  6
Continuous
 62
     2
100
AcDbLine
 10
4.6801138019
 20
21.023370035
 30
0.0
 11
4.6288807413
 21
21.0291583502
 31
0.0
  0
LINE
  5
38C
330
1F
100
AcDbEntity
  8
TRMODEL1
  6
Continuous
 62
     2
100
AcDbLine
 10
4.6288807413
 20
21.0291583502
 30
0.0
 11
4.5823303641
 21
21.0445906065
 31
0.0
  0
LINE
  5
38D
330
1F
100
AcDbEntity
  8
TRMODEL1
  6
Continuous
 62
     2
100
AcDbLine
 10
4.5823303641
 20
21.0445906065
 30
0.0
 11
4.5457288679
 21
21.06819841
 31
0.0
  0
LINE
  5
38E
330
1F
100
AcDbEntity
  8
TRMODEL1
  6
Continuous
 62
     2
100
AcDbLine
 10
4.5457288679
 20
21.06819841
 30
0.0
 11
4.5232232647
 21
21.0976500971
 31
0.0
  0
LINE
  5
38F
330
1F
100
AcDbEntity
  8
TRMODEL1
  6
Continuous
 62
     2
100
AcDbLine
 10
4.5232232647
 20
21.0976500971
 30
0.0
 11
4.5173579737
 21
21.1298745408
 31
0.0
  0
LINE
  5
390
330
1F
100
AcDbEntity
  8
TRMODEL1
  6
Continuous
 62
     2
100
AcDbLine
 10
4.5173579737
 20
21.1298745408
 30
0.0
 11
4.5287980722
 21
21.1615684424
 31
0.0
  0
LINE
  5
391
330
1F
100
AcDbEntity
  8
TRMODEL1
  6
Continuous
 62
     2
100
AcDbLine
 10
4.5287980722
 20
21.1615684424
 30
0.0
 11
4.5309646561
 21
21.1637664038
 31
0.0
  0
LINE
  5
392
330
1F
100
AcDbEntity
  8
TRMODEL1
  6
Continuous
 62
     2
100
AcDbLine
 10
4.8148100148
 20
21.1734427524
 30
0.0
 11
4.8231971574
 21
21.1531390451
 31
0.0
  0
LINE
  5
393
330
1F
100
AcDbEntity
  8
TRMODEL1
  6
Continuous
 62
     2
100
AcDbLine
 10
4.8231971574
 20
21.1531390451
 30
0.0
 11
4.8167817799
 21
21.1263310746
 31
0.0
  0
LINE
  5
394
330
1F
100
AcDbEntity
  8
TRMODEL1
  6
Continuous
 62
     2
100
AcDbLine
 10
4.8167817799
 20
21.1263310746
 30
0.0
 11
4.7937773438
 21
21.1024100425
 31
0.0
  0
LINE
  5
395
330
1F
100
AcDbEntity
  8
TRMODEL1
  6
Continuous
 62
     2
100
AcDbLine
 10
4.7937773438
 20
21.1024100425
 30
0.0
 11
4.7567890203
 21
21.0844017742
 31
0.0
  0
LINE
  5
396
330
1F
100
AcDbEntity
  8
TRMODEL1
  6
Continuous
 62
     2
100
AcDbLine
 10
4.7567890203
 20
21.0844017742
 30
0.0
 11
4.7100038293
 21
21.074654987
 31
0.0
  0
LINE
  5
397
330
1F
100
AcDbEntity
  8
TRMODEL1
  6
Continuous
 62
     2
100
AcDbLine
 10
4.7100038293
 20
21.074654987
 30
0.0
 11
4.6587147095
 21
21.0745514842
 31
0.0
  0
LINE
  5
398
330
1F
100
AcDbEntity
  8
TRMODEL1
  6
Continuous
 62
     2
100
AcDbLine
 10
4.6587147095
 20
21.0745514842
 30
0.0
 11
4.6087338756
 21
21.0844490708
 31
0.0
  0
LINE
  5
399
330
1F
100
AcDbEntity
  8
TRMODEL1
  6
Continuous
 62
     2
100
AcDbLine
 10
4.6087338756
 20
21.0844490708
 30
0.0
 11
4.5657101658
 21
21.1034841671
 31
0.0
  0
LINE
  5
39A
330
1F
100
AcDbEntity
  8
TRMODEL1
  6
Continuous
 62
     2
100
AcDbLine
 10
4.5657101658
 20
21.1034841671
 30
0.0
 11
4.5345224514
 21
21.1298523082
 31
0.0
  0
LINE
  5
39B
330
1F
100
AcDbEntity
  8
TRMODEL1
  6
Continuous
 62
     2
100
AcDbLine
 10
4.5345224514
 20
21.1298523082
 30
0.0
 11
4.5186952472
 21
21.1608361407
 31
0.0
  0
LINE
  5
39C
330
1F
100
AcDbEntity
  8
TRMODEL1
  6
Continuous
 62
     2
100
AcDbLine
 10
4.5186952472
 20
21.1608361407
 30
0.0
 11
4.5200227771
 21
21.1932586818
 31
0.0
  0
LINE
  5
39D
330
1F
100
AcDbEntity
  8
TRMODEL1
  6
Continuous
 62
     2
100
AcDbLine
 10
4.5200227771
 20
21.1932586818
 30
0.0
 11
4.5233195352
 21
21.1987409231
 31
0.0
  0
LINE
  5
39E
330
1F
100
AcDbEntity
  8
TRMODEL1
  6
Continuous
 62
     2
100
AcDbLine
 10
4.8147147434
 20
21.2238428253
 30
0.0
 11
4.8188722734
 21
21.2188835053
 31
0.0
  0
LINE
  5
39F
330
1F
100
AcDbEntity
  8
TRMODEL1
  6
Continuous
 62
     2
100
AcDbLine
 10
4.8188722734
 20
21.2188835053
 30
0.0
 11
4.8226456935
 21
21.1919164599
 31
0.0
  0
LINE
  5
3A0
330
1F
100
AcDbEntity
  8
TRMODEL1
  6
Continuous
 62
     2
100
AcDbLine
 10
4.8226456935
 20
21.1919164599
 30
0.0
 11
4.809167207
 21
21.1659100023
 31
0.0
  0
LINE
  5
3A1
330
1F
100
AcDbEntity
  8
TRMODEL1
  6
Continuous
 62
     2
100
AcDbLine
 10
4.809167207
 20
21.1659100023
 30
0.0
 11
4.7799610699
 21
21.1440940899
 31
0.0
  0
LINE
  5
3A2
330
1F
100
AcDbEntity
  8
TRMODEL1
  6
Continuous
 62
     2
100
AcDbLine
 10
4.7799610699
 20
21.1440940899
 30
0.0
 11
4.7383367264
 21
21.1292762619
 31
0.0
  0
LINE
  5
3A3
330
1F
100
AcDbEntity
  8
TRMODEL1
  6
Continuous
 62
     2
100
AcDbLine
 10
4.7383367264
 20
21.1292762619
 30
0.0
 11
4.6890001113
 21
21.1233984067
 31
0.0
  0
LINE
  5
3A4
330
1F
100
AcDbEntity
  8
TRMODEL1
  6
Continuous
 62
     2
100
AcDbLine
 10
4.6890001113
 20
21.1233984067
 30
0.0
 11
4.6375435163
 21
21.1274720199
 31
0.0
  0
LINE
  5
3A5
330
1F
100
AcDbEntity
  8
TRMODEL1
  6
Continuous
 62
     2
100
AcDbLine
 10
4.6375435163
 20
21.1274720199
 30
0.0
 11
4.5897839893
 21
21.1413007993
 31
0.0
  0
LINE
  5
3A6
330
1F
100
AcDbEntity
  8
TRMODEL1
  6
Continuous
 62
     2
100
AcDbLine
 10
4.5897839893
 20
21.1413007993
 30
0.0
 11
4.5511345431
 21
21.1636571683
 31
0.0
  0
LINE
  5
3A7
330
1F
100
AcDbEntity
  8
TRMODEL1
  6
Continuous
 62
     2
100
AcDbLine
 10
4.5511345431
 20
21.1636571683
 30
0.0
 11
4.5259652945
 21
21.1922924822
 31
0.0
  0
LINE
  5
3A8
330
1F
100
AcDbEntity
  8
TRMODEL1
  6
Continuous
 62
     2
100
AcDbLine
 10
4.5259652945
 20
21.1922924822
 30
0.0
 11
4.5171278679
 21
21.2242781659
 31
0.0
  0
LINE
  5
3A9
330
1F
100
AcDbEntity
  8
TRMODEL1
  6
Continuous
 62
     2
100
AcDbLine
 10
4.5171278679
 20
21.2242781659
 30
0.0
 11
4.5256216975
 21
21.2563040647
 31
0.0
  0
LINE
  5
3AA
330
1F
100
AcDbEntity
  8
TRMODEL1
  6
Continuous
 62
     2
100
AcDbLine
 10
4.5256216975
 20
21.2563040647
 30
0.0
 11
4.531975435
 21
21.2636451802
 31
0.0
  0
LINE
  5
3AB
330
1F
100
AcDbEntity
  8
TRMODEL1
  6
Continuous
 62
     2
100
AcDbLine
 10
4.8141572972
 20
21.2735921085
 30
0.0
 11
4.8225432568
 21
21.2578332896
 31
0.0
  0
LINE
  5
3AC
330
1F
100
AcDbEntity
  8
TRMODEL1
  6
Continuous
 62
     2
100
AcDbLine
 10
4.8225432568
 20
21.2578332896
 30
0.0
 11
4.8191173672
 21
21.2308580284
 31
0.0
  0
LINE
  5
3AD
330
1F
100
AcDbEntity
  8
TRMODEL1
  6
Continuous
 62
     2
100
AcDbLine
 10
4.8191173672
 20
21.2308580284
 30
0.0
 11
4.7988379329
 21
21.2062020568
 31
0.0
  0
LINE
  5
3AE
330
1F
100
AcDbEntity
  8
TRMODEL1
  6
Continuous
 62
     2
100
AcDbLine
 10
4.7988379329
 20
21.2062020568
 30
0.0
 11
4.7640032322
 21
21.186998889
 31
0.0
  0
LINE
  5
3AF
330
1F
100
AcDbEntity
  8
TRMODEL1
  6
Continuous
 62
     2
100
AcDbLine
 10
4.7640032322
 20
21.186998889
 30
0.0
 11
4.7185506741
 21
21.1756783615
 31
0.0
  0
LINE
  5
3B0
330
1F
100
AcDbEntity
  8
TRMODEL1
  6
Continuous
 62
     2
100
AcDbLine
 10
4.7185506741
 20
21.1756783615
 30
0.0
 11
4.6676336315
 21
21.1738761969
 31
0.0
  0
LINE
  5
3B1
330
1F
100
AcDbEntity
  8
TRMODEL1
  6
Continuous
 62
     2
100
AcDbLine
 10
4.6676336315
 20
21.1738761969
 30
0.0
 11
4.6170070513
 21
21.1820600251
 31
0.0
  0
LINE
  5
3B2
330
1F
100
AcDbEntity
  8
TRMODEL1
  6
Continuous
 62
     2
100
AcDbLine
 10
4.6170070513
 20
21.1820600251
 30
0.0
 11
4.5724087334
 21
21.1996355421
 31
0.0
  0
LINE
  5
3B3
330
1F
100
AcDbEntity
  8
TRMODEL1
  6
Continuous
 62
     2
100
AcDbLine
 10
4.5724087334
 20
21.1996355421
 30
0.0
 11
4.5388831765
 21
21.2249056016
 31
0.0
  0
LINE
  5
3B4
330
1F
100
AcDbEntity
  8
TRMODEL1
  6
Continuous
 62
     2
100
AcDbLine
 10
4.5388831765
 20
21.2249056016
 30
0.0
 11
4.5202266484
 21
21.2553109032
 31
0.0
  0
LINE
  5
3B5
330
1F
100
AcDbEntity
  8
TRMODEL1
  6
Continuous
 62
     2
100
AcDbLine
 10
4.5202266484
 20
21.2553109032
 30
0.0
 11
4.518550853
 21
21.2877331025
 31
0.0
  0
LINE
  5
3B6
330
1F
100
AcDbEntity
  8
TRMODEL1
  6
Continuous
 62
     2
100
AcDbLine
 10
4.518550853
 20
21.2877331025
 30
0.0
 11
4.5334717362
 21
21.3176220359
 31
0.0
  0
LINE
  5
3B7
330
1F
100
AcDbEntity
  8
TRMODEL1
  6
Continuous
 62
     2
100
AcDbLine
 10
4.8158149505
 20
21.3240735786
 30
0.0
 11
4.8164785149
 21
21.3233951558
 31
0.0
  0
LINE
  5
3B8
330
1F
100
AcDbEntity
  8
TRMODEL1
  6
Continuous
 62
     2
100
AcDbLine
 10
4.8164785149
 20
21.3233951558
 30
0.0
 11
4.8232393891
 21
21.2966190432
 31
0.0
  0
LINE
  5
3B9
330
1F
100
AcDbEntity
  8
TRMODEL1
  6
Continuous
 62
     2
100
AcDbLine
 10
4.8232393891
 20
21.2966190432
 30
0.0
 11
4.8126803765
 21
21.2701875188
 31
0.0
  0
LINE
  5
3BA
330
1F
100
AcDbEntity
  8
TRMODEL1
  6
Continuous
 62
     2
100
AcDbLine
 10
4.8126803765
 20
21.2701875188
 30
0.0
 11
4.7859988354
 21
21.247452911
 31
0.0
  0
LINE
  5
3BB
330
1F
100
AcDbEntity
  8
TRMODEL1
  6
Continuous
 62
     2
100
AcDbLine
 10
4.7859988354
 20
21.247452911
 30
0.0
 11
4.7462105474
 21
21.2312445043
 31
0.0
  0
LINE
  5
3BC
330
1F
100
AcDbEntity
  8
TRMODEL1
  6
Continuous
 62
     2
100
AcDbLine
 10
4.7462105474
 20
21.2312445043
 30
0.0
 11
4.6978251209
 21
21.2237386474
 31
0.0
  0
LINE
  5
3BD
330
1F
100
AcDbEntity
  8
TRMODEL1
  6
Continuous
 62
     2
100
AcDbLine
 10
4.6978251209
 20
21.2237386474
 30
0.0
 11
4.6463147889
 21
21.2260674182
 31
0.0
  0
LINE
  5
3BE
330
1F
100
AcDbEntity
  8
TRMODEL1
  6
Continuous
 62
     2
100
AcDbLine
 10
4.6463147889
 20
21.2260674182
 30
0.0
 11
4.5975129236
 21
21.2382748817
 31
0.0
  0
LINE
  5
3BF
330
1F
100
AcDbEntity
  8
TRMODEL1
  6
Continuous
 62
     2
100
AcDbLine
 10
4.5975129236
 20
21.2382748817
 30
0.0
 11
4.5569442979
 21
21.2592999851
 31
0.0
  0
LINE
  5
3C0
330
1F
100
AcDbEntity
  8
TRMODEL1
  6
Continuous
 62
     2
100
AcDbLine
 10
4.5569442979
 20
21.2592999851
 30
0.0
 11
4.5291978289
 21
21.2870356273
 31
0.0
  0
LINE
  5
3C1
330
1F
100
AcDbEntity
  8
TRMODEL1
  6
Continuous
 62
     2
100
AcDbLine
 10
4.5291978289
 20
21.2870356273
 30
0.0
 11
4.5174183367
 21
21.3186868056
 31
0.0
  0
LINE
  5
3C2
330
1F
100
AcDbEntity
  8
TRMODEL1
  6
Continuous
 62
     2
100
AcDbLine
 10
4.5174183367
 20
21.3186868056
 30
0.0
 11
4.522937237
 21
21.3509347168
 31
0.0
  0
LINE
  5
3C3
330
1F
100
AcDbEntity
  8
TRMODEL1
  6
Continuous
 62
     2
100
AcDbLine
 10
4.522937237
 20
21.3509347168
 30
0.0
 11
4.523077954
 21
21.3511220045
 31
0.0
  0
LINE
  5
3C4
330
1F
100
AcDbEntity
  8
TRMODEL1
  6
Continuous
 62
     2
100
AcDbLine
 10
4.5190106955
 20
21.3726605058
 30
0.0
 11
4.5180020855
 21
21.3624456953
 31
0.0
  0
LINE
  5
3C5
330
1F
100
AcDbEntity
  8
TRMODEL1
  6
Continuous
 62
     2
100
AcDbLine
 10
4.5180020855
 20
21.3624456953
 30
0.0
 11
4.5320386641
 21
21.3311316697
 31
0.0
  0
LINE
  5
3C6
330
1F
100
AcDbEntity
  8
TRMODEL1
  6
Continuous
 62
     2
100
AcDbLine
 10
4.5320386641
 20
21.3311316697
 30
0.0
 11
4.5617209338
 21
21.3041446448
 31
0.0
  0
LINE
  5
3C7
330
1F
100
AcDbEntity
  8
TRMODEL1
  6
Continuous
 62
     2
100
AcDbLine
 10
4.5617209338
 20
21.3041446448
 30
0.0
 11
4.6036842885
 21
21.2842010513
 31
0.0
  0
LINE
  5
3C8
330
1F
100
AcDbEntity
  8
TRMODEL1
  6
Continuous
 62
     2
100
AcDbLine
 10
4.6036842885
 20
21.2842010513
 30
0.0
 11
4.6531834038
 21
21.2732765492
 31
0.0
  0
LINE
  5
3C9
330
1F
100
AcDbEntity
  8
TRMODEL1
  6
Continuous
 62
     2
100
AcDbLine
 10
4.6531834038
 20
21.2732765492
 30
0.0
 11
4.7046118855
 21
21.2722933984
 31
0.0
  0
LINE
  5
3CA
330
1F
100
AcDbEntity
  8
TRMODEL1
  6
Continuous
 62
     2
100
AcDbLine
 10
4.7046118855
 20
21.2722933984
 30
0.0
 11
4.752148819
 21
21.2810537649
 31
0.0
  0
LINE
  5
3CB
330
1F
100
AcDbEntity
  8
TRMODEL1
  6
Continuous
 62
     2
100
AcDbLine
 10
4.752148819
 20
21.2810537649
 30
0.0
 11
4.7904148022
 21
21.2982818143
 31
0.0
  0
LINE
  5
3CC
330
1F
100
AcDbEntity
  8
TRMODEL1
  6
Continuous
 62
     2
100
AcDbLine
 10
4.7904148022
 20
21.2982818143
 30
0.0
 11
4.8150752161
 21
21.3216863269
 31
0.0
  0
LINE
  5
3CD
330
1F
100
AcDbEntity
  8
TRMODEL1
  6
Continuous
 62
     2
100
AcDbLine
 10
4.8150752161
 20
21.3216863269
 30
0.0
 11
4.8231507425
 21
21.3477474567
 31
0.0
  0
LINE
  5
3CE
330
1F
100
AcDbEntity
  8
TRMODEL1
  6
Continuous
 62
     2
100
AcDbLine
 10
4.5188404002
 20
21.3228021901
 30
0.0
 11
4.5217673821
 21
21.2991557628
 31
0.0
  0
LINE
  5
3CF
330
1F
100
AcDbEntity
  8
TRMODEL1
  6
Continuous
 62
     2
100
AcDbLine
 10
4.5217673821
 20
21.2991557628
 30
0.0
 11
4.5425782333
 21
21.2692660796
 31
0.0
  0
LINE
  5
3D0
330
1F
100
AcDbEntity
  8
TRMODEL1
  6
Continuous
 62
     2
100
AcDbLine
 10
4.5425782333
 20
21.2692660796
 30
0.0
 11
4.5778386778
 21
21.2448949048
 31
0.0
  0
LINE
  5
3D1
330
1F
100
AcDbEntity
  8
TRMODEL1
  6
Continuous
 62
     2
100
AcDbLine
 10
4.5778386778
 20
21.2448949048
 30
0.0
 11
4.6235584694
 21
21.2284983632
 31
0.0
  0
LINE
  5
3D2
330
1F
100
AcDbEntity
  8
TRMODEL1
  6
Continuous
 62
     2
100
AcDbLine
 10
4.6235584694
 20
21.2284983632
 30
0.0
 11
4.6745635628
 21
21.2216447177
 31
0.0
  0
LINE
  5
3D3
330
1F
100
AcDbEntity
  8
TRMODEL1
  6
Continuous
 62
     2
100
AcDbLine
 10
4.6745635628
 20
21.2216447177
 30
0.0
 11
4.7250755573
 21
21.22477054
 31
0.0
  0
LINE
  5
3D4
330
1F
100
AcDbEntity
  8
TRMODEL1
  6
Continuous
 62
     2
100
AcDbLine
 10
4.7250755573
 20
21.22477054
 30
0.0
 11
4.7693845065
 21
21.2372646026
 31
0.0
  0
LINE
  5
3D5
330
1F
100
AcDbEntity
  8
TRMODEL1
  6
Continuous
 62
     2
100
AcDbLine
 10
4.7693845065
 20
21.2372646026
 30
0.0
 11
4.8024662221
 21
21.2573561886
 31
0.0
  0
LINE
  5
3D6
330
1F
100
AcDbEntity
  8
TRMODEL1
  6
Continuous
 62
     2
100
AcDbLine
 10
4.8024662221
 20
21.2573561886
 30
0.0
 11
4.820582162
 21
21.2825146061
 31
0.0
  0
LINE
  5
3D7
330
1F
100
AcDbEntity
  8
TRMODEL1
  6
Continuous
 62
     2
100
AcDbLine
 10
4.820582162
 20
21.2825146061
 30
0.0
 11
4.8211997027
 21
21.2977413398
 31
0.0
  0
LINE
  5
3D8
330
1F
100
AcDbEntity
  8
TRMODEL1
  6
Continuous
 62
     2
100
AcDbLine
 10
4.518193129
 20
21.2726341209
 30
0.0
 11
4.5173081249
 21
21.2680250378
 31
0.0
  0
LINE
  5
3D9
330
1F
100
AcDbEntity
  8
TRMODEL1
  6
Continuous
 62
     2
100
AcDbLine
 10
4.5173081249
 20
21.2680250378
 30
0.0
 11
4.5284330513
 21
21.2362967384
 31
0.0
  0
LINE
  5
3DA
330
1F
100
AcDbEntity
  8
TRMODEL1
  6
Continuous
 62
     2
100
AcDbLine
 10
4.5284330513
 20
21.2362967384
 30
0.0
 11
4.555610266
 21
21.20834867
 31
0.0
  0
LINE
  5
3DB
330
1F
100
AcDbEntity
  8
TRMODEL1
  6
Continuous
 62
     2
100
AcDbLine
 10
4.555610266
 20
21.20834867
 30
0.0
 11
4.595761422
 21
21.1870212268
 31
0.0
  0
LINE
  5
3DC
330
1F
100
AcDbEntity
  8
TRMODEL1
  6
Continuous
 62
     2
100
AcDbLine
 10
4.595761422
 20
21.1870212268
 30
0.0
 11
4.6443456995
 21
21.1744515695
 31
0.0
  0
LINE
  5
3DD
330
1F
100
AcDbEntity
  8
TRMODEL1
  6
Continuous
 62
     2
100
AcDbLine
 10
4.6443456995
 20
21.1744515695
 30
0.0
 11
4.6958573052
 21
21.1717237461
 31
0.0
  0
LINE
  5
3DE
330
1F
100
AcDbEntity
  8
TRMODEL1
  6
Continuous
 62
     2
100
AcDbLine
 10
4.6958573052
 20
21.1717237461
 30
0.0
 11
4.7444723805
 21
21.1788815336
 31
0.0
  0
LINE
  5
3DF
330
1F
100
AcDbEntity
  8
TRMODEL1
  6
Continuous
 62
     2
100
AcDbLine
 10
4.7444723805
 20
21.1788815336
 30
0.0
 11
4.7846807418
 21
21.1947690862
 31
0.0
  0
LINE
  5
3E0
330
1F
100
AcDbEntity
  8
TRMODEL1
  6
Continuous
 62
     2
100
AcDbLine
 10
4.7846807418
 20
21.1947690862
 30
0.0
 11
4.8119368464
 21
21.2173203408
 31
0.0
  0
LINE
  5
3E1
330
1F
100
AcDbEntity
  8
TRMODEL1
  6
Continuous
 62
     2
100
AcDbLine
 10
4.8119368464
 20
21.2173203408
 30
0.0
 11
4.8231516523
 21
21.2436526334
 31
0.0
  0
LINE
  5
3E2
330
1F
100
AcDbEntity
  8
TRMODEL1
  6
Continuous
 62
     2
100
AcDbLine
 10
4.8231516523
 20
21.2436526334
 30
0.0
 11
4.822247469
 21
21.247634211
 31
0.0
  0
LINE
  5
3E3
330
1F
100
AcDbEntity
  8
TRMODEL1
  6
Continuous
 62
     2
100
AcDbLine
 10
4.5192794636
 20
21.2227277921
 30
0.0
 11
4.5198397757
 21
21.2046355565
 31
0.0
  0
LINE
  5
3E4
330
1F
100
AcDbEntity
  8
TRMODEL1
  6
Continuous
 62
     2
100
AcDbLine
 10
4.5198397757
 20
21.2046355565
 30
0.0
 11
4.5378689762
 21
21.1740945011
 31
0.0
  0
LINE
  5
3E5
330
1F
100
AcDbEntity
  8
TRMODEL1
  6
Continuous
 62
     2
100
AcDbLine
 10
4.5378689762
 20
21.1740945011
 30
0.0
 11
4.5708801672
 21
21.148564008
 31
0.0
  0
LINE
  5
3E6
330
1F
100
AcDbEntity
  8
TRMODEL1
  6
Continuous
 62
     2
100
AcDbLine
 10
4.5708801672
 20
21.148564008
 30
0.0
 11
4.6151416783
 21
21.1306699569
 31
0.0
  0
LINE
  5
3E7
330
1F
100
AcDbEntity
  8
TRMODEL1
  6
Continuous
 62
     2
100
AcDbLine
 10
4.6151416783
 20
21.1306699569
 30
0.0
 11
4.6656351607
 21
21.1220864892
 31
0.0
  0
LINE
  5
3E8
330
1F
100
AcDbEntity
  8
TRMODEL1
  6
Continuous
 62
     2
100
AcDbLine
 10
4.6656351607
 20
21.1220864892
 30
0.0
 11
4.716654385
 21
21.1235255045
 31
0.0
  0
LINE
  5
3E9
330
1F
100
AcDbEntity
  8
TRMODEL1
  6
Continuous
 62
     2
100
AcDbLine
 10
4.716654385
 20
21.1235255045
 30
0.0
 11
4.7624155598
 21
21.1344828716
 31
0.0
  0
LINE
  5
3EA
330
1F
100
AcDbEntity
  8
TRMODEL1
  6
Continuous
 62
     2
100
AcDbLine
 10
4.7624155598
 20
21.1344828716
 30
0.0
 11
4.7977442047
 21
21.1534372126
 31
0.0
  0
LINE
  5
3EB
330
1F
100
AcDbEntity
  8
TRMODEL1
  6
Continuous
 62
     2
100
AcDbLine
 10
4.7977442047
 20
21.1534372126
 30
0.0
 11
4.8186386721
 21
21.1779309281
 31
0.0
  0
LINE
  5
3EC
330
1F
100
AcDbEntity
  8
TRMODEL1
  6
Continuous
 62
     2
100
AcDbLine
 10
4.8186386721
 20
21.1779309281
 30
0.0
 11
4.8216546346
 21
21.1977711238
 31
0.0
  0
LINE
  5
3ED
330
1F
100
AcDbEntity
  8
TRMODEL1
  6
Continuous
 62
     2
100
AcDbLine
 10
4.5173659264
 20
21.1727113656
 30
0.0
 11
4.5253094749
 21
21.141579638
 31
0.0
  0
LINE
  5
3EE
330
1F
100
AcDbEntity
  8
TRMODEL1
  6
Continuous
 62
     2
100
AcDbLine
 10
4.5253094749
 20
21.141579638
 30
0.0
 11
4.5498886812
 21
21.1127441271
 31
0.0
  0
LINE
  5
3EF
330
1F
100
AcDbEntity
  8
TRMODEL1
  6
Continuous
 62
     2
100
AcDbLine
 10
4.5498886812
 20
21.1127441271
 30
0.0
 11
4.5880937583
 21
21.0901137454
 31
0.0
  0
LINE
  5
3F0
330
1F
100
AcDbEntity
  8
TRMODEL1
  6
Continuous
 62
     2
100
AcDbLine
 10
4.5880937583
 20
21.0901137454
 30
0.0
 11
4.6355939829
 21
21.0759101532
 31
0.0
  0
LINE
  5
3F1
330
1F
100
AcDbEntity
  8
TRMODEL1
  6
Continuous
 62
     2
100
AcDbLine
 10
4.6355939829
 20
21.0759101532
 30
0.0
 11
4.6870183269
 21
21.0714631829
 31
0.0
  0
LINE
  5
3F2
330
1F
100
AcDbEntity
  8
TRMODEL1
  6
Continuous
 62
     2
100
AcDbLine
 10
4.6870183269
 20
21.0714631829
 30
0.0
 11
4.7365415081
 21
21.0769594676
 31
0.0
  0
LINE
  5
3F3
330
1F
100
AcDbEntity
  8
TRMODEL1
  6
Continuous
 62
     2
100
AcDbLine
 10
4.7365415081
 20
21.0769594676
 30
0.0
 11
4.7785589964
 21
21.0914660015
 31
0.0
  0
LINE
  5
3F4
330
1F
100
AcDbEntity
  8
TRMODEL1
  6
Continuous
 62
     2
100
AcDbLine
 10
4.7785589964
 20
21.0914660015
 30
0.0
 11
4.808316262
 21
21.1130615063
 31
0.0
  0
LINE
  5
3F5
330
1F
100
AcDbEntity
  8
TRMODEL1
  6
Continuous
 62
     2
100
AcDbLine
 10
4.808316262
 20
21.1130615063
 30
0.0
 11
4.8224417659
 21
21.1389571826
 31
0.0
  0
LINE
  5
3F6
330
1F
100
AcDbEntity
  8
TRMODEL1
  6
Continuous
 62
     2
100
AcDbLine
 10
4.8224417659
 20
21.1389571826
 30
0.0
 11
4.8214457181
 21
21.147624937
 31
0.0
  0
LINE
  5
3F7
330
1F
100
AcDbEntity
  8
TRMODEL1
  6
Continuous
 62
     2
100
AcDbLine
 10
4.5191922926
 20
21.1226406541
 30
0.0
 11
4.5184233441
 21
21.11017846
 31
0.0
  0
LINE
  5
3F8
330
1F
100
AcDbEntity
  8
TRMODEL1
  6
Continuous
 62
     2
100
AcDbLine
 10
4.5184233441
 20
21.11017846
 30
0.0
 11
4.5336086671
 21
21.0790620435
 31
0.0
  0
LINE
  5
3F9
330
1F
100
AcDbEntity
  8
TRMODEL1
  6
Continuous
 62
     2
100
AcDbLine
 10
4.5336086671
 20
21.0790620435
 30
0.0
 11
4.5642616874
 21
21.0524776549
 31
0.0
  0
LINE
  5
3FA
330
1F
100
AcDbEntity
  8
TRMODEL1
  6
Continuous
 62
     2
100
AcDbLine
 10
4.5642616874
 20
21.0524776549
 30
0.0
 11
4.606908817
 21
21.0331048487
 31
0.0
  0
LINE
  5
3FB
330
1F
100
AcDbEntity
  8
TRMODEL1
  6
Continuous
 62
     2
100
AcDbLine
 10
4.606908817
 20
21.0331048487
 30
0.0
 11
4.6567256942
 21
21.0228441701
 31
0.0
  0
LINE
  5
3FC
330
1F
100
AcDbEntity
  8
TRMODEL1
  6
Continuous
 62
     2
100
AcDbLine
 10
4.6567256942
 20
21.0228441701
 30
0.0
 11
4.7080721473
 21
21.0225536229
 31
0.0
  0
LINE
  5
3FD
330
1F
100
AcDbEntity
  8
TRMODEL1
  6
Continuous
 62
     2
100
AcDbLine
 10
4.7080721473
 20
21.0225536229
 30
0.0
 11
4.7551343963
 21
21.0319471684
 31
0.0
  0
LINE
  5
3FE
330
1F
100
AcDbEntity
  8
TRMODEL1
  6
Continuous
 62
     2
100
AcDbLine
 10
4.7551343963
 20
21.0319471684
 30
0.0
 11
4.7925883145
 21
21.0496844471
 31
0.0
  0
LINE
  5
3FF
330
1F
100
AcDbEntity
  8
TRMODEL1
  6
Continuous
 62
     2
100
AcDbLine
 10
4.7925883145
 20
21.0496844471
 30
0.0
 11
4.8161904109
 21
21.0734130922
 31
0.0
  0
LINE
  5
400
330
1F
100
AcDbEntity
  8
TRMODEL1
  6
Continuous
 62
     2
100
AcDbLine
 10
4.8161904109
 20
21.0734130922
 30
0.0
 11
4.8226246781
 21
21.0977434769
 31
0.0
  0
LINE
  5
401
330
1F
100
AcDbEntity
  8
TRMODEL1
  6
Continuous
 62
     2
100
AcDbLine
 10
4.5185204601
 20
21.0727664375
 30
0.0
 11
4.5226774689
 21
21.0469438124
 31
0.0
  0
LINE
  5
402
330
1F
100
AcDbEntity
  8
TRMODEL1
  6
Continuous
 62
     2
100
AcDbLine
 10
4.5226774689
 20
21.0469438124
 30
0.0
 11
4.544578337
 21
21.0173391021
 31
0.0
  0
LINE
  5
403
330
1F
100
AcDbEntity
  8
TRMODEL1
  6
Continuous
 62
     2
100
AcDbLine
 10
4.544578337
 20
21.0173391021
 30
0.0
 11
4.5807027877
 21
20.9934490411
 31
0.0
  0
LINE
  5
404
330
1F
100
AcDbEntity
  8
TRMODEL1
  6
Continuous
 62
     2
100
AcDbLine
 10
4.5807027877
 20
20.9934490411
 30
0.0
 11
4.6269617601
 21
20.9776680906
 31
0.0
  0
LINE
  5
405
330
1F
100
AcDbEntity
  8
TRMODEL1
  6
Continuous
 62
     2
100
AcDbLine
 10
4.6269617601
 20
20.9776680906
 30
0.0
 11
4.6781214705
 21
20.9715016685
 31
0.0
  0
LINE
  5
406
330
1F
100
AcDbEntity
  8
TRMODEL1
  6
Continuous
 62
     2
100
AcDbLine
 10
4.6781214705
 20
20.9715016685
 30
0.0
 11
4.7283847897
 21
20.9753029875
 31
0.0
  0
LINE
  5
407
330
1F
100
AcDbEntity
  8
TRMODEL1
  6
Continuous
 62
     2
100
AcDbLine
 10
4.7283847897
 20
20.9753029875
 30
0.0
 11
4.7720707613
 21
20.9883880237
 31
0.0
  0
LINE
  5
408
330
1F
100
AcDbEntity
  8
TRMODEL1
  6
Continuous
 62
     2
100
AcDbLine
 10
4.7720707613
 20
20.9883880237
 30
0.0
 11
4.804225384
 21
21.0089181371
 31
0.0
  0
LINE
  5
409
330
1F
100
AcDbEntity
  8
TRMODEL1
  6
Continuous
 62
     2
100
AcDbLine
 10
4.804225384
 20
21.0089181371
 30
0.0
 11
4.8212149685
 21
21.034310907
 31
0.0
  0
LINE
  5
40A
330
1F
100
AcDbEntity
  8
TRMODEL1
  6
Continuous
 62
     2
100
AcDbLine
 10
4.8212149685
 20
21.034310907
 30
0.0
 11
4.8211648092
 21
21.0476734603
 31
0.0
  0
LINE
  5
40B
330
1F
100
AcDbEntity
  8
TRMODEL1
  6
Continuous
 62
     2
100
AcDbLine
 10
4.5185805009
 20
21.0225870841
 30
0.0
 11
4.5175226219
 21
21.015748919
 31
0.0
  0
LINE
  5
40C
330
1F
100
AcDbEntity
  8
TRMODEL1
  6
Continuous
 62
     2
100
AcDbLine
 10
4.5175226219
 20
21.015748919
 30
0.0
 11
4.5298139358
 21
20.9841747581
 31
0.0
  0
LINE
  5
40D
330
1F
100
AcDbEntity
  8
TRMODEL1
  6
Continuous
 62
     2
100
AcDbLine
 10
4.5298139358
 20
20.9841747581
 30
0.0
 11
4.5580017362
 21
20.9566012377
 31
0.0
  0
LINE
  5
40E
330
1F
100
AcDbEntity
  8
TRMODEL1
  6
Continuous
 62
     2
100
AcDbLine
 10
4.5580017362
 20
20.9566012377
 30
0.0
 11
4.5988919362
 21
20.9358154189
 31
0.0
  0
LINE
  5
40F
330
1F
100
AcDbEntity
  8
TRMODEL1
  6
Continuous
 62
     2
100
AcDbLine
 10
4.5988919362
 20
20.9358154189
 30
0.0
 11
4.6478618322
 21
20.9239021798
 31
0.0
  0
LINE
  5
410
330
1F
100
AcDbEntity
  8
TRMODEL1
  6
Continuous
 62
     2
100
AcDbLine
 10
4.6478618322
 20
20.9239021798
 30
0.0
 11
4.6993604032
 21
20.921865691
 31
0.0
  0
LINE
  5
411
330
1F
100
AcDbEntity
  8
TRMODEL1
  6
Continuous
 62
     2
100
AcDbLine
 10
4.6993604032
 20
20.921865691
 30
0.0
 11
4.7475659996
 21
20.9296720581
 31
0.0
  0
LINE
  5
412
330
1F
100
AcDbEntity
  8
TRMODEL1
  6
Continuous
 62
     2
100
AcDbLine
 10
4.7475659996
 20
20.9296720581
 30
0.0
 11
4.787015044
 21
20.9460969444
 31
0.0
  0
LINE
  5
413
330
1F
100
AcDbEntity
  8
TRMODEL1
  6
Continuous
 62
     2
100
AcDbLine
 10
4.787015044
 20
20.9460969444
 30
0.0
 11
4.8132469779
 21
20.9690034236
 31
0.0
  0
LINE
  5
414
330
1F
100
AcDbEntity
  8
TRMODEL1
  6
Continuous
 62
     2
100
AcDbLine
 10
4.8132469779
 20
20.9690034236
 30
0.0
 11
4.8232898229
 21
20.9954824698
 31
0.0
  0
LINE
  5
415
330
1F
100
AcDbEntity
  8
TRMODEL1
  6
Continuous
 62
     2
100
AcDbLine
 10
4.8232898229
 20
20.9954824698
 30
0.0
 11
4.822708528
 21
20.99761728
 31
0.0
  0
LINE
  5
416
330
1F
100
AcDbEntity
  8
TRMODEL1
  6
Continuous
 62
     2
100
AcDbLine
 10
4.5191671714
 20
20.9727148967
 30
0.0
 11
4.5205476098
 21
20.9523948775
 31
0.0
  0
LINE
  5
417
330
1F
100
AcDbEntity
  8
TRMODEL1
  6
Continuous
 62
     2
100
AcDbLine
 10
4.5205476098
 20
20.9523948775
 30
0.0
 11
4.539694162
 21
20.9221043432
 31
0.0
  0
LINE
  5
418
330
1F
100
AcDbEntity
  8
TRMODEL1
  6
Continuous
 62
     2
100
AcDbLine
 10
4.539694162
 20
20.9221043432
 30
0.0
 11
4.5736158863
 21
20.8970230018
 31
0.0
  0
LINE
  5
419
330
1F
100
AcDbEntity
  8
TRMODEL1
  6
Continuous
 62
     2
100
AcDbLine
 10
4.5736158863
 20
20.8970230018
 30
0.0
 11
4.6184783208
 21
20.8797263733
 31
0.0
  0
LINE
  5
41A
330
1F
100
AcDbEntity
  8
TRMODEL1
  6
Continuous
 62
     2
100
AcDbLine
 10
4.6184783208
 20
20.8797263733
 30
0.0
 11
4.669195263
 21
20.8718238409
 31
0.0
  0
LINE
  5
41B
330
1F
100
AcDbEntity
  8
TRMODEL1
  6
Continuous
 62
     2
100
AcDbLine
 10
4.669195263
 20
20.8718238409
 30
0.0
 11
4.7200343435
 21
20.873944473
 31
0.0
  0
LINE
  5
41C
330
1F
100
AcDbEntity
  8
TRMODEL1
  6
Continuous
 62
     2
100
AcDbLine
 10
4.7200343435
 20
20.873944473
 30
0.0
 11
4.7652335696
 21
20.8855149804
 31
0.0
  0
LINE
  5
41D
330
1F
100
AcDbEntity
  8
TRMODEL1
  6
Continuous
 62
     2
100
AcDbLine
 10
4.7652335696
 20
20.8855149804
 30
0.0
 11
4.7996805665
 21
20.9049353566
 31
0.0
  0
LINE
  5
41E
330
1F
100
AcDbEntity
  8
TRMODEL1
  6
Continuous
 62
     2
100
AcDbLine
 10
4.7996805665
 20
20.9049353566
 30
0.0
 11
4.8194746671
 21
20.9297043391
 31
0.0
  0
LINE
  5
41F
330
1F
100
AcDbEntity
  8
TRMODEL1
  6
Continuous
 62
     2
100
AcDbLine
 10
4.8194746671
 20
20.9297043391
 30
0.0
 11
4.8214105386
 21
20.9477167639
 31
0.0
  0
LINE
  5
420
330
1F
100
AcDbEntity
  8
TRMODEL1
  6
Continuous
 62
     2
100
AcDbLine
 10
4.5174589089
 20
20.9226166153
 30
0.0
 11
4.5171411221
 21
20.9213381376
 31
0.0
  0
LINE
  5
421
330
1F
100
AcDbEntity
  8
TRMODEL1
  6
Continuous
 62
     2
100
AcDbLine
 10
4.5171411221
 20
20.9213381376
 30
0.0
 11
4.5264970185
 21
20.8894162079
 31
0.0
  0
LINE
  5
422
330
1F
100
AcDbEntity
  8
TRMODEL1
  6
Continuous
 62
     2
100
AcDbLine
 10
4.5264970185
 20
20.8894162079
 30
0.0
 11
4.5521222235
 21
20.8609179738
 31
0.0
  0
LINE
  5
423
330
1F
100
AcDbEntity
  8
TRMODEL1
  6
Continuous
 62
     2
100
AcDbLine
 10
4.5521222235
 20
20.8609179738
 30
0.0
 11
4.5911204779
 21
20.8388049716
 31
0.0
  0
LINE
  5
424
330
1F
100
AcDbEntity
  8
TRMODEL1
  6
Continuous
 62
     2
100
AcDbLine
 10
4.5911204779
 20
20.8388049716
 30
0.0
 11
4.6390715271
 21
20.8252438036
 31
0.0
  0
LINE
  5
425
330
1F
100
AcDbEntity
  8
TRMODEL1
  6
Continuous
 62
     2
100
AcDbLine
 10
4.6390715271
 20
20.8252438036
 30
0.0
 11
4.6905524423
 21
20.8214853371
 31
0.0
  0
LINE
  5
426
330
1F
100
AcDbEntity
  8
TRMODEL1
  6
Continuous
 62
     2
100
AcDbLine
 10
4.6905524423
 20
20.8214853371
 30
0.0
 11
4.7397329396
 21
20.8276467072
 31
0.0
  0
LINE
  5
427
330
1F
100
AcDbEntity
  8
TRMODEL1
  6
Continuous
 62
     2
100
AcDbLine
 10
4.7397329396
 20
20.8276467072
 30
0.0
 11
4.7810456788
 21
20.8427098519
 31
0.0
  0
LINE
  5
428
330
1F
100
AcDbEntity
  8
TRMODEL1
  6
Continuous
 62
     2
100
AcDbLine
 10
4.7810456788
 20
20.8427098519
 30
0.0
 11
4.8098173458
 21
20.8647005707
 31
0.0
  0
LINE
  5
429
330
1F
100
AcDbEntity
  8
TRMODEL1
  6
Continuous
 62
     2
100
AcDbLine
 10
4.8098173458
 20
20.8647005707
 30
0.0
 11
4.8227870461
 21
20.8907766017
 31
0.0
  0
LINE
  5
42A
330
1F
100
AcDbEntity
  8
TRMODEL1
  6
Continuous
 62
     2
100
AcDbLine
 10
4.8227870461
 20
20.8907766017
 30
0.0
 11
4.8217037831
 21
20.8975703489
 31
0.0
  0
LINE
  5
42B
330
1F
100
AcDbEntity
  8
TRMODEL1
  6
Continuous
 62
     2
100
AcDbLine
 10
4.5192903709
 20
20.8726264432
 30
0.0
 11
4.518926694
 21
20.8579170945
 31
0.0
  0
LINE
  5
42C
330
1F
100
AcDbEntity
  8
TRMODEL1
  6
Continuous
 62
     2
100
AcDbLine
 10
4.518926694
 20
20.8579170945
 30
0.0
 11
4.5352525849
 21
20.8270141594
 31
0.0
  0
LINE
  5
42D
330
1F
100
AcDbEntity
  8
TRMODEL1
  6
Continuous
 62
     2
100
AcDbLine
 10
4.5352525849
 20
20.8270141594
 30
0.0
 11
4.5668596754
 21
20.800844766
 31
0.0
  0
LINE
  5
42E
330
1F
100
AcDbEntity
  8
TRMODEL1
  6
Continuous
 62
     2
100
AcDbLine
 10
4.5668596754
 20
20.800844766
 30
0.0
 11
4.6101676118
 21
20.7820522774
 31
0.0
  0
LINE
  5
42F
330
1F
100
AcDbEntity
  8
TRMODEL1
  6
Continuous
 62
     2
100
AcDbLine
 10
4.6101676118
 20
20.7820522774
 30
0.0
 11
4.6602752037
 21
20.7724591208
 31
0.0
  0
LINE
  5
430
330
1F
100
AcDbEntity
  8
TRMODEL1
  6
Continuous
 62
     2
100
AcDbLine
 10
4.6602752037
 20
20.7724591208
 30
0.0
 11
4.7115119287
 21
20.7728600662
 31
0.0
  0
LINE
  5
431
330
1F
100
AcDbEntity
  8
TRMODEL1
  6
Continuous
 62
     2
100
AcDbLine
 10
4.7115119287
 20
20.7728600662
 30
0.0
 11
4.7580740451
 21
20.7828803595
 31
0.0
  0
LINE
  5
432
330
1F
100
AcDbEntity
  8
TRMODEL1
  6
Continuous
 62
     2
100
AcDbLine
 10
4.7580740451
 20
20.7828803595
 30
0.0
 11
4.7946956187
 21
20.8011154769
 31
0.0
  0
LINE
  5
433
330
1F
100
AcDbEntity
  8
TRMODEL1
  6
Continuous
 62
     2
100
AcDbLine
 10
4.7946956187
 20
20.8011154769
 30
0.0
 11
4.8172266791
 21
20.8251545612
 31
0.0
  0
LINE
  5
434
330
1F
100
AcDbEntity
  8
TRMODEL1
  6
Continuous
 62
     2
100
AcDbLine
 10
4.8172266791
 20
20.8251545612
 30
0.0
 11
4.8221771035
 21
20.8477203927
 31
0.0
  0
LINE
  5
435
330
1F
100
AcDbEntity
  8
TRMODEL1
  6
Continuous
 62
     2
100
AcDbLine
 10
11.5652200533
 20
14.4991545899
 30
0.0
 11
11.5652200533
 21
13.2493577336
 31
0.0
  0
LINE
  5
436
330
1F
100
AcDbEntity
  8
TRMODEL1
  6
Continuous
 62
     2
100
AcDbLine
 10
11.581818261
 20
13.2589396749
 30
0.0
 11
11.7983128841
 21
13.1339599892
 31
0.0
  0
LINE
  5
437
330
1F
100
AcDbEntity
  8
TRMODEL1
  6
Continuous
 62
     2
100
AcDbLine
 10
11.7983128841
 20
13.1339599892
 30
0.0
 11
11.7983128841
 21
11.6339599892
 31
0.0
  0
LINE
  5
438
330
1F
100
AcDbEntity
  8
TRMODEL1
  6
Continuous
 62
     2
100
AcDbLine
 10
12.2113777461
 20
15.6757962597
 30
0.0
 11
15.9853486285
 21
15.6757962597
 31
0.0
  0
LINE
  5
439
330
1F
100
AcDbEntity
  8
TRMODEL1
  6
Continuous
 62
     2
100
AcDbLine
 10
11.8011680652
 20
17.6348769331
 30
0.0
 11
11.8011680652
 21
16.1348769331
 31
0.0
  0
LINE
  5
43A
330
1F
100
AcDbEntity
  8
TRMODEL1
  6
Continuous
 62
     2
100
AcDbLine
 10
12.2113777461
 20
15.6172025097
 30
0.0
 11
11.8598152461
 21
15.6757962597
 31
0.0
  0
LINE
  5
43B
330
1F
100
AcDbEntity
  8
TRMODEL1
  6
Continuous
 62
     2
100
AcDbLine
 10
11.8598152461
 20
15.6757962597
 30
0.0
 11
12.2113777461
 21
15.7343900097
 31
0.0
  0
LINE
  5
43C
330
1F
100
AcDbEntity
  8
TRMODEL1
  6
Continuous
 62
     2
100
AcDbLine
 10
12.2113777461
 20
15.7343900097
 30
0.0
 11
12.2113777461
 21
15.6172025097
 31
0.0
  0
LINE
  5
43D
330
1F
100
AcDbEntity
  8
TRMODEL1
  6
Continuous
 62
     2
100
AcDbLine
 10
11.7038763379
 20
16.0787116144
 30
0.0
 11
11.8011680652
 21
16.1348769331
 31
0.0
  0
LINE
  5
43E
330
1F
100
AcDbEntity
  8
TRMODEL1
  6
Continuous
 62
     2
100
AcDbLine
 10
11.4873817148
 20
16.2039350724
 30
0.0
 11
11.7038763379
 21
16.0789553868
 31
0.0
  0
LINE
  5
43F
330
1F
100
AcDbEntity
  8
TRMODEL1
  6
Continuous
 62
     2
100
AcDbLine
 10
11.5652200533
 20
14.4989108175
 30
0.0
 11
11.7038763379
 21
14.5789553868
 31
0.0
  0
LINE
  5
440
330
1F
100
AcDbEntity
  8
TRMODEL1
  6
Continuous
 62
     2
100
AcDbLine
 10
11.7038763379
 20
16.0789553868
 30
0.0
 11
11.7038763379
 21
14.5789553868
 31
0.0
  0
LINE
  5
441
330
1F
100
AcDbEntity
  8
TRMODEL1
  6
Continuous
 62
     2
100
AcDbLine
 10
11.5846734421
 20
17.7598566187
 30
0.0
 11
11.8011680652
 21
17.6348769331
 31
0.0
  0
LINE
  5
442
330
1F
100
AcDbEntity
  8
TRMODEL1
  6
Continuous
 62
     2
370
    60
100
AcDbLine
 10
14.0766855526
 20
10.7549241711
 30
0.0
 11
22.4250752985
 21
10.7549241711
 31
0.0
  0
LINE
  5
443
330
1F
100
AcDbEntity
  8
TRMODEL1
  6
Continuous
 62
     2
370
    60
100
AcDbLine
 10
22.4250752985
 20
10.7549241711
 30
0.0
 11
22.4250752985
 21
3.3766929302
 31
0.0
  0
LINE
  5
444
330
1F
100
AcDbEntity
  8
TRMODEL1
  6
Continuous
 62
     2
370
    60
100
AcDbLine
 10
22.4250752985
 20
3.3766929302
 30
0.0
 11
14.0766855526
 21
3.3766929302
 31
0.0
  0
LINE
  5
445
330
1F
100
AcDbEntity
  8
TRMODEL1
  6
Continuous
 62
     2
370
    60
100
AcDbLine
 10
14.0766855526
 20
3.3766929302
 30
0.0
 11
14.0766855526
 21
10.7549241711
 31
0.0
  0
LINE
  5
446
330
1F
100
AcDbEntity
  8
TRMODEL1
  6
Continuous
 62
     2
370
    60
100
AcDbLine
 10
14.0916855788
 20
27.3863225609
 30
0.0
 11
26.7899206689
 21
27.3863225609
 31
0.0
  0
LINE
  5
447
330
1F
100
AcDbEntity
  8
TRMODEL1
  6
Continuous
 62
     2
370
    60
100
AcDbLine
 10
26.7899206689
 20
27.3863225609
 30
0.0
 11
26.7899206689
 21
19.5112453839
 31
0.0
  0
LINE
  5
448
330
1F
100
AcDbEntity
  8
TRMODEL1
  6
Continuous
 62
     2
370
    60
100
AcDbLine
 10
26.7899206689
 20
19.5112453839
 30
0.0
 11
14.0916855788
 21
19.5112453839
 31
0.0
  0
LINE
  5
449
330
1F
100
AcDbEntity
  8
TRMODEL1
  6
Continuous
 62
     2
370
    60
100
AcDbLine
 10
14.0916855788
 20
19.5112453839
 30
0.0
 11
14.0916855788
 21
27.3863225609
 31
0.0
  0
LINE
  5
44A
330
1F
100
AcDbEntity
  8
TRMODEL1
  6
Continuous
 62
     2
100
AcDbLine
 10
16.3776574854
 20
20.2200565878
 30
0.0
 11
18.1752713268
 21
20.2200565878
 31
0.0
  0
LINE
  5
44B
330
1F
100
AcDbEntity
  8
TRMODEL1
  6
Continuous
 62
     4
100
AcDbLine
 10
15.3874807253
 20
20.0248625216
 30
0.0
 11
15.3529047672
 21
20.0712917177
 31
0.0
  0
LINE
  5
44C
330
1F
100
AcDbEntity
  8
TRMODEL1
  6
Continuous
 62
     4
100
AcDbLine
 10
15.3529047672
 20
20.0712917177
 30
0.0
 11
15.3168429843
 21
20.1370341427
 31
0.0
  0
LINE
  5
44D
330
1F
100
AcDbEntity
  8
TRMODEL1
  6
Continuous
 62
     4
100
AcDbLine
 10
15.3168429843
 20
20.1370341427
 30
0.0
 11
15.2910639953
 21
20.1945769459
 31
0.0
  0
LINE
  5
44E
330
1F
100
AcDbEntity
  8
TRMODEL1
  6
Continuous
 62
     4
100
AcDbLine
 10
15.8966791708
 20
20.1212688047
 30
0.0
 11
15.8226654426
 21
20.0591200804
 31
0.0
  0
LINE
  5
44F
330
1F
100
AcDbEntity
  8
TRMODEL1
  6
Continuous
 62
     4
100
AcDbLine
 10
15.8226654426
 20
20.0591200804
 30
0.0
 11
15.7454711394
 21
20.0116186908
 31
0.0
  0
LINE
  5
450
330
1F
100
AcDbEntity
  8
TRMODEL1
  6
Continuous
 62
     4
100
AcDbLine
 10
15.7454711394
 20
20.0116186908
 30
0.0
 11
15.6902883131
 21
19.988208451
 31
0.0
  0
LINE
  5
451
330
1F
100
AcDbEntity
  8
TRMODEL1
  6
Continuous
 62
     4
100
AcDbLine
 10
15.6902883131
 20
19.988208451
 30
0.0
 11
15.6902883131
 21
20.1793939257
 31
0.0
  0
LINE
  5
452
330
1F
100
AcDbEntity
  8
TRMODEL1
  6
Continuous
 62
     4
100
AcDbLine
 10
15.3874807253
 20
20.0248625216
 30
0.0
 11
15.3874807253
 21
20.2160479963
 31
0.0
  0
LINE
  5
453
330
1F
100
AcDbEntity
  8
TRMODEL1
  6
Continuous
 62
     4
100
AcDbLine
 10
15.6902883131
 20
19.988208451
 30
0.0
 11
15.6302612617
 21
19.985707946
 31
0.0
  0
LINE
  5
454
330
1F
100
AcDbEntity
  8
TRMODEL1
  6
Continuous
 62
     4
100
AcDbLine
 10
15.6302612617
 20
19.985707946
 30
0.0
 11
15.5294709662
 21
19.99195792
 31
0.0
  0
LINE
  5
455
330
1F
100
AcDbEntity
  8
TRMODEL1
  6
Continuous
 62
     4
100
AcDbLine
 10
15.5294709662
 20
19.99195792
 30
0.0
 11
15.4259319522
 21
20.01348659
 31
0.0
  0
LINE
  5
456
330
1F
100
AcDbEntity
  8
TRMODEL1
  6
Continuous
 62
     4
100
AcDbLine
 10
15.4259319522
 20
20.01348659
 30
0.0
 11
15.3874807253
 21
20.0248625216
 31
0.0
  0
LINE
  5
457
330
1F
100
AcDbEntity
  8
TRMODEL1
  6
Continuous
 62
     4
100
AcDbLine
 10
15.3578564259
 20
20.3936799716
 30
0.0
 11
15.3799603072
 21
20.4293800007
 31
0.0
  0
LINE
  5
458
330
1F
100
AcDbEntity
  8
TRMODEL1
  6
Continuous
 62
     4
100
AcDbLine
 10
15.3799603072
 20
20.4293800007
 30
0.0
 11
15.4179290092
 21
20.4603134884
 31
0.0
  0
LINE
  5
459
330
1F
100
AcDbEntity
  8
TRMODEL1
  6
Continuous
 62
     4
100
AcDbLine
 10
15.4179290092
 20
20.4603134884
 30
0.0
 11
15.4689465671
 21
20.4841862394
 31
0.0
  0
LINE
  5
45A
330
1F
100
AcDbEntity
  8
TRMODEL1
  6
Continuous
 62
     4
100
AcDbLine
 10
15.4689465671
 20
20.4841862394
 30
0.0
 11
15.5292292419
 21
20.4992277209
 31
0.0
  0
LINE
  5
45B
330
1F
100
AcDbEntity
  8
TRMODEL1
  6
Continuous
 62
     4
100
AcDbLine
 10
15.5292292419
 20
20.4992277209
 30
0.0
 11
15.5943061434
 21
20.5043223753
 31
0.0
  0
LINE
  5
45C
330
1F
100
AcDbEntity
  8
TRMODEL1
  6
Continuous
 62
     4
100
AcDbLine
 10
15.5943061434
 20
20.5043223753
 30
0.0
 11
15.6593508156
 21
20.4990923551
 31
0.0
  0
LINE
  5
45D
330
1F
100
AcDbEntity
  8
TRMODEL1
  6
Continuous
 62
     4
100
AcDbLine
 10
15.6593508156
 20
20.4990923551
 30
0.0
 11
15.7195391926
 21
20.4839255471
 31
0.0
  0
LINE
  5
45E
330
1F
100
AcDbEntity
  8
TRMODEL1
  6
Continuous
 62
     4
100
AcDbLine
 10
15.7195391926
 20
20.4839255471
 30
0.0
 11
15.7704073779
 21
20.459946804
 31
0.0
  0
LINE
  5
45F
330
1F
100
AcDbEntity
  8
TRMODEL1
  6
Continuous
 62
     4
100
AcDbLine
 10
15.7704073779
 20
20.459946804
 30
0.0
 11
15.808182711
 21
20.4289345196
 31
0.0
  0
LINE
  5
460
330
1F
100
AcDbEntity
  8
TRMODEL1
  6
Continuous
 62
     4
100
AcDbLine
 10
15.808182711
 20
20.4289345196
 30
0.0
 11
15.830063568
 21
20.393188733
 31
0.0
  0
LINE
  5
461
330
1F
100
AcDbEntity
  8
TRMODEL1
  6
Continuous
 62
     4
100
AcDbLine
 10
15.830063568
 20
20.393188733
 30
0.0
 11
15.8344271461
 21
20.3553605459
 31
0.0
  0
LINE
  5
462
330
1F
100
AcDbEntity
  8
TRMODEL1
  6
Continuous
 62
     4
100
AcDbLine
 10
15.8344271461
 20
20.3553605459
 30
0.0
 11
15.8209498185
 21
20.3182555016
 31
0.0
  0
LINE
  5
463
330
1F
100
AcDbEntity
  8
TRMODEL1
  6
Continuous
 62
     4
100
AcDbLine
 10
15.8209498185
 20
20.3182555016
 30
0.0
 11
15.7906311369
 21
20.2846255117
 31
0.0
  0
LINE
  5
464
330
1F
100
AcDbEntity
  8
TRMODEL1
  6
Continuous
 62
     4
100
AcDbLine
 10
15.7906311369
 20
20.2846255117
 30
0.0
 11
15.7457196994
 21
20.2569647586
 31
0.0
  0
LINE
  5
465
330
1F
100
AcDbEntity
  8
TRMODEL1
  6
Continuous
 62
     4
100
AcDbLine
 10
15.7457196994
 20
20.2569647586
 30
0.0
 11
15.6895463818
 21
20.2373247139
 31
0.0
  0
LINE
  5
466
330
1F
100
AcDbEntity
  8
TRMODEL1
  6
Continuous
 62
     4
100
AcDbLine
 10
15.6895463818
 20
20.2373247139
 30
0.0
 11
15.626277302
 21
20.2271619898
 31
0.0
  0
LINE
  5
467
330
1F
100
AcDbEntity
  8
TRMODEL1
  6
Continuous
 62
     4
100
AcDbLine
 10
15.626277302
 20
20.2271619898
 30
0.0
 11
15.5606048383
 21
20.227230309
 31
0.0
  0
LINE
  5
468
330
1F
100
AcDbEntity
  8
TRMODEL1
  6
Continuous
 62
     4
100
AcDbLine
 10
15.5606048383
 20
20.227230309
 30
0.0
 11
15.4973996169
 21
20.2375246047
 31
0.0
  0
LINE
  5
469
330
1F
100
AcDbEntity
  8
TRMODEL1
  6
Continuous
 62
     4
100
AcDbLine
 10
15.4973996169
 20
20.2375246047
 30
0.0
 11
15.4413492798
 21
20.2572813961
 31
0.0
  0
LINE
  5
46A
330
1F
100
AcDbEntity
  8
TRMODEL1
  6
Continuous
 62
     4
100
AcDbLine
 10
15.4413492798
 20
20.2572813961
 30
0.0
 11
15.3966108243
 21
20.2850354122
 31
0.0
  0
LINE
  5
46B
330
1F
100
AcDbEntity
  8
TRMODEL1
  6
Continuous
 62
     4
100
AcDbLine
 10
15.3966108243
 20
20.2850354122
 30
0.0
 11
15.3665022968
 21
20.3187282648
 31
0.0
  0
LINE
  5
46C
330
1F
100
AcDbEntity
  8
TRMODEL1
  6
Continuous
 62
     4
100
AcDbLine
 10
15.3665022968
 20
20.3187282648
 30
0.0
 11
15.3532567091
 21
20.3558611089
 31
0.0
  0
LINE
  5
46D
330
1F
100
AcDbEntity
  8
TRMODEL1
  6
Continuous
 62
     4
100
AcDbLine
 10
15.3532567091
 20
20.3558611089
 30
0.0
 11
15.3578564259
 21
20.3936799716
 31
0.0
  0
LINE
  5
46E
330
1F
100
AcDbEntity
  8
TRMODEL1
  6
Continuous
 62
     4
100
AcDbLine
 10
15.8350193633
 20
20.34910835
 30
0.0
 11
15.8344271461
 21
20.3393579449
 31
0.0
  0
LINE
  5
46F
330
1F
100
AcDbEntity
  8
TRMODEL1
  6
Continuous
 62
     4
100
AcDbLine
 10
15.8344271461
 20
20.3393579449
 30
0.0
 11
15.8209498185
 21
20.3022529006
 31
0.0
  0
LINE
  5
470
330
1F
100
AcDbEntity
  8
TRMODEL1
  6
Continuous
 62
     4
100
AcDbLine
 10
15.8209498185
 20
20.3022529006
 30
0.0
 11
15.7906311369
 21
20.2686229107
 31
0.0
  0
LINE
  5
471
330
1F
100
AcDbEntity
  8
TRMODEL1
  6
Continuous
 62
     4
100
AcDbLine
 10
15.7906311369
 20
20.2686229107
 30
0.0
 11
15.7457196994
 21
20.2409621576
 31
0.0
  0
LINE
  5
472
330
1F
100
AcDbEntity
  8
TRMODEL1
  6
Continuous
 62
     4
100
AcDbLine
 10
15.7457196994
 20
20.2409621576
 30
0.0
 11
15.6895463818
 21
20.2213221129
 31
0.0
  0
LINE
  5
473
330
1F
100
AcDbEntity
  8
TRMODEL1
  6
Continuous
 62
     4
100
AcDbLine
 10
15.6895463818
 20
20.2213221129
 30
0.0
 11
15.626277302
 21
20.2111593888
 31
0.0
  0
LINE
  5
474
330
1F
100
AcDbEntity
  8
TRMODEL1
  6
Continuous
 62
     4
100
AcDbLine
 10
15.626277302
 20
20.2111593888
 30
0.0
 11
15.5606048383
 21
20.211227708
 31
0.0
  0
LINE
  5
475
330
1F
100
AcDbEntity
  8
TRMODEL1
  6
Continuous
 62
     4
100
AcDbLine
 10
15.5606048383
 20
20.211227708
 30
0.0
 11
15.4973996169
 21
20.2215220038
 31
0.0
  0
LINE
  5
476
330
1F
100
AcDbEntity
  8
TRMODEL1
  6
Continuous
 62
     4
100
AcDbLine
 10
15.4973996169
 20
20.2215220038
 30
0.0
 11
15.4413492798
 21
20.2412787951
 31
0.0
  0
LINE
  5
477
330
1F
100
AcDbEntity
  8
TRMODEL1
  6
Continuous
 62
     4
100
AcDbLine
 10
15.4413492798
 20
20.2412787951
 30
0.0
 11
15.3966108243
 21
20.2690328113
 31
0.0
  0
LINE
  5
478
330
1F
100
AcDbEntity
  8
TRMODEL1
  6
Continuous
 62
     4
100
AcDbLine
 10
15.3966108243
 20
20.2690328113
 30
0.0
 11
15.3665022968
 21
20.3027256638
 31
0.0
  0
LINE
  5
479
330
1F
100
AcDbEntity
  8
TRMODEL1
  6
Continuous
 62
     4
100
AcDbLine
 10
15.3665022968
 20
20.3027256638
 30
0.0
 11
15.3532567091
 21
20.339858508
 31
0.0
  0
LINE
  5
47A
330
1F
100
AcDbEntity
  8
TRMODEL1
  6
Continuous
 62
     4
100
AcDbLine
 10
15.3532567091
 20
20.339858508
 30
0.0
 11
15.3527238028
 21
20.34910835
 31
0.0
  0
LINE
  5
47B
330
1F
100
AcDbEntity
  8
TRMODEL1
  6
Continuous
 62
     4
100
AcDbLine
 10
15.8002624407
 20
20.4821687037
 30
0.0
 11
15.6557478444
 21
20.4996618195
 31
0.0
  0
LINE
  5
47C
330
1F
100
AcDbEntity
  8
TRMODEL1
  6
Continuous
 62
     4
100
AcDbLine
 10
15.6902883131
 20
20.1793939257
 30
0.0
 11
15.8966791708
 21
20.3124542794
 31
0.0
  0
LINE
  5
47D
330
1F
100
AcDbEntity
  8
TRMODEL1
  6
Continuous
 62
     4
100
AcDbLine
 10
15.4733914647
 20
20.3796947558
 30
0.0
 11
15.4922300569
 21
20.4052009099
 31
0.0
  0
LINE
  5
47E
330
1F
100
AcDbEntity
  8
TRMODEL1
  6
Continuous
 62
     4
100
AcDbLine
 10
15.4922300569
 20
20.4052009099
 30
0.0
 11
15.5265426501
 21
20.4246037312
 31
0.0
  0
LINE
  5
47F
330
1F
100
AcDbEntity
  8
TRMODEL1
  6
Continuous
 62
     4
100
AcDbLine
 10
15.5265426501
 20
20.4246037312
 30
0.0
 11
15.5711054629
 21
20.434949316
 31
0.0
  0
LINE
  5
480
330
1F
100
AcDbEntity
  8
TRMODEL1
  6
Continuous
 62
     4
100
AcDbLine
 10
15.5711054629
 20
20.434949316
 30
0.0
 11
15.6191342112
 21
20.4346626428
 31
0.0
  0
LINE
  5
481
330
1F
100
AcDbEntity
  8
TRMODEL1
  6
Continuous
 62
     4
100
AcDbLine
 10
15.6191342112
 20
20.4346626428
 30
0.0
 11
15.6633169533
 21
20.423787355
 31
0.0
  0
LINE
  5
482
330
1F
100
AcDbEntity
  8
TRMODEL1
  6
Continuous
 62
     4
100
AcDbLine
 10
15.6633169533
 20
20.423787355
 30
0.0
 11
15.6969272674
 21
20.4039791166
 31
0.0
  0
LINE
  5
483
330
1F
100
AcDbEntity
  8
TRMODEL1
  6
Continuous
 62
     4
100
AcDbLine
 10
15.6969272674
 20
20.4039791166
 30
0.0
 11
15.7148482877
 21
20.3782535523
 31
0.0
  0
LINE
  5
484
330
1F
100
AcDbEntity
  8
TRMODEL1
  6
Continuous
 62
     4
100
AcDbLine
 10
15.7148482877
 20
20.3782535523
 30
0.0
 11
15.7143517013
 21
20.3505271461
 31
0.0
  0
LINE
  5
485
330
1F
100
AcDbEntity
  8
TRMODEL1
  6
Continuous
 62
     4
100
AcDbLine
 10
15.7143517013
 20
20.3505271461
 30
0.0
 11
15.6955131091
 21
20.325020992
 31
0.0
  0
LINE
  5
486
330
1F
100
AcDbEntity
  8
TRMODEL1
  6
Continuous
 62
     4
100
AcDbLine
 10
15.6955131091
 20
20.325020992
 30
0.0
 11
15.661200516
 21
20.3056181707
 31
0.0
  0
LINE
  5
487
330
1F
100
AcDbEntity
  8
TRMODEL1
  6
Continuous
 62
     4
100
AcDbLine
 10
15.661200516
 20
20.3056181707
 30
0.0
 11
15.6166377031
 21
20.2952725859
 31
0.0
  0
LINE
  5
488
330
1F
100
AcDbEntity
  8
TRMODEL1
  6
Continuous
 62
     4
100
AcDbLine
 10
15.6166377031
 20
20.2952725859
 30
0.0
 11
15.5686089549
 21
20.2955592591
 31
0.0
  0
LINE
  5
489
330
1F
100
AcDbEntity
  8
TRMODEL1
  6
Continuous
 62
     4
100
AcDbLine
 10
15.5686089549
 20
20.2955592591
 30
0.0
 11
15.5244262127
 21
20.3064345469
 31
0.0
  0
LINE
  5
48A
330
1F
100
AcDbEntity
  8
TRMODEL1
  6
Continuous
 62
     4
100
AcDbLine
 10
15.5244262127
 20
20.3064345469
 30
0.0
 11
15.4908158987
 21
20.3262427853
 31
0.0
  0
LINE
  5
48B
330
1F
100
AcDbEntity
  8
TRMODEL1
  6
Continuous
 62
     4
100
AcDbLine
 10
15.4908158987
 20
20.3262427853
 30
0.0
 11
15.4728948784
 21
20.3519683496
 31
0.0
  0
LINE
  5
48C
330
1F
100
AcDbEntity
  8
TRMODEL1
  6
Continuous
 62
     4
100
AcDbLine
 10
15.4728948784
 20
20.3519683496
 30
0.0
 11
15.4733914647
 21
20.3796947558
 31
0.0
  0
LINE
  5
48D
330
1F
100
AcDbEntity
  8
TRMODEL1
  6
Continuous
 62
     4
100
AcDbLine
 10
15.2910639953
 20
20.3857624205
 30
0.0
 11
15.3874807253
 21
20.2160479963
 31
0.0
  0
LINE
  5
48E
330
1F
100
AcDbEntity
  8
TRMODEL1
  6
Continuous
 62
     4
100
AcDbLine
 10
15.2910639953
 20
20.1945769459
 30
0.0
 11
15.2910639953
 21
20.3857624205
 31
0.0
  0
LINE
  5
48F
330
1F
100
AcDbEntity
  8
TRMODEL1
  6
Continuous
 62
     4
100
AcDbLine
 10
15.3874807253
 20
20.2160479963
 30
0.0
 11
15.6902883131
 21
20.1793939257
 31
0.0
  0
LINE
  5
490
330
1F
100
AcDbEntity
  8
TRMODEL1
  6
Continuous
 62
     4
100
AcDbLine
 10
15.6308340792
 20
20.502677566
 30
0.0
 11
15.497454853
 21
20.5188227742
 31
0.0
  0
LINE
  5
491
330
1F
100
AcDbEntity
  8
TRMODEL1
  6
Continuous
 62
     4
100
AcDbLine
 10
15.3527238028
 20
20.34910835
 30
0.0
 11
15.3527238028
 21
20.365110951
 31
0.0
  0
LINE
  5
492
330
1F
100
AcDbEntity
  8
TRMODEL1
  6
Continuous
 62
     4
100
AcDbLine
 10
15.497454853
 20
20.5188227742
 30
0.0
 11
15.2910639953
 21
20.3857624205
 31
0.0
  0
LINE
  5
493
330
1F
100
AcDbEntity
  8
TRMODEL1
  6
Continuous
 62
     2
100
AcDbLine
 10
16.3776574854
 20
20.1614628378
 30
0.0
 11
16.0260949854
 21
20.2200565878
 31
0.0
  0
LINE
  5
494
330
1F
100
AcDbEntity
  8
TRMODEL1
  6
Continuous
 62
     2
100
AcDbLine
 10
16.0260949854
 20
20.2200565878
 30
0.0
 11
16.3776574854
 21
20.2786503378
 31
0.0
  0
LINE
  5
495
330
1F
100
AcDbEntity
  8
TRMODEL1
  6
Continuous
 62
     2
100
AcDbLine
 10
16.3776574854
 20
20.2786503378
 30
0.0
 11
16.3776574854
 21
20.1614628378
 31
0.0
  0
LINE
  5
496
330
1F
100
AcDbEntity
  8
TRMODEL1
  6
Continuous
 62
     4
100
AcDbLine
 10
15.8966791708
 20
20.1212688047
 30
0.0
 11
15.8966791708
 21
20.3124542794
 31
0.0
  0
LINE
  5
497
330
1F
100
AcDbEntity
  8
TRMODEL1
  6
Continuous
 62
     4
100
AcDbLine
 10
15.8350193633
 20
20.365110951
 30
0.0
 11
15.8350193633
 21
20.34910835
 31
0.0
  0
LINE
  5
498
330
1F
100
AcDbEntity
  8
TRMODEL1
  6
Continuous
 62
     4
100
AcDbLine
 10
15.8966791708
 20
20.3124542794
 30
0.0
 11
15.8002624407
 21
20.4821687037
 31
0.0
  0
LINE
  5
499
330
1F
100
AcDbEntity
  8
TRMODEL1
  6
Continuous
 62
     2
100
AcDbLine
 10
15.7381233075
 20
25.0183911021
 30
0.0
 11
15.7466335336
 21
24.9998911012
 31
0.0
  0
LINE
  5
49A
330
1F
100
AcDbEntity
  8
TRMODEL1
  6
Continuous
 62
     2
100
AcDbLine
 10
15.7466335336
 20
24.9998911012
 30
0.0
 11
15.7414084339
 21
24.9730068806
 31
0.0
  0
LINE
  5
49B
330
1F
100
AcDbEntity
  8
TRMODEL1
  6
Continuous
 62
     2
100
AcDbLine
 10
15.7414084339
 20
24.9730068806
 30
0.0
 11
15.7194818796
 21
24.9487821077
 31
0.0
  0
LINE
  5
49C
330
1F
100
AcDbEntity
  8
TRMODEL1
  6
Continuous
 62
     2
100
AcDbLine
 10
15.7194818796
 20
24.9487821077
 30
0.0
 11
15.6833375642
 21
24.9302851509
 31
0.0
  0
LINE
  5
49D
330
1F
100
AcDbEntity
  8
TRMODEL1
  6
Continuous
 62
     2
100
AcDbLine
 10
15.6833375642
 20
24.9302851509
 30
0.0
 11
15.6370659278
 21
24.919911564
 31
0.0
  0
LINE
  5
49E
330
1F
100
AcDbEntity
  8
TRMODEL1
  6
Continuous
 62
     2
100
AcDbLine
 10
15.6370659278
 20
24.919911564
 30
0.0
 11
15.5859031147
 21
24.9191218332
 31
0.0
  0
LINE
  5
49F
330
1F
100
AcDbEntity
  8
TRMODEL1
  6
Continuous
 62
     2
100
AcDbLine
 10
15.5859031147
 20
24.9191218332
 30
0.0
 11
15.5356457715
 21
24.928345535
 31
0.0
  0
LINE
  5
4A0
330
1F
100
AcDbEntity
  8
TRMODEL1
  6
Continuous
 62
     2
100
AcDbLine
 10
15.5356457715
 20
24.928345535
 30
0.0
 11
15.4919749189
 21
24.9467989138
 31
0.0
  0
LINE
  5
4A1
330
1F
100
AcDbEntity
  8
TRMODEL1
  6
Continuous
 62
     2
100
AcDbLine
 10
15.4919749189
 20
24.9467989138
 30
0.0
 11
15.4598423149
 21
24.9727425638
 31
0.0
  0
LINE
  5
4A2
330
1F
100
AcDbEntity
  8
TRMODEL1
  6
Continuous
 62
     2
100
AcDbLine
 10
15.4598423149
 20
24.9727425638
 30
0.0
 11
15.4428793674
 21
25.0035051162
 31
0.0
  0
LINE
  5
4A3
330
1F
100
AcDbEntity
  8
TRMODEL1
  6
Continuous
 62
     2
100
AcDbLine
 10
15.4428793674
 20
25.0035051162
 30
0.0
 11
15.4430090831
 21
25.0359392307
 31
0.0
  0
LINE
  5
4A4
330
1F
100
AcDbEntity
  8
TRMODEL1
  6
Continuous
 62
     2
100
AcDbLine
 10
15.4430090831
 20
25.0359392307
 30
0.0
 11
15.4469404516
 21
25.042957909
 31
0.0
  0
LINE
  5
4A5
330
1F
100
AcDbEntity
  8
TRMODEL1
  6
Continuous
 62
     2
100
AcDbLine
 10
15.44280206
 20
25.0676411092
 30
0.0
 11
15.4441824985
 21
25.0473210901
 31
0.0
  0
LINE
  5
4A6
330
1F
100
AcDbEntity
  8
TRMODEL1
  6
Continuous
 62
     2
100
AcDbLine
 10
15.4441824985
 20
25.0473210901
 30
0.0
 11
15.4633290506
 21
25.0170305558
 31
0.0
  0
LINE
  5
4A7
330
1F
100
AcDbEntity
  8
TRMODEL1
  6
Continuous
 62
     2
100
AcDbLine
 10
15.4633290506
 20
25.0170305558
 30
0.0
 11
15.4972507749
 21
24.9919492144
 31
0.0
  0
LINE
  5
4A8
330
1F
100
AcDbEntity
  8
TRMODEL1
  6
Continuous
 62
     2
100
AcDbLine
 10
15.4972507749
 20
24.9919492144
 30
0.0
 11
15.5421132094
 21
24.9746525859
 31
0.0
  0
LINE
  5
4A9
330
1F
100
AcDbEntity
  8
TRMODEL1
  6
Continuous
 62
     2
100
AcDbLine
 10
15.5421132094
 20
24.9746525859
 30
0.0
 11
15.5928301517
 21
24.9667500535
 31
0.0
  0
LINE
  5
4AA
330
1F
100
AcDbEntity
  8
TRMODEL1
  6
Continuous
 62
     2
100
AcDbLine
 10
15.5928301517
 20
24.9667500535
 30
0.0
 11
15.6436692321
 21
24.9688706856
 31
0.0
  0
LINE
  5
4AB
330
1F
100
AcDbEntity
  8
TRMODEL1
  6
Continuous
 62
     2
100
AcDbLine
 10
15.6436692321
 20
24.9688706856
 30
0.0
 11
15.6888684583
 21
24.980441193
 31
0.0
  0
LINE
  5
4AC
330
1F
100
AcDbEntity
  8
TRMODEL1
  6
Continuous
 62
     2
100
AcDbLine
 10
15.6888684583
 20
24.980441193
 30
0.0
 11
15.7233154551
 21
24.9998615692
 31
0.0
  0
LINE
  5
4AD
330
1F
100
AcDbEntity
  8
TRMODEL1
  6
Continuous
 62
     2
100
AcDbLine
 10
15.7233154551
 20
24.9998615692
 30
0.0
 11
15.7431095557
 21
25.0246305517
 31
0.0
  0
LINE
  5
4AE
330
1F
100
AcDbEntity
  8
TRMODEL1
  6
Continuous
 62
     2
100
AcDbLine
 10
15.7431095557
 20
25.0246305517
 30
0.0
 11
15.7450454272
 21
25.0426429765
 31
0.0
  0
LINE
  5
4AF
330
1F
100
AcDbEntity
  8
TRMODEL1
  6
Continuous
 62
     2
100
AcDbLine
 10
15.4422153895
 20
25.1175132966
 30
0.0
 11
15.4411575105
 21
25.1106751316
 31
0.0
  0
LINE
  5
4B0
330
1F
100
AcDbEntity
  8
TRMODEL1
  6
Continuous
 62
     2
100
AcDbLine
 10
15.4411575105
 20
25.1106751316
 30
0.0
 11
15.4534488244
 21
25.0791009707
 31
0.0
  0
LINE
  5
4B1
330
1F
100
AcDbEntity
  8
TRMODEL1
  6
Continuous
 62
     2
100
AcDbLine
 10
15.4534488244
 20
25.0791009707
 30
0.0
 11
15.4816366248
 21
25.0515274503
 31
0.0
  0
LINE
  5
4B2
330
1F
100
AcDbEntity
  8
TRMODEL1
  6
Continuous
 62
     2
100
AcDbLine
 10
15.4816366248
 20
25.0515274503
 30
0.0
 11
15.5225268248
 21
25.0307416315
 31
0.0
  0
LINE
  5
4B3
330
1F
100
AcDbEntity
  8
TRMODEL1
  6
Continuous
 62
     2
100
AcDbLine
 10
15.5225268248
 20
25.0307416315
 30
0.0
 11
15.5714967209
 21
25.0188283924
 31
0.0
  0
LINE
  5
4B4
330
1F
100
AcDbEntity
  8
TRMODEL1
  6
Continuous
 62
     2
100
AcDbLine
 10
15.5714967209
 20
25.0188283924
 30
0.0
 11
15.6229952919
 21
25.0167919036
 31
0.0
  0
LINE
  5
4B5
330
1F
100
AcDbEntity
  8
TRMODEL1
  6
Continuous
 62
     2
100
AcDbLine
 10
15.6229952919
 20
25.0167919036
 30
0.0
 11
15.6712008882
 21
25.0245982707
 31
0.0
  0
LINE
  5
4B6
330
1F
100
AcDbEntity
  8
TRMODEL1
  6
Continuous
 62
     2
100
AcDbLine
 10
15.6712008882
 20
25.0245982707
 30
0.0
 11
15.7106499326
 21
25.041023157
 31
0.0
  0
LINE
  5
4B7
330
1F
100
AcDbEntity
  8
TRMODEL1
  6
Continuous
 62
     2
100
AcDbLine
 10
15.7106499326
 20
25.041023157
 30
0.0
 11
15.7368818666
 21
25.0639296362
 31
0.0
  0
LINE
  5
4B8
330
1F
100
AcDbEntity
  8
TRMODEL1
  6
Continuous
 62
     2
100
AcDbLine
 10
15.7368818666
 20
25.0639296362
 30
0.0
 11
15.7469247115
 21
25.0904086824
 31
0.0
  0
LINE
  5
4B9
330
1F
100
AcDbEntity
  8
TRMODEL1
  6
Continuous
 62
     2
100
AcDbLine
 10
15.7469247115
 20
25.0904086824
 30
0.0
 11
15.7463434166
 21
25.0925434926
 31
0.0
  0
LINE
  5
4BA
330
1F
100
AcDbEntity
  8
TRMODEL1
  6
Continuous
 62
     2
100
AcDbLine
 10
15.7387293221
 20
25.0688006523
 30
0.0
 11
15.7416126469
 21
25.0655718845
 31
0.0
  0
LINE
  5
4BB
330
1F
100
AcDbEntity
  8
TRMODEL1
  6
Continuous
 62
     2
100
AcDbLine
 10
15.7416126469
 20
25.0655718845
 30
0.0
 11
15.7465796162
 21
25.0386667871
 31
0.0
  0
LINE
  5
4BC
330
1F
100
AcDbEntity
  8
TRMODEL1
  6
Continuous
 62
     2
100
AcDbLine
 10
15.7465796162
 20
25.0386667871
 30
0.0
 11
15.7342606687
 21
25.0124831327
 31
0.0
  0
LINE
  5
4BD
330
1F
100
AcDbEntity
  8
TRMODEL1
  6
Continuous
 62
     2
100
AcDbLine
 10
15.7342606687
 20
25.0124831327
 30
0.0
 11
15.7060495412
 21
24.9902855238
 31
0.0
  0
LINE
  5
4BE
330
1F
100
AcDbEntity
  8
TRMODEL1
  6
Continuous
 62
     2
100
AcDbLine
 10
15.7060495412
 20
24.9902855238
 30
0.0
 11
15.6651415882
 21
24.974910921
 31
0.0
  0
LINE
  5
4BF
330
1F
100
AcDbEntity
  8
TRMODEL1
  6
Continuous
 62
     2
100
AcDbLine
 10
15.6651415882
 20
24.974910921
 30
0.0
 11
15.6161634752
 21
24.9683747631
 31
0.0
  0
LINE
  5
4C0
330
1F
100
AcDbEntity
  8
TRMODEL1
  6
Continuous
 62
     2
100
AcDbLine
 10
15.6161634752
 20
24.9683747631
 30
0.0
 11
15.564665375
 21
24.9717572945
 31
0.0
  0
LINE
  5
4C1
330
1F
100
AcDbEntity
  8
TRMODEL1
  6
Continuous
 62
     2
100
AcDbLine
 10
15.564665375
 20
24.9717572945
 30
0.0
 11
15.5164696463
 21
24.9849404775
 31
0.0
  0
LINE
  5
4C2
330
1F
100
AcDbEntity
  8
TRMODEL1
  6
Continuous
 62
     2
100
AcDbLine
 10
15.5164696463
 20
24.9849404775
 30
0.0
 11
15.477039072
 21
25.0067751415
 31
0.0
  0
LINE
  5
4C3
330
1F
100
AcDbEntity
  8
TRMODEL1
  6
Continuous
 62
     2
100
AcDbLine
 10
15.477039072
 20
25.0067751415
 30
0.0
 11
15.450831151
 21
25.0350624974
 31
0.0
  0
LINE
  5
4C4
330
1F
100
AcDbEntity
  8
TRMODEL1
  6
Continuous
 62
     2
100
AcDbLine
 10
15.450831151
 20
25.0350624974
 30
0.0
 11
15.4408161995
 21
25.0669248193
 31
0.0
  0
LINE
  5
4C5
330
1F
100
AcDbEntity
  8
TRMODEL1
  6
Continuous
 62
     2
100
AcDbLine
 10
15.4408161995
 20
25.0669248193
 30
0.0
 11
15.4472245137
 21
25.0950900984
 31
0.0
  0
LINE
  5
4C6
330
1F
100
AcDbEntity
  8
TRMODEL1
  6
Continuous
 62
     4
100
AcDbLine
 10
14.5432143558
 20
24.02194932
 30
0.0
 11
14.9762739892
 21
24.271949325
 31
0.0
  0
LINE
  5
4C7
330
1F
100
AcDbEntity
  8
TRMODEL1
  6
Continuous
 62
     4
100
AcDbLine
 10
14.5432143558
 20
24.02194932
 30
0.0
 11
14.8723396772
 21
23.8319493162
 31
0.0
  0
LINE
  5
4C8
330
1F
100
AcDbEntity
  8
TRMODEL1
  6
Continuous
 62
     4
100
AcDbLine
 10
14.5432143558
 20
23.9594391599
 30
0.0
 11
14.8723396772
 21
23.7694391561
 31
0.0
  0
LINE
  5
4C9
330
1F
100
AcDbEntity
  8
TRMODEL1
  6
Continuous
 62
     4
100
AcDbLine
 10
14.9012563324
 20
24.2793778846
 30
0.0
 11
14.4681966989
 21
24.0293778796
 31
0.0
  0
LINE
  5
4CA
330
1F
100
AcDbEntity
  8
TRMODEL1
  6
Continuous
 62
     4
100
AcDbLine
 10
14.4371147456
 20
23.9606794075
 30
0.0
 11
14.4391534198
 21
23.9834049553
 31
0.0
  0
LINE
  5
4CB
330
1F
100
AcDbEntity
  8
TRMODEL1
  6
Continuous
 62
     4
100
AcDbLine
 10
14.4391534198
 20
23.9834049553
 30
0.0
 11
14.4451910975
 21
24.0029033699
 31
0.0
  0
LINE
  5
4CC
330
1F
100
AcDbEntity
  8
TRMODEL1
  6
Continuous
 62
     4
100
AcDbLine
 10
14.4451910975
 20
24.0029033699
 30
0.0
 11
14.454995754
 21
24.0184253381
 31
0.0
  0
LINE
  5
4CD
330
1F
100
AcDbEntity
  8
TRMODEL1
  6
Continuous
 62
     4
100
AcDbLine
 10
14.454995754
 20
24.0184253381
 30
0.0
 11
14.4681906019
 21
24.0293743593
 31
0.0
  0
LINE
  5
4CE
330
1F
100
AcDbEntity
  8
TRMODEL1
  6
Continuous
 62
     4
100
AcDbLine
 10
14.4681906019
 20
24.0293743593
 30
0.0
 11
14.4842685706
 21
24.0353296689
 31
0.0
  0
LINE
  5
4CF
330
1F
100
AcDbEntity
  8
TRMODEL1
  6
Continuous
 62
     4
100
AcDbLine
 10
14.4842685706
 20
24.0353296689
 30
0.0
 11
14.5026117928
 21
24.0360624076
 31
0.0
  0
LINE
  5
4D0
330
1F
100
AcDbEntity
  8
TRMODEL1
  6
Continuous
 62
     4
100
AcDbLine
 10
14.5026117928
 20
24.0360624076
 30
0.0
 11
14.5225153487
 21
24.0315444167
 31
0.0
  0
LINE
  5
4D1
330
1F
100
AcDbEntity
  8
TRMODEL1
  6
Continuous
 62
     4
100
AcDbLine
 10
14.5225153487
 20
24.0315444167
 30
0.0
 11
14.5432143558
 21
24.02194932
 31
0.0
  0
LINE
  5
4D2
330
1F
100
AcDbEntity
  8
TRMODEL1
  6
Continuous
 62
     4
100
AcDbLine
 10
14.4912471998
 20
23.6143782
 30
0.0
 11
14.4912471998
 21
23.9294294069
 31
0.0
  0
LINE
  5
4D3
330
1F
100
AcDbEntity
  8
TRMODEL1
  6
Continuous
 62
     4
100
AcDbLine
 10
14.8160947174
 20
23.8019086803
 30
0.0
 11
14.4912471998
 21
23.6143782
 31
0.0
  0
LINE
  5
4D4
330
1F
100
AcDbEntity
  8
TRMODEL1
  6
Continuous
 62
     4
100
AcDbLine
 10
14.4371147456
 20
23.6456282007
 30
0.0
 11
14.4371147456
 21
23.9606794075
 31
0.0
  0
LINE
  5
4D5
330
1F
100
AcDbEntity
  8
TRMODEL1
  6
Continuous
 62
     4
100
AcDbLine
 10
14.4912471998
 20
23.6143782
 30
0.0
 11
14.4371147456
 21
23.6456282007
 31
0.0
  0
LINE
  5
4D6
330
1F
100
AcDbEntity
  8
TRMODEL1
  6
Continuous
 62
     4
100
AcDbLine
 10
14.4912471998
 20
23.9294294069
 30
0.0
 11
14.4922457341
 21
23.9405602874
 31
0.0
  0
LINE
  5
4D7
330
1F
100
AcDbEntity
  8
TRMODEL1
  6
Continuous
 62
     4
100
AcDbLine
 10
14.4922457341
 20
23.9405602874
 30
0.0
 11
14.495202964
 21
23.9501105313
 31
0.0
  0
LINE
  5
4D8
330
1F
100
AcDbEntity
  8
TRMODEL1
  6
Continuous
 62
     4
100
AcDbLine
 10
14.495202964
 20
23.9501105313
 30
0.0
 11
14.5000052447
 21
23.957713128
 31
0.0
  0
LINE
  5
4D9
330
1F
100
AcDbEntity
  8
TRMODEL1
  6
Continuous
 62
     4
100
AcDbLine
 10
14.5000052447
 20
23.957713128
 30
0.0
 11
14.5064680274
 21
23.9630759139
 31
0.0
  0
LINE
  5
4DA
330
1F
100
AcDbEntity
  8
TRMODEL1
  6
Continuous
 62
     4
100
AcDbLine
 10
14.5064680274
 20
23.9630759139
 30
0.0
 11
14.5143429508
 21
23.9659928002
 31
0.0
  0
LINE
  5
4DB
330
1F
100
AcDbEntity
  8
TRMODEL1
  6
Continuous
 62
     4
100
AcDbLine
 10
14.5143429508
 20
23.9659928002
 30
0.0
 11
14.5233273861
 21
23.9663516926
 31
0.0
  0
LINE
  5
4DC
330
1F
100
AcDbEntity
  8
TRMODEL1
  6
Continuous
 62
     4
100
AcDbLine
 10
14.5233273861
 20
23.9663516926
 30
0.0
 11
14.5330760666
 21
23.9641387991
 31
0.0
  0
LINE
  5
4DD
330
1F
100
AcDbEntity
  8
TRMODEL1
  6
Continuous
 62
     4
100
AcDbLine
 10
14.5330760666
 20
23.9641387991
 30
0.0
 11
14.5432143558
 21
23.9594391599
 31
0.0
  0
LINE
  5
4DE
330
1F
100
AcDbEntity
  8
TRMODEL1
  6
Continuous
 62
     4
100
AcDbLine
 10
14.4912471998
 20
23.9294294069
 30
0.0
 11
14.5432143558
 21
23.9594391599
 31
0.0
  0
LINE
  5
4DF
330
1F
100
AcDbEntity
  8
TRMODEL1
  6
Continuous
 62
     4
100
AcDbLine
 10
16.7106778213
 20
23.1481793912
 30
0.0
 11
16.7106778213
 21
22.8331281844
 31
0.0
  0
LINE
  5
4E0
330
1F
100
AcDbEntity
  8
TRMODEL1
  6
Continuous
 62
     4
100
AcDbLine
 10
16.2776181878
 20
22.8981793862
 30
0.0
 11
16.7106778213
 21
23.1481793912
 31
0.0
  0
LINE
  5
4E1
330
1F
100
AcDbEntity
  8
TRMODEL1
  6
Continuous
 62
     2
100
AcDbLine
 10
17.1908817198
 20
22.9794243705
 30
0.0
 11
16.8393192198
 21
23.0380181205
 31
0.0
  0
LINE
  5
4E2
330
1F
100
AcDbEntity
  8
TRMODEL1
  6
Continuous
 62
     2
100
AcDbLine
 10
16.8393192198
 20
23.0380181205
 30
0.0
 11
17.1908817198
 21
23.0966118705
 31
0.0
  0
LINE
  5
4E3
330
1F
100
AcDbEntity
  8
TRMODEL1
  6
Continuous
 62
     2
100
AcDbLine
 10
17.1908817198
 20
23.0966118705
 30
0.0
 11
17.1908817198
 21
22.9794243705
 31
0.0
  0
LINE
  5
4E4
330
1F
100
AcDbEntity
  8
TRMODEL1
  6
Continuous
 62
     4
100
AcDbLine
 10
15.0304064434
 20
23.2406180337
 30
0.0
 11
15.68432649
 21
22.8631180262
 31
0.0
  0
LINE
  5
4E5
330
1F
100
AcDbEntity
  8
TRMODEL1
  6
Continuous
 62
     4
100
AcDbLine
 10
15.0304064434
 20
23.1781078736
 30
0.0
 11
15.68432649
 21
22.8006078661
 31
0.0
  0
LINE
  5
4E6
330
1F
100
AcDbEntity
  8
TRMODEL1
  6
Continuous
 62
     4
100
AcDbLine
 10
15.736293646
 20
22.8931277793
 30
0.0
 11
15.736293646
 21
23.2106793925
 31
0.0
  0
LINE
  5
4E7
330
1F
100
AcDbEntity
  8
TRMODEL1
  6
Continuous
 62
     4
100
AcDbLine
 10
15.7904261002
 20
22.8618777786
 30
0.0
 11
15.7904261002
 21
23.1794293919
 31
0.0
  0
LINE
  5
4E8
330
1F
100
AcDbEntity
  8
TRMODEL1
  6
Continuous
 62
     4
100
AcDbLine
 10
16.1174392679
 20
23.0506584621
 30
0.0
 11
15.7904261002
 21
22.8618777786
 31
0.0
  0
LINE
  5
4E9
330
1F
100
AcDbEntity
  8
TRMODEL1
  6
Continuous
 62
     4
100
AcDbLine
 10
15.8423932562
 20
23.2094391449
 30
0.0
 11
16.1715185776
 21
23.0194391411
 31
0.0
  0
LINE
  5
4EA
330
1F
100
AcDbEntity
  8
TRMODEL1
  6
Continuous
 62
     4
100
AcDbLine
 10
16.1715185776
 20
23.0819493012
 30
0.0
 11
16.1922175847
 21
23.067645833
 31
0.0
  0
LINE
  5
4EB
330
1F
100
AcDbEntity
  8
TRMODEL1
  6
Continuous
 62
     4
100
AcDbLine
 10
16.1922175847
 20
23.067645833
 30
0.0
 11
16.2121211406
 21
23.0491836674
 31
0.0
  0
LINE
  5
4EC
330
1F
100
AcDbEntity
  8
TRMODEL1
  6
Continuous
 62
     4
100
AcDbLine
 10
16.2121211406
 20
23.0491836674
 30
0.0
 11
16.2304643628
 21
23.0272722952
 31
0.0
  0
LINE
  5
4ED
330
1F
100
AcDbEntity
  8
TRMODEL1
  6
Continuous
 62
     4
100
AcDbLine
 10
16.2304643628
 20
23.0272722952
 30
0.0
 11
16.2465423315
 21
23.0027537581
 31
0.0
  0
LINE
  5
4EE
330
1F
100
AcDbEntity
  8
TRMODEL1
  6
Continuous
 62
     4
100
AcDbLine
 10
16.2465423315
 20
23.0027537581
 30
0.0
 11
16.2597371794
 21
22.9765702897
 31
0.0
  0
LINE
  5
4EF
330
1F
100
AcDbEntity
  8
TRMODEL1
  6
Continuous
 62
     4
100
AcDbLine
 10
16.2597371794
 20
22.9765702897
 30
0.0
 11
16.2695418359
 21
22.9497281061
 31
0.0
  0
LINE
  5
4F0
330
1F
100
AcDbEntity
  8
TRMODEL1
  6
Continuous
 62
     4
100
AcDbLine
 10
16.2695418359
 20
22.9497281061
 30
0.0
 11
16.2755795136
 21
22.9232587373
 31
0.0
  0
LINE
  5
4F1
330
1F
100
AcDbEntity
  8
TRMODEL1
  6
Continuous
 62
     4
100
AcDbLine
 10
16.2755795136
 20
22.9232587373
 30
0.0
 11
16.2776181878
 21
22.8981793862
 31
0.0
  0
LINE
  5
4F2
330
1F
100
AcDbEntity
  8
TRMODEL1
  6
Continuous
 62
     4
100
AcDbLine
 10
16.2776181878
 20
22.5831281794
 30
0.0
 11
16.7106778213
 21
22.8331281844
 31
0.0
  0
LINE
  5
4F3
330
1F
100
AcDbEntity
  8
TRMODEL1
  6
Continuous
 62
     2
100
AcDbLine
 10
16.4996389153
 20
21.7251840739
 30
0.0
 11
18.1752713268
 21
21.7251840739
 31
0.0
  0
LINE
  5
4F4
330
1F
100
AcDbEntity
  8
TRMODEL1
  6
Continuous
 62
     4
100
AcDbLine
 10
15.7564948489
 20
21.7221315066
 30
0.0
 11
15.7541940352
 21
21.7257401967
 31
0.0
  0
LINE
  5
4F5
330
1F
100
AcDbEntity
  8
TRMODEL1
  6
Continuous
 62
     4
100
AcDbLine
 10
15.7541940352
 20
21.7257401967
 30
0.0
 11
15.7251947683
 21
21.7538350863
 31
0.0
  0
LINE
  5
4F6
330
1F
100
AcDbEntity
  8
TRMODEL1
  6
Continuous
 62
     4
100
AcDbLine
 10
15.7251947683
 20
21.7538350863
 30
0.0
 11
15.6819645966
 21
21.7749719493
 31
0.0
  0
LINE
  5
4F7
330
1F
100
AcDbEntity
  8
TRMODEL1
  6
Continuous
 62
     4
100
AcDbLine
 10
15.6819645966
 20
21.7749719493
 30
0.0
 11
15.6291881799
 21
21.7868602786
 31
0.0
  0
LINE
  5
4F8
330
1F
100
AcDbEntity
  8
TRMODEL1
  6
Continuous
 62
     4
100
AcDbLine
 10
15.6291881799
 20
21.7868602786
 30
0.0
 11
15.572584662
 21
21.7882117892
 31
0.0
  0
LINE
  5
4F9
330
1F
100
AcDbEntity
  8
TRMODEL1
  6
Continuous
 62
     4
100
AcDbLine
 10
15.572584662
 20
21.7882117892
 30
0.0
 11
15.5182879122
 21
21.7788800241
 31
0.0
  0
LINE
  5
4FA
330
1F
100
AcDbEntity
  8
TRMODEL1
  6
Continuous
 62
     4
100
AcDbLine
 10
15.5182879122
 20
21.7788800241
 30
0.0
 11
15.472181826
 21
21.7598762248
 31
0.0
  0
LINE
  5
4FB
330
1F
100
AcDbEntity
  8
TRMODEL1
  6
Continuous
 62
     4
100
AcDbLine
 10
15.472181826
 20
21.8248867913
 30
0.0
 11
15.4392627132
 21
21.7982703143
 31
0.0
  0
LINE
  5
4FC
330
1F
100
AcDbEntity
  8
TRMODEL1
  6
Continuous
 62
     4
100
AcDbLine
 10
15.4392627132
 20
21.7982703143
 30
0.0
 11
15.4230978704
 21
21.7669254679
 31
0.0
  0
LINE
  5
4FD
330
1F
100
AcDbEntity
  8
TRMODEL1
  6
Continuous
 62
     4
100
AcDbLine
 10
15.4230978704
 20
21.7669254679
 30
0.0
 11
15.4254390093
 21
21.7342489525
 31
0.0
  0
LINE
  5
4FE
330
1F
100
AcDbEntity
  8
TRMODEL1
  6
Continuous
 62
     4
100
AcDbLine
 10
15.4254390093
 20
21.7342489525
 30
0.0
 11
15.446032431
 21
21.7037817757
 31
0.0
  0
LINE
  5
4FF
330
1F
100
AcDbEntity
  8
TRMODEL1
  6
Continuous
 62
     4
100
AcDbLine
 10
15.446032431
 20
21.7037817757
 30
0.0
 11
15.4826465187
 21
21.6788255287
 31
0.0
  0
LINE
  5
500
330
1F
100
AcDbEntity
  8
TRMODEL1
  6
Continuous
 62
     4
100
AcDbLine
 10
15.4826465187
 20
21.6788255287
 30
0.0
 11
15.5313135681
 21
21.6620846083
 31
0.0
  0
LINE
  5
501
330
1F
100
AcDbEntity
  8
TRMODEL1
  6
Continuous
 62
     4
100
AcDbLine
 10
15.5313135681
 20
21.6620846083
 30
0.0
 11
15.586759749
 21
21.6553731528
 31
0.0
  0
LINE
  5
502
330
1F
100
AcDbEntity
  8
TRMODEL1
  6
Continuous
 62
     4
100
AcDbLine
 10
15.586759749
 20
21.6553731528
 30
0.0
 11
15.6429766075
 21
21.6594184526
 31
0.0
  0
LINE
  5
503
330
1F
100
AcDbEntity
  8
TRMODEL1
  6
Continuous
 62
     4
100
AcDbLine
 10
15.6429766075
 20
21.6594184526
 30
0.0
 11
15.6938721747
 21
21.6737821367
 31
0.0
  0
LINE
  5
504
330
1F
100
AcDbEntity
  8
TRMODEL1
  6
Continuous
 62
     4
100
AcDbLine
 10
15.6938721747
 20
21.6737821367
 30
0.0
 11
15.7339311261
 21
21.6969076771
 31
0.0
  0
LINE
  5
505
330
1F
100
AcDbEntity
  8
TRMODEL1
  6
Continuous
 62
     4
100
AcDbLine
 10
15.7339311261
 20
21.6969076771
 30
0.0
 11
15.7588124527
 21
21.7262890627
 31
0.0
  0
LINE
  5
506
330
1F
100
AcDbEntity
  8
TRMODEL1
  6
Continuous
 62
     4
100
AcDbLine
 10
15.7588124527
 20
21.7262890627
 30
0.0
 11
15.7658198768
 21
21.7587423643
 31
0.0
  0
LINE
  5
507
330
1F
100
AcDbEntity
  8
TRMODEL1
  6
Continuous
 62
     4
100
AcDbLine
 10
15.7658198768
 20
21.7587423643
 30
0.0
 11
15.7541940352
 21
21.7907507632
 31
0.0
  0
LINE
  5
508
330
1F
100
AcDbEntity
  8
TRMODEL1
  6
Continuous
 62
     4
100
AcDbLine
 10
15.7541940352
 20
21.7907507632
 30
0.0
 11
15.7251947683
 21
21.8188456528
 31
0.0
  0
LINE
  5
509
330
1F
100
AcDbEntity
  8
TRMODEL1
  6
Continuous
 62
     4
100
AcDbLine
 10
15.7251947683
 20
21.8188456528
 30
0.0
 11
15.6819645966
 21
21.8399825158
 31
0.0
  0
LINE
  5
50A
330
1F
100
AcDbEntity
  8
TRMODEL1
  6
Continuous
 62
     4
100
AcDbLine
 10
15.6819645966
 20
21.8399825158
 30
0.0
 11
15.6291881799
 21
21.851870845
 31
0.0
  0
LINE
  5
50B
330
1F
100
AcDbEntity
  8
TRMODEL1
  6
Continuous
 62
     4
100
AcDbLine
 10
15.6291881799
 20
21.851870845
 30
0.0
 11
15.572584662
 21
21.8532223557
 31
0.0
  0
LINE
  5
50C
330
1F
100
AcDbEntity
  8
TRMODEL1
  6
Continuous
 62
     4
100
AcDbLine
 10
15.572584662
 20
21.8532223557
 30
0.0
 11
15.5182879122
 21
21.8438905906
 31
0.0
  0
LINE
  5
50D
330
1F
100
AcDbEntity
  8
TRMODEL1
  6
Continuous
 62
     4
100
AcDbLine
 10
15.5182879122
 20
21.8438905906
 30
0.0
 11
15.472181826
 21
21.8248867913
 31
0.0
  0
LINE
  5
50E
330
1F
100
AcDbEntity
  8
TRMODEL1
  6
Continuous
 62
     4
100
AcDbLine
 10
15.2110973287
 20
21.6896262234
 30
0.0
 11
15.2123600284
 21
21.6716925089
 31
0.0
  0
LINE
  5
50F
330
1F
100
AcDbEntity
  8
TRMODEL1
  6
Continuous
 62
     4
100
AcDbLine
 10
15.2123600284
 20
21.6716925089
 30
0.0
 11
15.2279577144
 21
21.624766284
 31
0.0
  0
LINE
  5
510
330
1F
100
AcDbEntity
  8
TRMODEL1
  6
Continuous
 62
     4
100
AcDbLine
 10
15.2279577144
 20
21.624766284
 30
0.0
 11
15.2606651263
 21
21.5808728378
 31
0.0
  0
LINE
  5
511
330
1F
100
AcDbEntity
  8
TRMODEL1
  6
Continuous
 62
     4
100
AcDbLine
 10
15.2606651263
 20
21.5808728378
 30
0.0
 11
15.3089529017
 21
21.542064579
 31
0.0
  0
LINE
  5
512
330
1F
100
AcDbEntity
  8
TRMODEL1
  6
Continuous
 62
     4
100
AcDbLine
 10
15.3089529017
 20
21.542064579
 30
0.0
 11
15.370563158
 21
21.5101561387
 31
0.0
  0
LINE
  5
513
330
1F
100
AcDbEntity
  8
TRMODEL1
  6
Continuous
 62
     4
100
AcDbLine
 10
15.370563158
 20
21.5101561387
 30
0.0
 11
15.4426150681
 21
21.4866395201
 31
0.0
  0
LINE
  5
514
330
1F
100
AcDbEntity
  8
TRMODEL1
  6
Continuous
 62
     4
100
AcDbLine
 10
15.4426150681
 20
21.4866395201
 30
0.0
 11
15.5217395647
 21
21.4726143341
 31
0.0
  0
LINE
  5
515
330
1F
100
AcDbEntity
  8
TRMODEL1
  6
Continuous
 62
     4
100
AcDbLine
 10
15.5217395647
 20
21.4726143341
 30
0.0
 11
15.6042368743
 21
21.4687363829
 31
0.0
  0
LINE
  5
516
330
1F
100
AcDbEntity
  8
TRMODEL1
  6
Continuous
 62
     4
100
AcDbLine
 10
15.6042368743
 20
21.4687363829
 30
0.0
 11
15.6862495144
 21
21.4751869952
 31
0.0
  0
LINE
  5
517
330
1F
100
AcDbEntity
  8
TRMODEL1
  6
Continuous
 62
     4
100
AcDbLine
 10
15.6862495144
 20
21.4751869952
 30
0.0
 11
15.7639426651
 21
21.4916645474
 31
0.0
  0
LINE
  5
518
330
1F
100
AcDbEntity
  8
TRMODEL1
  6
Continuous
 62
     4
100
AcDbLine
 10
15.7639426651
 20
21.4916645474
 30
0.0
 11
15.8336834811
 21
21.5173985675
 31
0.0
  0
LINE
  5
519
330
1F
100
AcDbEntity
  8
TRMODEL1
  6
Continuous
 62
     4
100
AcDbLine
 10
15.8336834811
 20
21.5173985675
 30
0.0
 11
15.8922109592
 21
21.5511857615
 31
0.0
  0
LINE
  5
51A
330
1F
100
AcDbEntity
  8
TRMODEL1
  6
Continuous
 62
     4
100
AcDbLine
 10
15.8922109592
 20
21.5511857615
 30
0.0
 11
15.9367884196
 21
21.5914462775
 31
0.0
  0
LINE
  5
51B
330
1F
100
AcDbEntity
  8
TRMODEL1
  6
Continuous
 62
     4
100
AcDbLine
 10
15.9367884196
 20
21.5914462775
 30
0.0
 11
15.9653314699
 21
21.6362975787
 31
0.0
  0
LINE
  5
51C
330
1F
100
AcDbEntity
  8
TRMODEL1
  6
Continuous
 62
     4
100
AcDbLine
 10
15.9653314699
 20
21.6362975787
 30
0.0
 11
15.9765054688
 21
21.6836424681
 31
0.0
  0
LINE
  5
51D
330
1F
100
AcDbEntity
  8
TRMODEL1
  6
Continuous
 62
     4
100
AcDbLine
 10
15.9765054688
 20
21.6836424681
 30
0.0
 11
15.9766458374
 21
21.6896262234
 31
0.0
  0
LINE
  5
51E
330
1F
100
AcDbEntity
  8
TRMODEL1
  6
Continuous
 62
     4
100
AcDbLine
 10
15.3232093121
 20
21.910886793
 30
0.0
 11
15.2713528581
 21
21.8736446228
 31
0.0
  0
LINE
  5
51F
330
1F
100
AcDbEntity
  8
TRMODEL1
  6
Continuous
 62
     4
100
AcDbLine
 10
15.2713528581
 20
21.8736446228
 30
0.0
 11
15.2345770212
 21
21.8308377786
 31
0.0
  0
LINE
  5
520
330
1F
100
AcDbEntity
  8
TRMODEL1
  6
Continuous
 62
     4
100
AcDbLine
 10
15.2345770212
 20
21.8308377786
 30
0.0
 11
15.2146013986
 21
21.7844678609
 31
0.0
  0
LINE
  5
521
330
1F
100
AcDbEntity
  8
TRMODEL1
  6
Continuous
 62
     4
100
AcDbLine
 10
15.2146013986
 20
21.7844678609
 30
0.0
 11
15.2123600284
 21
21.7367030754
 31
0.0
  0
LINE
  5
522
330
1F
100
AcDbEntity
  8
TRMODEL1
  6
Continuous
 62
     4
100
AcDbLine
 10
15.2123600284
 20
21.7367030754
 30
0.0
 11
15.2279577144
 21
21.6897768505
 31
0.0
  0
LINE
  5
523
330
1F
100
AcDbEntity
  8
TRMODEL1
  6
Continuous
 62
     4
100
AcDbLine
 10
15.2279577144
 20
21.6897768505
 30
0.0
 11
15.2606651263
 21
21.6458834043
 31
0.0
  0
LINE
  5
524
330
1F
100
AcDbEntity
  8
TRMODEL1
  6
Continuous
 62
     4
100
AcDbLine
 10
15.2606651263
 20
21.6458834043
 30
0.0
 11
15.3089529017
 21
21.6070751455
 31
0.0
  0
LINE
  5
525
330
1F
100
AcDbEntity
  8
TRMODEL1
  6
Continuous
 62
     4
100
AcDbLine
 10
15.3089529017
 20
21.6070751455
 30
0.0
 11
15.370563158
 21
21.5751667052
 31
0.0
  0
LINE
  5
526
330
1F
100
AcDbEntity
  8
TRMODEL1
  6
Continuous
 62
     4
100
AcDbLine
 10
15.370563158
 20
21.5751667052
 30
0.0
 11
15.4426150681
 21
21.5516500866
 31
0.0
  0
LINE
  5
527
330
1F
100
AcDbEntity
  8
TRMODEL1
  6
Continuous
 62
     4
100
AcDbLine
 10
15.4426150681
 20
21.5516500866
 30
0.0
 11
15.5217395647
 21
21.5376249006
 31
0.0
  0
LINE
  5
528
330
1F
100
AcDbEntity
  8
TRMODEL1
  6
Continuous
 62
     4
100
AcDbLine
 10
15.5217395647
 20
21.5376249006
 30
0.0
 11
15.6042368743
 21
21.5337469494
 31
0.0
  0
LINE
  5
529
330
1F
100
AcDbEntity
  8
TRMODEL1
  6
Continuous
 62
     4
100
AcDbLine
 10
15.6042368743
 20
21.5337469494
 30
0.0
 11
15.6862495144
 21
21.5401975616
 31
0.0
  0
LINE
  5
52A
330
1F
100
AcDbEntity
  8
TRMODEL1
  6
Continuous
 62
     4
100
AcDbLine
 10
15.6862495144
 20
21.5401975616
 30
0.0
 11
15.7639426651
 21
21.5566751139
 31
0.0
  0
LINE
  5
52B
330
1F
100
AcDbEntity
  8
TRMODEL1
  6
Continuous
 62
     4
100
AcDbLine
 10
15.7639426651
 20
21.5566751139
 30
0.0
 11
15.8336834811
 21
21.582409134
 31
0.0
  0
LINE
  5
52C
330
1F
100
AcDbEntity
  8
TRMODEL1
  6
Continuous
 62
     4
100
AcDbLine
 10
15.8336834811
 20
21.582409134
 30
0.0
 11
15.8922109592
 21
21.6161963279
 31
0.0
  0
LINE
  5
52D
330
1F
100
AcDbEntity
  8
TRMODEL1
  6
Continuous
 62
     4
100
AcDbLine
 10
15.8922109592
 20
21.6161963279
 30
0.0
 11
15.9367884196
 21
21.656456844
 31
0.0
  0
LINE
  5
52E
330
1F
100
AcDbEntity
  8
TRMODEL1
  6
Continuous
 62
     4
100
AcDbLine
 10
15.9367884196
 20
21.656456844
 30
0.0
 11
15.9653314699
 21
21.7013081452
 31
0.0
  0
LINE
  5
52F
330
1F
100
AcDbEntity
  8
TRMODEL1
  6
Continuous
 62
     4
100
AcDbLine
 10
15.9653314699
 20
21.7013081452
 30
0.0
 11
15.9765054688
 21
21.7486530346
 31
0.0
  0
LINE
  5
530
330
1F
100
AcDbEntity
  8
TRMODEL1
  6
Continuous
 62
     4
100
AcDbLine
 10
15.9765054688
 20
21.7486530346
 30
0.0
 11
15.9697879324
 21
21.7962777177
 31
0.0
  0
LINE
  5
531
330
1F
100
AcDbEntity
  8
TRMODEL1
  6
Continuous
 62
     4
100
AcDbLine
 10
15.9697879324
 20
21.7962777177
 30
0.0
 11
15.9454929653
 21
21.8419553173
 31
0.0
  0
LINE
  5
532
330
1F
100
AcDbEntity
  8
TRMODEL1
  6
Continuous
 62
     4
100
AcDbLine
 10
15.9454929653
 20
21.8419553173
 30
0.0
 11
15.9047565732
 21
21.8835499997
 31
0.0
  0
LINE
  5
533
330
1F
100
AcDbEntity
  8
TRMODEL1
  6
Continuous
 62
     4
100
AcDbLine
 10
15.9047565732
 20
21.8835499997
 30
0.0
 11
15.8494835445
 21
21.9191168436
 31
0.0
  0
LINE
  5
534
330
1F
100
AcDbEntity
  8
TRMODEL1
  6
Continuous
 62
     4
100
AcDbLine
 10
15.8494835445
 20
21.9191168436
 30
0.0
 11
15.7822583845
 21
21.946992783
 31
0.0
  0
LINE
  5
535
330
1F
100
AcDbEntity
  8
TRMODEL1
  6
Continuous
 62
     4
100
AcDbLine
 10
15.7822583845
 20
21.946992783
 30
0.0
 11
15.7062244671
 21
21.9658743699
 31
0.0
  0
LINE
  5
536
330
1F
100
AcDbEntity
  8
TRMODEL1
  6
Continuous
 62
     4
100
AcDbLine
 10
15.7062244671
 20
21.9658743699
 30
0.0
 11
15.6249370537
 21
21.9748787224
 31
0.0
  0
LINE
  5
537
330
1F
100
AcDbEntity
  8
TRMODEL1
  6
Continuous
 62
     4
100
AcDbLine
 10
15.6249370537
 20
21.9748787224
 30
0.0
 11
15.5421970534
 21
21.9735848069
 31
0.0
  0
LINE
  5
538
330
1F
100
AcDbEntity
  8
TRMODEL1
  6
Continuous
 62
     4
100
AcDbLine
 10
15.5421970534
 20
21.9735848069
 30
0.0
 11
15.4618732967
 21
21.9620531255
 31
0.0
  0
LINE
  5
539
330
1F
100
AcDbEntity
  8
TRMODEL1
  6
Continuous
 62
     4
100
AcDbLine
 10
15.4618732967
 20
21.9620531255
 30
0.0
 11
15.3877216331
 21
21.9408228867
 31
0.0
  0
LINE
  5
53A
330
1F
100
AcDbEntity
  8
TRMODEL1
  6
Continuous
 62
     4
100
AcDbLine
 10
15.3877216331
 20
21.9408228867
 30
0.0
 11
15.3232093121
 21
21.910886793
 31
0.0
  0
LINE
  5
53B
330
1F
100
AcDbEntity
  8
TRMODEL1
  6
Continuous
 62
     4
100
AcDbLine
 10
15.2110973287
 20
21.6896262234
 30
0.0
 11
15.2110973287
 21
21.7546367899
 31
0.0
  0
LINE
  5
53C
330
1F
100
AcDbEntity
  8
TRMODEL1
  6
Continuous
 62
     4
100
AcDbLine
 10
15.472181826
 20
21.7598762248
 30
0.0
 11
15.4392627132
 21
21.7332597478
 31
0.0
  0
LINE
  5
53D
330
1F
100
AcDbEntity
  8
TRMODEL1
  6
Continuous
 62
     4
100
AcDbLine
 10
15.4392627132
 20
21.7332597478
 30
0.0
 11
15.4312483172
 21
21.7221315066
 31
0.0
  0
LINE
  5
53E
330
1F
100
AcDbEntity
  8
TRMODEL1
  6
Continuous
 62
     2
100
AcDbLine
 10
16.4996389153
 20
21.6665903239
 30
0.0
 11
16.1480764153
 21
21.7251840739
 31
0.0
  0
LINE
  5
53F
330
1F
100
AcDbEntity
  8
TRMODEL1
  6
Continuous
 62
     2
100
AcDbLine
 10
16.1480764153
 20
21.7251840739
 30
0.0
 11
16.4996389153
 21
21.7837778239
 31
0.0
  0
LINE
  5
540
330
1F
100
AcDbEntity
  8
TRMODEL1
  6
Continuous
 62
     2
100
AcDbLine
 10
16.4996389153
 20
21.7837778239
 30
0.0
 11
16.4996389153
 21
21.6665903239
 31
0.0
  0
LINE
  5
541
330
1F
100
AcDbEntity
  8
TRMODEL1
  6
Continuous
 62
     4
100
AcDbLine
 10
15.9766458374
 20
21.7546367899
 30
0.0
 11
15.9766458374
 21
21.6896262234
 31
0.0
  0
LINE
  5
542
330
1F
100
AcDbEntity
  8
TRMODEL1
  6
Continuous
 62
     4
100
AcDbLine
 10
15.68432649
 20
22.8006078661
 30
0.0
 11
15.7050254971
 21
22.7910127694
 31
0.0
  0
LINE
  5
543
330
1F
100
AcDbEntity
  8
TRMODEL1
  6
Continuous
 62
     4
100
AcDbLine
 10
15.7050254971
 20
22.7910127694
 30
0.0
 11
15.724929053
 21
22.7864947785
 31
0.0
  0
LINE
  5
544
330
1F
100
AcDbEntity
  8
TRMODEL1
  6
Continuous
 62
     4
100
AcDbLine
 10
15.724929053
 20
22.7864947785
 30
0.0
 11
15.7432722751
 21
22.7872275172
 31
0.0
  0
LINE
  5
545
330
1F
100
AcDbEntity
  8
TRMODEL1
  6
Continuous
 62
     4
100
AcDbLine
 10
15.7432722751
 20
22.7872275172
 30
0.0
 11
15.7593502438
 21
22.7931828268
 31
0.0
  0
LINE
  5
546
330
1F
100
AcDbEntity
  8
TRMODEL1
  6
Continuous
 62
     4
100
AcDbLine
 10
15.7593502438
 20
22.7931828268
 30
0.0
 11
15.7725450917
 21
22.804131848
 31
0.0
  0
LINE
  5
547
330
1F
100
AcDbEntity
  8
TRMODEL1
  6
Continuous
 62
     4
100
AcDbLine
 10
15.7725450917
 20
22.804131848
 30
0.0
 11
15.7823497482
 21
22.8196538162
 31
0.0
  0
LINE
  5
548
330
1F
100
AcDbEntity
  8
TRMODEL1
  6
Continuous
 62
     4
100
AcDbLine
 10
15.7823497482
 20
22.8196538162
 30
0.0
 11
15.7883874259
 21
22.8391522308
 31
0.0
  0
LINE
  5
549
330
1F
100
AcDbEntity
  8
TRMODEL1
  6
Continuous
 62
     4
100
AcDbLine
 10
15.7883874259
 20
22.8391522308
 30
0.0
 11
15.7904261002
 21
22.8618777786
 31
0.0
  0
LINE
  5
54A
330
1F
100
AcDbEntity
  8
TRMODEL1
  6
Continuous
 62
     4
100
AcDbLine
 10
15.68432649
 20
22.8631180262
 30
0.0
 11
15.6944647792
 21
22.858418387
 31
0.0
  0
LINE
  5
54B
330
1F
100
AcDbEntity
  8
TRMODEL1
  6
Continuous
 62
     4
100
AcDbLine
 10
15.6944647792
 20
22.858418387
 30
0.0
 11
15.7042134596
 21
22.8562054935
 31
0.0
  0
LINE
  5
54C
330
1F
100
AcDbEntity
  8
TRMODEL1
  6
Continuous
 62
     4
100
AcDbLine
 10
15.7042134596
 20
22.8562054935
 30
0.0
 11
15.7131978949
 21
22.8565643859
 31
0.0
  0
LINE
  5
54D
330
1F
100
AcDbEntity
  8
TRMODEL1
  6
Continuous
 62
     4
100
AcDbLine
 10
15.7131978949
 20
22.8565643859
 30
0.0
 11
15.7210728184
 21
22.8594812722
 31
0.0
  0
LINE
  5
54E
330
1F
100
AcDbEntity
  8
TRMODEL1
  6
Continuous
 62
     4
100
AcDbLine
 10
15.7210728184
 20
22.8594812722
 30
0.0
 11
15.727535601
 21
22.8648440582
 31
0.0
  0
LINE
  5
54F
330
1F
100
AcDbEntity
  8
TRMODEL1
  6
Continuous
 62
     4
100
AcDbLine
 10
15.727535601
 20
22.8648440582
 30
0.0
 11
15.7323378818
 21
22.8724466548
 31
0.0
  0
LINE
  5
550
330
1F
100
AcDbEntity
  8
TRMODEL1
  6
Continuous
 62
     4
100
AcDbLine
 10
15.7323378818
 20
22.8724466548
 30
0.0
 11
15.7352951117
 21
22.8819968987
 31
0.0
  0
LINE
  5
551
330
1F
100
AcDbEntity
  8
TRMODEL1
  6
Continuous
 62
     4
100
AcDbLine
 10
15.7352951117
 20
22.8819968987
 30
0.0
 11
15.736293646
 21
22.8931277793
 31
0.0
  0
LINE
  5
552
330
1F
100
AcDbEntity
  8
TRMODEL1
  6
Continuous
 62
     4
100
AcDbLine
 10
15.7362936453
 20
22.8931180264
 30
0.0
 11
15.68432649
 21
22.8631180262
 31
0.0
  0
LINE
  5
553
330
1F
100
AcDbEntity
  8
TRMODEL1
  6
Continuous
 62
     4
100
AcDbLine
 10
16.1715185776
 20
23.0194391411
 30
0.0
 11
16.1816568668
 21
23.0124333608
 31
0.0
  0
LINE
  5
554
330
1F
100
AcDbEntity
  8
TRMODEL1
  6
Continuous
 62
     4
100
AcDbLine
 10
16.1816568668
 20
23.0124333608
 30
0.0
 11
16.1914055472
 21
23.0033906674
 31
0.0
  0
LINE
  5
555
330
1F
100
AcDbEntity
  8
TRMODEL1
  6
Continuous
 62
     4
100
AcDbLine
 10
16.1914055472
 20
23.0033906674
 30
0.0
 11
16.2003899826
 21
22.9926585668
 31
0.0
  0
LINE
  5
556
330
1F
100
AcDbEntity
  8
TRMODEL1
  6
Continuous
 62
     4
100
AcDbLine
 10
16.2003899826
 20
22.9926585668
 30
0.0
 11
16.208264906
 21
22.9806494874
 31
0.0
  0
LINE
  5
557
330
1F
100
AcDbEntity
  8
TRMODEL1
  6
Continuous
 62
     4
100
AcDbLine
 10
16.208264906
 20
22.9806494874
 30
0.0
 11
16.2147276887
 21
22.9678249314
 31
0.0
  0
LINE
  5
558
330
1F
100
AcDbEntity
  8
TRMODEL1
  6
Continuous
 62
     4
100
AcDbLine
 10
16.2147276887
 20
22.9678249314
 30
0.0
 11
16.2195299694
 21
22.9546777394
 31
0.0
  0
LINE
  5
559
330
1F
100
AcDbEntity
  8
TRMODEL1
  6
Continuous
 62
     4
100
AcDbLine
 10
16.2195299694
 20
22.9546777394
 30
0.0
 11
16.2224871993
 21
22.9417131506
 31
0.0
  0
LINE
  5
55A
330
1F
100
AcDbEntity
  8
TRMODEL1
  6
Continuous
 62
     4
100
AcDbLine
 10
16.2224871993
 20
22.9417131506
 30
0.0
 11
16.2234857336
 21
22.9294293869
 31
0.0
  0
LINE
  5
55B
330
1F
100
AcDbEntity
  8
TRMODEL1
  6
Continuous
 62
     4
100
AcDbLine
 10
16.1613993604
 20
23.0252808409
 30
0.0
 11
15.7593441468
 21
22.7931793065
 31
0.0
  0
LINE
  5
55C
330
1F
100
AcDbEntity
  8
TRMODEL1
  6
Continuous
 62
     4
100
AcDbLine
 10
16.2234857336
 20
22.9294293869
 30
0.0
 11
16.2234857336
 21
22.61437818
 31
0.0
  0
LINE
  5
55D
330
1F
100
AcDbEntity
  8
TRMODEL1
  6
Continuous
 62
     4
100
AcDbLine
 10
16.2776181878
 20
22.8981793862
 30
0.0
 11
16.2776181878
 21
22.5831281794
 31
0.0
  0
LINE
  5
55E
330
1F
100
AcDbEntity
  8
TRMODEL1
  6
Continuous
 62
     4
100
AcDbLine
 10
16.2776181878
 20
22.5831281794
 30
0.0
 11
16.2234857336
 21
22.61437818
 31
0.0
  0
LINE
  5
55F
330
1F
100
AcDbEntity
  8
TRMODEL1
  6
Continuous
 62
     4
100
AcDbLine
 10
16.6045782111
 20
23.3319493062
 30
0.0
 11
16.6252772182
 21
23.317645838
 31
0.0
  0
LINE
  5
560
330
1F
100
AcDbEntity
  8
TRMODEL1
  6
Continuous
 62
     4
100
AcDbLine
 10
16.6252772182
 20
23.317645838
 30
0.0
 11
16.6451807741
 21
23.2991836724
 31
0.0
  0
LINE
  5
561
330
1F
100
AcDbEntity
  8
TRMODEL1
  6
Continuous
 62
     4
100
AcDbLine
 10
16.6451807741
 20
23.2991836724
 30
0.0
 11
16.6635239962
 21
23.2772723002
 31
0.0
  0
LINE
  5
562
330
1F
100
AcDbEntity
  8
TRMODEL1
  6
Continuous
 62
     4
100
AcDbLine
 10
16.6635239962
 20
23.2772723002
 30
0.0
 11
16.6796019649
 21
23.2527537631
 31
0.0
  0
LINE
  5
563
330
1F
100
AcDbEntity
  8
TRMODEL1
  6
Continuous
 62
     4
100
AcDbLine
 10
16.6796019649
 20
23.2527537631
 30
0.0
 11
16.6927968128
 21
23.2265702947
 31
0.0
  0
LINE
  5
564
330
1F
100
AcDbEntity
  8
TRMODEL1
  6
Continuous
 62
     4
100
AcDbLine
 10
16.6927968128
 20
23.2265702947
 30
0.0
 11
16.7026014694
 21
23.1997281111
 31
0.0
  0
LINE
  5
565
330
1F
100
AcDbEntity
  8
TRMODEL1
  6
Continuous
 62
     4
100
AcDbLine
 10
16.7026014694
 20
23.1997281111
 30
0.0
 11
16.708639147
 21
23.1732587423
 31
0.0
  0
LINE
  5
566
330
1F
100
AcDbEntity
  8
TRMODEL1
  6
Continuous
 62
     4
100
AcDbLine
 10
16.708639147
 20
23.1732587423
 30
0.0
 11
16.7106778213
 21
23.1481793912
 31
0.0
  0
LINE
  5
567
330
1F
100
AcDbEntity
  8
TRMODEL1
  6
Continuous
 62
     4
100
AcDbLine
 10
15.3053993107
 20
24.0819493212
 30
0.0
 11
15.3260983178
 21
24.067645853
 31
0.0
  0
LINE
  5
568
330
1F
100
AcDbEntity
  8
TRMODEL1
  6
Continuous
 62
     4
100
AcDbLine
 10
15.3260983178
 20
24.067645853
 30
0.0
 11
15.3460018737
 21
24.0491836874
 31
0.0
  0
LINE
  5
569
330
1F
100
AcDbEntity
  8
TRMODEL1
  6
Continuous
 62
     4
100
AcDbLine
 10
15.3460018737
 20
24.0491836874
 30
0.0
 11
15.3643450958
 21
24.0272723152
 31
0.0
  0
LINE
  5
56A
330
1F
100
AcDbEntity
  8
TRMODEL1
  6
Continuous
 62
     4
100
AcDbLine
 10
15.3643450958
 20
24.0272723152
 30
0.0
 11
15.3804230645
 21
24.0027537781
 31
0.0
  0
LINE
  5
56B
330
1F
100
AcDbEntity
  8
TRMODEL1
  6
Continuous
 62
     4
100
AcDbLine
 10
15.3804230645
 20
24.0027537781
 30
0.0
 11
15.3936179124
 21
23.9765703097
 31
0.0
  0
LINE
  5
56C
330
1F
100
AcDbEntity
  8
TRMODEL1
  6
Continuous
 62
     4
100
AcDbLine
 10
15.3936179124
 20
23.9765703097
 30
0.0
 11
15.403422569
 21
23.9497281261
 31
0.0
  0
LINE
  5
56D
330
1F
100
AcDbEntity
  8
TRMODEL1
  6
Continuous
 62
     4
100
AcDbLine
 10
15.403422569
 20
23.9497281261
 30
0.0
 11
15.4094602466
 21
23.9232587573
 31
0.0
  0
LINE
  5
56E
330
1F
100
AcDbEntity
  8
TRMODEL1
  6
Continuous
 62
     4
100
AcDbLine
 10
15.4094602466
 20
23.9232587573
 30
0.0
 11
15.4114989209
 21
23.8981794062
 31
0.0
  0
LINE
  5
56F
330
1F
100
AcDbEntity
  8
TRMODEL1
  6
Continuous
 62
     4
100
AcDbLine
 10
14.8723396772
 20
23.8319493162
 30
0.0
 11
15.3053993107
 21
24.0819493212
 31
0.0
  0
LINE
  5
570
330
1F
100
AcDbEntity
  8
TRMODEL1
  6
Continuous
 62
     4
100
AcDbLine
 10
15.736293646
 20
23.2106793925
 30
0.0
 11
15.7383323202
 21
23.2334049403
 31
0.0
  0
LINE
  5
571
330
1F
100
AcDbEntity
  8
TRMODEL1
  6
Continuous
 62
     4
100
AcDbLine
 10
15.7383323202
 20
23.2334049403
 30
0.0
 11
15.7443699979
 21
23.2529033549
 31
0.0
  0
LINE
  5
572
330
1F
100
AcDbEntity
  8
TRMODEL1
  6
Continuous
 62
     4
100
AcDbLine
 10
15.7443699979
 20
23.2529033549
 30
0.0
 11
15.7541746544
 21
23.2684253231
 31
0.0
  0
LINE
  5
573
330
1F
100
AcDbEntity
  8
TRMODEL1
  6
Continuous
 62
     4
100
AcDbLine
 10
15.7541746544
 20
23.2684253231
 30
0.0
 11
15.7673695023
 21
23.2793743443
 31
0.0
  0
LINE
  5
574
330
1F
100
AcDbEntity
  8
TRMODEL1
  6
Continuous
 62
     4
100
AcDbLine
 10
15.7673695023
 20
23.2793743443
 30
0.0
 11
15.783447471
 21
23.2853296539
 31
0.0
  0
LINE
  5
575
330
1F
100
AcDbEntity
  8
TRMODEL1
  6
Continuous
 62
     4
100
AcDbLine
 10
15.783447471
 20
23.2853296539
 30
0.0
 11
15.8017906932
 21
23.2860623926
 31
0.0
  0
LINE
  5
576
330
1F
100
AcDbEntity
  8
TRMODEL1
  6
Continuous
 62
     4
100
AcDbLine
 10
15.8017906932
 20
23.2860623926
 30
0.0
 11
15.8216942491
 21
23.2815444017
 31
0.0
  0
LINE
  5
577
330
1F
100
AcDbEntity
  8
TRMODEL1
  6
Continuous
 62
     4
100
AcDbLine
 10
15.8216942491
 20
23.2815444017
 30
0.0
 11
15.8423932562
 21
23.271949305
 31
0.0
  0
LINE
  5
578
330
1F
100
AcDbEntity
  8
TRMODEL1
  6
Continuous
 62
     4
100
AcDbLine
 10
15.4634660769
 20
23.4906180387
 30
0.0
 11
15.7983800192
 21
23.2972763352
 31
0.0
  0
LINE
  5
579
330
1F
100
AcDbEntity
  8
TRMODEL1
  6
Continuous
 62
     4
100
AcDbLine
 10
15.4114989209
 20
23.580627793
 30
0.0
 11
15.4124974552
 21
23.5683440292
 31
0.0
  0
LINE
  5
57A
330
1F
100
AcDbEntity
  8
TRMODEL1
  6
Continuous
 62
     4
100
AcDbLine
 10
15.4124974552
 20
23.5683440292
 30
0.0
 11
15.4154546851
 21
23.5553794404
 31
0.0
  0
LINE
  5
57B
330
1F
100
AcDbEntity
  8
TRMODEL1
  6
Continuous
 62
     4
100
AcDbLine
 10
15.4154546851
 20
23.5553794404
 30
0.0
 11
15.4202569658
 21
23.5422322484
 31
0.0
  0
LINE
  5
57C
330
1F
100
AcDbEntity
  8
TRMODEL1
  6
Continuous
 62
     4
100
AcDbLine
 10
15.4202569658
 20
23.5422322484
 30
0.0
 11
15.4267197485
 21
23.5294076925
 31
0.0
  0
LINE
  5
57D
330
1F
100
AcDbEntity
  8
TRMODEL1
  6
Continuous
 62
     4
100
AcDbLine
 10
15.4267197485
 20
23.5294076925
 30
0.0
 11
15.4345946719
 21
23.5173986131
 31
0.0
  0
LINE
  5
57E
330
1F
100
AcDbEntity
  8
TRMODEL1
  6
Continuous
 62
     4
100
AcDbLine
 10
15.4345946719
 20
23.5173986131
 30
0.0
 11
15.4435791073
 21
23.5066665124
 31
0.0
  0
LINE
  5
57F
330
1F
100
AcDbEntity
  8
TRMODEL1
  6
Continuous
 62
     4
100
AcDbLine
 10
15.4435791073
 20
23.5066665124
 30
0.0
 11
15.4533277877
 21
23.4976238191
 31
0.0
  0
LINE
  5
580
330
1F
100
AcDbEntity
  8
TRMODEL1
  6
Continuous
 62
     4
100
AcDbLine
 10
15.4533277877
 20
23.4976238191
 30
0.0
 11
15.4634660769
 21
23.4906180387
 31
0.0
  0
LINE
  5
581
330
1F
100
AcDbEntity
  8
TRMODEL1
  6
Continuous
 62
     4
100
AcDbLine
 10
14.9784392874
 20
23.6481794012
 30
0.0
 11
14.9784392874
 21
23.330627788
 31
0.0
  0
LINE
  5
582
330
1F
100
AcDbEntity
  8
TRMODEL1
  6
Continuous
 62
     4
100
AcDbLine
 10
14.9243068332
 20
23.6794294019
 30
0.0
 11
14.9243068332
 21
23.331278633
 31
0.0
  0
LINE
  5
583
330
1F
100
AcDbEntity
  8
TRMODEL1
  6
Continuous
 62
     4
100
AcDbLine
 10
14.9784392874
 20
23.330627788
 30
0.0
 11
15.4114989209
 21
23.580627793
 31
0.0
  0
LINE
  5
584
330
1F
100
AcDbEntity
  8
TRMODEL1
  6
Continuous
 62
     4
100
AcDbLine
 10
15.0304064434
 20
23.2406180337
 30
0.0
 11
15.4634660769
 21
23.4906180387
 31
0.0
  0
LINE
  5
585
330
1F
100
AcDbEntity
  8
TRMODEL1
  6
Continuous
 62
     4
100
AcDbLine
 10
14.9784392874
 20
23.330627788
 30
0.0
 11
14.9794378217
 21
23.3183440242
 31
0.0
  0
LINE
  5
586
330
1F
100
AcDbEntity
  8
TRMODEL1
  6
Continuous
 62
     4
100
AcDbLine
 10
14.9794378217
 20
23.3183440242
 30
0.0
 11
14.9823950516
 21
23.3053794354
 31
0.0
  0
LINE
  5
587
330
1F
100
AcDbEntity
  8
TRMODEL1
  6
Continuous
 62
     4
100
AcDbLine
 10
14.9823950516
 20
23.3053794354
 30
0.0
 11
14.9871973324
 21
23.2922322434
 31
0.0
  0
LINE
  5
588
330
1F
100
AcDbEntity
  8
TRMODEL1
  6
Continuous
 62
     4
100
AcDbLine
 10
14.9871973324
 20
23.2922322434
 30
0.0
 11
14.993660115
 21
23.2794076875
 31
0.0
  0
LINE
  5
589
330
1F
100
AcDbEntity
  8
TRMODEL1
  6
Continuous
 62
     4
100
AcDbLine
 10
14.993660115
 20
23.2794076875
 30
0.0
 11
15.0015350385
 21
23.2673986081
 31
0.0
  0
LINE
  5
58A
330
1F
100
AcDbEntity
  8
TRMODEL1
  6
Continuous
 62
     4
100
AcDbLine
 10
15.0015350385
 20
23.2673986081
 30
0.0
 11
15.0105194738
 21
23.2566665074
 31
0.0
  0
LINE
  5
58B
330
1F
100
AcDbEntity
  8
TRMODEL1
  6
Continuous
 62
     4
100
AcDbLine
 10
15.0105194738
 20
23.2566665074
 30
0.0
 11
15.0202681542
 21
23.2476238141
 31
0.0
  0
LINE
  5
58C
330
1F
100
AcDbEntity
  8
TRMODEL1
  6
Continuous
 62
     4
100
AcDbLine
 10
15.0202681542
 20
23.2476238141
 30
0.0
 11
15.0304064434
 21
23.2406180337
 31
0.0
  0
LINE
  5
58D
330
1F
100
AcDbEntity
  8
TRMODEL1
  6
Continuous
 62
     4
100
AcDbLine
 10
14.9243068332
 20
23.3618777886
 30
0.0
 11
14.9263455075
 21
23.3367984376
 31
0.0
  0
LINE
  5
58E
330
1F
100
AcDbEntity
  8
TRMODEL1
  6
Continuous
 62
     4
100
AcDbLine
 10
14.9263455075
 20
23.3367984376
 30
0.0
 11
14.9323831852
 21
23.3103290688
 31
0.0
  0
LINE
  5
58F
330
1F
100
AcDbEntity
  8
TRMODEL1
  6
Continuous
 62
     4
100
AcDbLine
 10
14.9323831852
 20
23.3103290688
 30
0.0
 11
14.9421878417
 21
23.2834868851
 31
0.0
  0
LINE
  5
590
330
1F
100
AcDbEntity
  8
TRMODEL1
  6
Continuous
 62
     4
100
AcDbLine
 10
14.9421878417
 20
23.2834868851
 30
0.0
 11
14.9553826896
 21
23.2573034168
 31
0.0
  0
LINE
  5
591
330
1F
100
AcDbEntity
  8
TRMODEL1
  6
Continuous
 62
     4
100
AcDbLine
 10
14.9553826896
 20
23.2573034168
 30
0.0
 11
14.9714606583
 21
23.2327848797
 31
0.0
  0
LINE
  5
592
330
1F
100
AcDbEntity
  8
TRMODEL1
  6
Continuous
 62
     4
100
AcDbLine
 10
14.9714606583
 20
23.2327848797
 30
0.0
 11
14.9898038804
 21
23.2108735075
 31
0.0
  0
LINE
  5
593
330
1F
100
AcDbEntity
  8
TRMODEL1
  6
Continuous
 62
     4
100
AcDbLine
 10
14.9898038804
 20
23.2108735075
 30
0.0
 11
15.0097074363
 21
23.1924113419
 31
0.0
  0
LINE
  5
594
330
1F
100
AcDbEntity
  8
TRMODEL1
  6
Continuous
 62
     4
100
AcDbLine
 10
15.0097074363
 20
23.1924113419
 30
0.0
 11
15.0304064434
 21
23.1781078736
 31
0.0
  0
LINE
  5
595
330
1F
100
AcDbEntity
  8
TRMODEL1
  6
Continuous
 62
     4
100
AcDbLine
 10
15.4580528315
 20
23.0874930307
 30
0.0
 11
15.5039547666
 21
23.0679361568
 31
0.0
  0
LINE
  5
596
330
1F
100
AcDbEntity
  8
TRMODEL1
  6
Continuous
 62
     4
100
AcDbLine
 10
15.5039547666
 20
23.0679361568
 30
0.0
 11
15.5578028785
 21
23.0570587463
 31
0.0
  0
LINE
  5
597
330
1F
100
AcDbEntity
  8
TRMODEL1
  6
Continuous
 62
     4
100
AcDbLine
 10
15.5578028785
 20
23.0570587463
 30
0.0
 11
15.6005401602
 21
23.0561355961
 31
0.0
  0
LINE
  5
598
330
1F
100
AcDbEntity
  8
TRMODEL1
  6
Continuous
 62
     4
100
AcDbLine
 10
15.736293646
 20
23.1765978814
 30
0.0
 11
15.7070335063
 21
23.1920042093
 31
0.0
  0
LINE
  5
599
330
1F
100
AcDbEntity
  8
TRMODEL1
  6
Continuous
 62
     4
100
AcDbLine
 10
15.7070335063
 20
23.1920042093
 30
0.0
 11
15.6565951278
 21
23.2073932342
 31
0.0
  0
LINE
  5
59A
330
1F
100
AcDbEntity
  8
TRMODEL1
  6
Continuous
 62
     4
100
AcDbLine
 10
15.6565951278
 20
23.2073932342
 30
0.0
 11
15.6005401602
 21
23.213516047
 31
0.0
  0
LINE
  5
59B
330
1F
100
AcDbEntity
  8
TRMODEL1
  6
Continuous
 62
     4
100
AcDbLine
 10
15.6005401602
 20
23.213516047
 30
0.0
 11
15.5438493334
 21
23.2098286089
 31
0.0
  0
LINE
  5
59C
330
1F
100
AcDbEntity
  8
TRMODEL1
  6
Continuous
 62
     4
100
AcDbLine
 10
15.5438493334
 20
23.2098286089
 30
0.0
 11
15.4915598762
 21
23.1966585651
 31
0.0
  0
LINE
  5
59D
330
1F
100
AcDbEntity
  8
TRMODEL1
  6
Continuous
 62
     4
100
AcDbLine
 10
15.4915598762
 20
23.1966585651
 30
0.0
 11
15.4483179364
 21
23.1751761317
 31
0.0
  0
LINE
  5
59E
330
1F
100
AcDbEntity
  8
TRMODEL1
  6
Continuous
 62
     4
100
AcDbLine
 10
15.4483179364
 20
23.1751761317
 30
0.0
 11
15.4179657499
 21
23.1472901171
 31
0.0
  0
LINE
  5
59F
330
1F
100
AcDbEntity
  8
TRMODEL1
  6
Continuous
 62
     4
100
AcDbLine
 10
15.4179657499
 20
23.1472901171
 30
0.0
 11
15.4098144782
 21
23.1343629522
 31
0.0
  0
LINE
  5
5A0
330
1F
100
AcDbEntity
  8
TRMODEL1
  6
Continuous
 62
     4
100
AcDbLine
 10
15.7391391533
 20
23.2372213943
 30
0.0
 11
15.7070335063
 21
23.2545143693
 31
0.0
  0
LINE
  5
5A1
330
1F
100
AcDbEntity
  8
TRMODEL1
  6
Continuous
 62
     4
100
AcDbLine
 10
15.7070335063
 20
23.2545143693
 30
0.0
 11
15.6565951278
 21
23.2699033942
 31
0.0
  0
LINE
  5
5A2
330
1F
100
AcDbEntity
  8
TRMODEL1
  6
Continuous
 62
     4
100
AcDbLine
 10
15.6565951278
 20
23.2699033942
 30
0.0
 11
15.6005401602
 21
23.2760262071
 31
0.0
  0
LINE
  5
5A3
330
1F
100
AcDbEntity
  8
TRMODEL1
  6
Continuous
 62
     4
100
AcDbLine
 10
15.6005401602
 20
23.2760262071
 30
0.0
 11
15.5438493334
 21
23.272338769
 31
0.0
  0
LINE
  5
5A4
330
1F
100
AcDbEntity
  8
TRMODEL1
  6
Continuous
 62
     4
100
AcDbLine
 10
15.5438493334
 20
23.272338769
 30
0.0
 11
15.4915598762
 21
23.2591687252
 31
0.0
  0
LINE
  5
5A5
330
1F
100
AcDbEntity
  8
TRMODEL1
  6
Continuous
 62
     4
100
AcDbLine
 10
15.4915598762
 20
23.2591687252
 30
0.0
 11
15.4483179364
 21
23.2376862918
 31
0.0
  0
LINE
  5
5A6
330
1F
100
AcDbEntity
  8
TRMODEL1
  6
Continuous
 62
     4
100
AcDbLine
 10
15.4483179364
 20
23.2376862918
 30
0.0
 11
15.4179657499
 21
23.2098002772
 31
0.0
  0
LINE
  5
5A7
330
1F
100
AcDbEntity
  8
TRMODEL1
  6
Continuous
 62
     4
100
AcDbLine
 10
15.4179657499
 20
23.2098002772
 30
0.0
 11
15.4032002418
 21
23.1779884763
 31
0.0
  0
LINE
  5
5A8
330
1F
100
AcDbEntity
  8
TRMODEL1
  6
Continuous
 62
     4
100
AcDbLine
 10
15.4032002418
 20
23.1779884763
 30
0.0
 11
15.4053333924
 21
23.1450775071
 31
0.0
  0
LINE
  5
5A9
330
1F
100
AcDbEntity
  8
TRMODEL1
  6
Continuous
 62
     4
100
AcDbLine
 10
15.4053333924
 20
23.1450775071
 30
0.0
 11
15.4241756617
 21
23.1139916537
 31
0.0
  0
LINE
  5
5AA
330
1F
100
AcDbEntity
  8
TRMODEL1
  6
Continuous
 62
     4
100
AcDbLine
 10
15.4241756617
 20
23.1139916537
 30
0.0
 11
15.4580528315
 21
23.0874930307
 31
0.0
  0
LINE
  5
5AB
330
1F
100
AcDbEntity
  8
TRMODEL1
  6
Continuous
 62
     4
100
AcDbLine
 10
14.9784392874
 20
23.6481794012
 30
0.0
 11
15.4114989209
 21
23.8981794062
 31
0.0
  0
LINE
  5
5AC
330
1F
100
AcDbEntity
  8
TRMODEL1
  6
Continuous
 62
     4
100
AcDbLine
 10
14.8723396772
 20
23.8319493162
 30
0.0
 11
14.8930386843
 21
23.817645848
 31
0.0
  0
LINE
  5
5AD
330
1F
100
AcDbEntity
  8
TRMODEL1
  6
Continuous
 62
     4
100
AcDbLine
 10
14.8930386843
 20
23.817645848
 30
0.0
 11
14.9129422402
 21
23.7991836824
 31
0.0
  0
LINE
  5
5AE
330
1F
100
AcDbEntity
  8
TRMODEL1
  6
Continuous
 62
     4
100
AcDbLine
 10
14.9129422402
 20
23.7991836824
 30
0.0
 11
14.9312854624
 21
23.7772723102
 31
0.0
  0
LINE
  5
5AF
330
1F
100
AcDbEntity
  8
TRMODEL1
  6
Continuous
 62
     4
100
AcDbLine
 10
14.9312854624
 20
23.7772723102
 30
0.0
 11
14.9473634311
 21
23.7527537731
 31
0.0
  0
LINE
  5
5B0
330
1F
100
AcDbEntity
  8
TRMODEL1
  6
Continuous
 62
     4
100
AcDbLine
 10
14.9473634311
 20
23.7527537731
 30
0.0
 11
14.960558279
 21
23.7265703047
 31
0.0
  0
LINE
  5
5B1
330
1F
100
AcDbEntity
  8
TRMODEL1
  6
Continuous
 62
     4
100
AcDbLine
 10
14.960558279
 20
23.7265703047
 30
0.0
 11
14.9703629355
 21
23.6997281211
 31
0.0
  0
LINE
  5
5B2
330
1F
100
AcDbEntity
  8
TRMODEL1
  6
Continuous
 62
     4
100
AcDbLine
 10
14.9703629355
 20
23.6997281211
 30
0.0
 11
14.9764006132
 21
23.6732587523
 31
0.0
  0
LINE
  5
5B3
330
1F
100
AcDbEntity
  8
TRMODEL1
  6
Continuous
 62
     4
100
AcDbLine
 10
14.9764006132
 20
23.6732587523
 30
0.0
 11
14.9784392874
 21
23.6481794012
 31
0.0
  0
LINE
  5
5B4
330
1F
100
AcDbEntity
  8
TRMODEL1
  6
Continuous
 62
     4
100
AcDbLine
 10
14.8723396772
 20
23.7694391561
 30
0.0
 11
14.8824779664
 21
23.7624333758
 31
0.0
  0
LINE
  5
5B5
330
1F
100
AcDbEntity
  8
TRMODEL1
  6
Continuous
 62
     4
100
AcDbLine
 10
14.8824779664
 20
23.7624333758
 30
0.0
 11
14.8922266469
 21
23.7533906824
 31
0.0
  0
LINE
  5
5B6
330
1F
100
AcDbEntity
  8
TRMODEL1
  6
Continuous
 62
     4
100
AcDbLine
 10
14.8922266469
 20
23.7533906824
 30
0.0
 11
14.9012110822
 21
23.7426585818
 31
0.0
  0
LINE
  5
5B7
330
1F
100
AcDbEntity
  8
TRMODEL1
  6
Continuous
 62
     4
100
AcDbLine
 10
14.9012110822
 20
23.7426585818
 30
0.0
 11
14.9090860056
 21
23.7306495024
 31
0.0
  0
LINE
  5
5B8
330
1F
100
AcDbEntity
  8
TRMODEL1
  6
Continuous
 62
     4
100
AcDbLine
 10
14.9090860056
 20
23.7306495024
 30
0.0
 11
14.9155487883
 21
23.7178249464
 31
0.0
  0
LINE
  5
5B9
330
1F
100
AcDbEntity
  8
TRMODEL1
  6
Continuous
 62
     4
100
AcDbLine
 10
14.9155487883
 20
23.7178249464
 30
0.0
 11
14.920351069
 21
23.7046777544
 31
0.0
  0
LINE
  5
5BA
330
1F
100
AcDbEntity
  8
TRMODEL1
  6
Continuous
 62
     4
100
AcDbLine
 10
14.920351069
 20
23.7046777544
 30
0.0
 11
14.9233082989
 21
23.6917131656
 31
0.0
  0
LINE
  5
5BB
330
1F
100
AcDbEntity
  8
TRMODEL1
  6
Continuous
 62
     4
100
AcDbLine
 10
14.9233082989
 20
23.6917131656
 30
0.0
 11
14.9243068332
 21
23.6794294019
 31
0.0
  0
LINE
  5
5BC
330
1F
100
AcDbEntity
  8
TRMODEL1
  6
Continuous
 62
     4
100
AcDbLine
 10
15.4114989209
 20
23.8981794062
 30
0.0
 11
15.4114989209
 21
23.580627793
 31
0.0
  0
LINE
  5
5BD
330
1F
100
AcDbEntity
  8
TRMODEL1
  6
Continuous
 62
     4
100
AcDbLine
 10
16.2004352328
 20
23.5293778696
 30
0.0
 11
16.2165071045
 21
23.5353296589
 31
0.0
  0
LINE
  5
5BE
330
1F
100
AcDbEntity
  8
TRMODEL1
  6
Continuous
 62
     4
100
AcDbLine
 10
16.2165071045
 20
23.5353296589
 30
0.0
 11
16.2348503266
 21
23.5360623976
 31
0.0
  0
LINE
  5
5BF
330
1F
100
AcDbEntity
  8
TRMODEL1
  6
Continuous
 62
     4
100
AcDbLine
 10
16.2348503266
 20
23.5360623976
 30
0.0
 11
16.2547538825
 21
23.5315444067
 31
0.0
  0
LINE
  5
5C0
330
1F
100
AcDbEntity
  8
TRMODEL1
  6
Continuous
 62
     4
100
AcDbLine
 10
16.2547538825
 20
23.5315444067
 30
0.0
 11
16.2754528896
 21
23.52194931
 31
0.0
  0
LINE
  5
5C1
330
1F
100
AcDbEntity
  8
TRMODEL1
  6
Continuous
 62
     4
100
AcDbLine
 10
16.2004352328
 20
23.5293778696
 30
0.0
 11
15.7673755993
 21
23.2793778646
 31
0.0
  0
LINE
  5
5C2
330
1F
100
AcDbEntity
  8
TRMODEL1
  6
Continuous
 62
     4
100
AcDbLine
 10
15.8423932562
 20
23.271949305
 30
0.0
 11
16.2754528896
 21
23.52194931
 31
0.0
  0
LINE
  5
5C3
330
1F
100
AcDbEntity
  8
TRMODEL1
  6
Continuous
 62
     4
100
AcDbLine
 10
16.1715185776
 20
23.0819493012
 30
0.0
 11
16.6045782111
 21
23.3319493062
 31
0.0
  0
LINE
  5
5C4
330
1F
100
AcDbEntity
  8
TRMODEL1
  6
Continuous
 62
     4
100
AcDbLine
 10
15.8423932562
 20
23.271949305
 30
0.0
 11
16.1715185776
 21
23.0819493012
 31
0.0
  0
LINE
  5
5C5
330
1F
100
AcDbEntity
  8
TRMODEL1
  6
Continuous
 62
     4
100
AcDbLine
 10
15.7904261002
 20
23.1794293919
 30
0.0
 11
15.7914246345
 21
23.1905602724
 31
0.0
  0
LINE
  5
5C6
330
1F
100
AcDbEntity
  8
TRMODEL1
  6
Continuous
 62
     4
100
AcDbLine
 10
15.7914246345
 20
23.1905602724
 30
0.0
 11
15.7943818644
 21
23.2001105163
 31
0.0
  0
LINE
  5
5C7
330
1F
100
AcDbEntity
  8
TRMODEL1
  6
Continuous
 62
     4
100
AcDbLine
 10
15.7943818644
 20
23.2001105163
 30
0.0
 11
15.7991841451
 21
23.207713113
 31
0.0
  0
LINE
  5
5C8
330
1F
100
AcDbEntity
  8
TRMODEL1
  6
Continuous
 62
     4
100
AcDbLine
 10
15.7991841451
 20
23.207713113
 30
0.0
 11
15.8056469278
 21
23.2130758989
 31
0.0
  0
LINE
  5
5C9
330
1F
100
AcDbEntity
  8
TRMODEL1
  6
Continuous
 62
     4
100
AcDbLine
 10
15.8056469278
 20
23.2130758989
 30
0.0
 11
15.8135218512
 21
23.2159927852
 31
0.0
  0
LINE
  5
5CA
330
1F
100
AcDbEntity
  8
TRMODEL1
  6
Continuous
 62
     4
100
AcDbLine
 10
15.8135218512
 20
23.2159927852
 30
0.0
 11
15.8225062865
 21
23.2163516776
 31
0.0
  0
LINE
  5
5CB
330
1F
100
AcDbEntity
  8
TRMODEL1
  6
Continuous
 62
     4
100
AcDbLine
 10
15.8225062865
 20
23.2163516776
 30
0.0
 11
15.832254967
 21
23.2141387841
 31
0.0
  0
LINE
  5
5CC
330
1F
100
AcDbEntity
  8
TRMODEL1
  6
Continuous
 62
     4
100
AcDbLine
 10
15.832254967
 20
23.2141387841
 30
0.0
 11
15.8423932562
 21
23.2094391449
 31
0.0
  0
LINE
  5
5CD
330
1F
100
AcDbEntity
  8
TRMODEL1
  6
Continuous
 62
     4
100
AcDbLine
 10
15.7904261002
 20
23.1794293919
 30
0.0
 11
15.8423932562
 21
23.2094391449
 31
0.0
  0
LINE
  5
5CE
330
1F
100
AcDbEntity
  8
TRMODEL1
  6
Continuous
 62
     4
100
AcDbLine
 10
16.2754528896
 20
23.52194931
 30
0.0
 11
16.6045782111
 21
23.3319493062
 31
0.0
  0
LINE
  5
5CF
330
1F
100
AcDbEntity
  8
TRMODEL1
  6
Continuous
 62
     2
100
AcDbLine
 10
15.7379299497
 20
24.9686293847
 30
0.0
 11
15.743703299
 21
24.9610184434
 31
0.0
  0
LINE
  5
5D0
330
1F
100
AcDbEntity
  8
TRMODEL1
  6
Continuous
 62
     2
100
AcDbLine
 10
15.743703299
 20
24.9610184434
 30
0.0
 11
15.7456739896
 21
24.9339802329
 31
0.0
  0
LINE
  5
5D1
330
1F
100
AcDbEntity
  8
TRMODEL1
  6
Continuous
 62
     2
100
AcDbLine
 10
15.7456739896
 20
24.9339802329
 30
0.0
 11
15.7304617566
 21
24.9082725375
 31
0.0
  0
LINE
  5
5D2
330
1F
100
AcDbEntity
  8
TRMODEL1
  6
Continuous
 62
     2
100
AcDbLine
 10
15.7304617566
 20
24.9082725375
 30
0.0
 11
15.6997857076
 21
24.8870605468
 31
0.0
  0
LINE
  5
5D3
330
1F
100
AcDbEntity
  8
TRMODEL1
  6
Continuous
 62
     2
100
AcDbLine
 10
15.6997857076
 20
24.8870605468
 30
0.0
 11
15.6571231279
 21
24.873092045
 31
0.0
  0
LINE
  5
5D4
330
1F
100
AcDbEntity
  8
TRMODEL1
  6
Continuous
 62
     2
100
AcDbLine
 10
15.6571231279
 20
24.873092045
 30
0.0
 11
15.607298467
 21
24.8682255579
 31
0.0
  0
LINE
  5
5D5
330
1F
100
AcDbEntity
  8
TRMODEL1
  6
Continuous
 62
     2
100
AcDbLine
 10
15.607298467
 20
24.8682255579
 30
0.0
 11
15.5559549257
 21
24.8733278274
 31
0.0
  0
LINE
  5
5D6
330
1F
100
AcDbEntity
  8
TRMODEL1
  6
Continuous
 62
     2
100
AcDbLine
 10
15.5559549257
 20
24.8733278274
 30
0.0
 11
15.5089038477
 21
24.888130234
 31
0.0
  0
LINE
  5
5D7
330
1F
100
AcDbEntity
  8
TRMODEL1
  6
Continuous
 62
     2
100
AcDbLine
 10
15.5089038477
 20
24.888130234
 30
0.0
 11
15.4714695284
 21
24.9112416465
 31
0.0
  0
LINE
  5
5D8
330
1F
100
AcDbEntity
  8
TRMODEL1
  6
Continuous
 62
     2
100
AcDbLine
 10
15.4714695284
 20
24.9112416465
 30
0.0
 11
15.4478925563
 21
24.9403842082
 31
0.0
  0
LINE
  5
5D9
330
1F
100
AcDbEntity
  8
TRMODEL1
  6
Continuous
 62
     2
100
AcDbLine
 10
15.4478925563
 20
24.9403842082
 30
0.0
 11
15.4408387134
 21
24.9725207995
 31
0.0
  0
LINE
  5
5DA
330
1F
100
AcDbEntity
  8
TRMODEL1
  6
Continuous
 62
     2
100
AcDbLine
 10
15.4408387134
 20
24.9725207995
 30
0.0
 11
15.4475225534
 21
24.9932454269
 31
0.0
  0
LINE
  5
5DB
330
1F
100
AcDbEntity
  8
TRMODEL1
  6
Continuous
 62
     2
100
AcDbLine
 10
15.7376444712
 20
24.8685108614
 30
0.0
 11
15.7452852029
 21
24.8563889637
 31
0.0
  0
LINE
  5
5DC
330
1F
100
AcDbEntity
  8
TRMODEL1
  6
Continuous
 62
     2
100
AcDbLine
 10
15.7452852029
 20
24.8563889637
 30
0.0
 11
15.7442527123
 21
24.8293495603
 31
0.0
  0
LINE
  5
5DD
330
1F
100
AcDbEntity
  8
TRMODEL1
  6
Continuous
 62
     2
100
AcDbLine
 10
15.7442527123
 20
24.8293495603
 30
0.0
 11
15.7261971584
 21
24.8041816745
 31
0.0
  0
LINE
  5
5DE
330
1F
100
AcDbEntity
  8
TRMODEL1
  6
Continuous
 62
     2
100
AcDbLine
 10
15.7261971584
 20
24.8041816745
 30
0.0
 11
15.693164278
 21
24.7840661817
 31
0.0
  0
LINE
  5
5DF
330
1F
100
AcDbEntity
  8
TRMODEL1
  6
Continuous
 62
     2
100
AcDbLine
 10
15.693164278
 20
24.7840661817
 30
0.0
 11
15.6488882701
 21
24.7715398332
 31
0.0
  0
LINE
  5
5E0
330
1F
100
AcDbEntity
  8
TRMODEL1
  6
Continuous
 62
     2
100
AcDbLine
 10
15.6488882701
 20
24.7715398332
 30
0.0
 11
15.5983892827
 21
24.7683782394
 31
0.0
  0
LINE
  5
5E1
330
1F
100
AcDbEntity
  8
TRMODEL1
  6
Continuous
 62
     2
100
AcDbLine
 10
15.5983892827
 20
24.7683782394
 30
0.0
 11
15.5473738042
 21
24.7751939402
 31
0.0
  0
LINE
  5
5E2
330
1F
100
AcDbEntity
  8
TRMODEL1
  6
Continuous
 62
     2
100
AcDbLine
 10
15.5473738042
 20
24.7751939402
 30
0.0
 11
15.5016258542
 21
24.7915603776
 31
0.0
  0
LINE
  5
5E3
330
1F
100
AcDbEntity
  8
TRMODEL1
  6
Continuous
 62
     2
100
AcDbLine
 10
15.5016258542
 20
24.7915603776
 30
0.0
 11
15.4663175406
 21
24.8159023963
 31
0.0
  0
LINE
  5
5E4
330
1F
100
AcDbEntity
  8
TRMODEL1
  6
Continuous
 62
     2
100
AcDbLine
 10
15.4663175406
 20
24.8159023963
 30
0.0
 11
15.4454490252
 21
24.8457803645
 31
0.0
  0
LINE
  5
5E5
330
1F
100
AcDbEntity
  8
TRMODEL1
  6
Continuous
 62
     2
100
AcDbLine
 10
15.4454490252
 20
24.8457803645
 30
0.0
 11
15.4413812216
 21
24.87812266
 31
0.0
  0
LINE
  5
5E6
330
1F
100
AcDbEntity
  8
TRMODEL1
  6
Continuous
 62
     2
100
AcDbLine
 10
15.4413812216
 20
24.87812266
 30
0.0
 11
15.4469581333
 21
24.8914059331
 31
0.0
  0
LINE
  5
5E7
330
1F
100
AcDbEntity
  8
TRMODEL1
  6
Continuous
 62
     2
100
AcDbLine
 10
15.4426063439
 20
24.8176221081
 30
0.0
 11
15.4449712591
 21
24.7950904715
 31
0.0
  0
LINE
  5
5E8
330
1F
100
AcDbEntity
  8
TRMODEL1
  6
Continuous
 62
     2
100
AcDbLine
 10
15.4449712591
 20
24.7950904715
 30
0.0
 11
15.4652248003
 21
24.76506513
 31
0.0
  0
LINE
  5
5E9
330
1F
100
AcDbEntity
  8
TRMODEL1
  6
Continuous
 62
     2
100
AcDbLine
 10
15.4652248003
 20
24.76506513
 30
0.0
 11
15.5000387539
 21
24.7404455283
 31
0.0
  0
LINE
  5
5EA
330
1F
100
AcDbEntity
  8
TRMODEL1
  6
Continuous
 62
     2
100
AcDbLine
 10
15.5000387539
 20
24.7404455283
 30
0.0
 11
15.5454777322
 21
24.723753601
 31
0.0
  0
LINE
  5
5EB
330
1F
100
AcDbEntity
  8
TRMODEL1
  6
Continuous
 62
     2
100
AcDbLine
 10
15.5454777322
 20
24.723753601
 30
0.0
 11
15.5963908252
 21
24.7165354647
 31
0.0
  0
LINE
  5
5EC
330
1F
100
AcDbEntity
  8
TRMODEL1
  6
Continuous
 62
     2
100
AcDbLine
 10
15.5963908252
 20
24.7165354647
 30
0.0
 11
15.6470221357
 21
24.7193344768
 31
0.0
  0
LINE
  5
5ED
330
1F
100
AcDbEntity
  8
TRMODEL1
  6
Continuous
 62
     2
100
AcDbLine
 10
15.6470221357
 20
24.7193344768
 30
0.0
 11
15.6916350688
 21
24.7315108512
 31
0.0
  0
LINE
  5
5EE
330
1F
100
AcDbEntity
  8
TRMODEL1
  6
Continuous
 62
     2
100
AcDbLine
 10
15.6916350688
 20
24.7315108512
 30
0.0
 11
15.7251817831
 21
24.7513851435
 31
0.0
  0
LINE
  5
5EF
330
1F
100
AcDbEntity
  8
TRMODEL1
  6
Continuous
 62
     2
100
AcDbLine
 10
15.7251817831
 20
24.7513851435
 30
0.0
 11
15.743864823
 21
24.7764144316
 31
0.0
  0
LINE
  5
5F0
330
1F
100
AcDbEntity
  8
TRMODEL1
  6
Continuous
 62
     2
100
AcDbLine
 10
15.743864823
 20
24.7764144316
 30
0.0
 11
15.7448843659
 21
24.7925810365
 31
0.0
  0
LINE
  5
5F1
330
1F
100
AcDbEntity
  8
TRMODEL1
  6
Continuous
 62
     2
100
AcDbLine
 10
15.739187499
 20
24.8188499337
 30
0.0
 11
15.7406382538
 21
24.8173213193
 31
0.0
  0
LINE
  5
5F2
330
1F
100
AcDbEntity
  8
TRMODEL1
  6
Continuous
 62
     2
100
AcDbLine
 10
15.7406382538
 20
24.8173213193
 30
0.0
 11
15.7467960568
 21
24.7904943815
 31
0.0
  0
LINE
  5
5F3
330
1F
100
AcDbEntity
  8
TRMODEL1
  6
Continuous
 62
     2
100
AcDbLine
 10
15.7467960568
 20
24.7904943815
 30
0.0
 11
15.7356433213
 21
24.7641489777
 31
0.0
  0
LINE
  5
5F4
330
1F
100
AcDbEntity
  8
TRMODEL1
  6
Continuous
 62
     2
100
AcDbLine
 10
15.7356433213
 20
24.7641489777
 30
0.0
 11
15.7084424423
 21
24.7415834038
 31
0.0
  0
LINE
  5
5F5
330
1F
100
AcDbEntity
  8
TRMODEL1
  6
Continuous
 62
     2
100
AcDbLine
 10
15.7084424423
 20
24.7415834038
 30
0.0
 11
15.6682729854
 21
24.7256616771
 31
0.0
  0
LINE
  5
5F6
330
1F
100
AcDbEntity
  8
TRMODEL1
  6
Continuous
 62
     2
100
AcDbLine
 10
15.6682729854
 20
24.7256616771
 30
0.0
 11
15.6196798807
 21
24.7184724401
 31
0.0
  0
LINE
  5
5F7
330
1F
100
AcDbEntity
  8
TRMODEL1
  6
Continuous
 62
     2
100
AcDbLine
 10
15.6196798807
 20
24.7184724401
 30
0.0
 11
15.5681680871
 21
24.7211631733
 31
0.0
  0
LINE
  5
5F8
330
1F
100
AcDbEntity
  8
TRMODEL1
  6
Continuous
 62
     2
100
AcDbLine
 10
15.5681680871
 20
24.7211631733
 30
0.0
 11
15.5195623047
 21
24.7336955668
 31
0.0
  0
LINE
  5
5F9
330
1F
100
AcDbEntity
  8
TRMODEL1
  6
Continuous
 62
     2
100
AcDbLine
 10
15.5195623047
 20
24.7336955668
 30
0.0
 11
15.4793718693
 21
24.7549976241
 31
0.0
  0
LINE
  5
5FA
330
1F
100
AcDbEntity
  8
TRMODEL1
  6
Continuous
 62
     2
100
AcDbLine
 10
15.4793718693
 20
24.7549976241
 30
0.0
 11
15.4521394873
 21
24.7829237039
 31
0.0
  0
LINE
  5
5FB
330
1F
100
AcDbEntity
  8
TRMODEL1
  6
Continuous
 62
     2
100
AcDbLine
 10
15.4521394873
 20
24.7829237039
 30
0.0
 11
15.4409524212
 21
24.8146464682
 31
0.0
  0
LINE
  5
5FC
330
1F
100
AcDbEntity
  8
TRMODEL1
  6
Continuous
 62
     2
100
AcDbLine
 10
15.4409524212
 20
24.8146464682
 30
0.0
 11
15.4468666619
 21
24.8457669636
 31
0.0
  0
LINE
  5
5FD
330
1F
100
AcDbEntity
  8
TRMODEL1
  6
Continuous
 62
     2
100
AcDbLine
 10
15.4425215327
 20
24.8674801496
 30
0.0
 11
15.4414546056
 21
24.8584023204
 31
0.0
  0
LINE
  5
5FE
330
1F
100
AcDbEntity
  8
TRMODEL1
  6
Continuous
 62
     2
100
AcDbLine
 10
15.4414546056
 20
24.8584023204
 30
0.0
 11
15.4549056858
 21
24.8269985081
 31
0.0
  0
LINE
  5
5FF
330
1F
100
AcDbEntity
  8
TRMODEL1
  6
Continuous
 62
     2
100
AcDbLine
 10
15.4549056858
 20
24.8269985081
 30
0.0
 11
15.4840887902
 21
24.7998122395
 31
0.0
  0
LINE
  5
600
330
1F
100
AcDbEntity
  8
TRMODEL1
  6
Continuous
 62
     2
100
AcDbLine
 10
15.4840887902
 20
24.7998122395
 30
0.0
 11
15.5256960606
 21
24.7795786153
 31
0.0
  0
LINE
  5
601
330
1F
100
AcDbEntity
  8
TRMODEL1
  6
Continuous
 62
     2
100
AcDbLine
 10
15.5256960606
 20
24.7795786153
 30
0.0
 11
15.5750249293
 21
24.7683260687
 31
0.0
  0
LINE
  5
602
330
1F
100
AcDbEntity
  8
TRMODEL1
  6
Continuous
 62
     2
100
AcDbLine
 10
15.5750249293
 20
24.7683260687
 30
0.0
 11
15.6264827288
 21
24.7669810662
 31
0.0
  0
LINE
  5
603
330
1F
100
AcDbEntity
  8
TRMODEL1
  6
Continuous
 62
     2
100
AcDbLine
 10
15.6264827288
 20
24.7669810662
 30
0.0
 11
15.6742526922
 21
24.7754300948
 31
0.0
  0
LINE
  5
604
330
1F
100
AcDbEntity
  8
TRMODEL1
  6
Continuous
 62
     2
100
AcDbLine
 10
15.6742526922
 20
24.7754300948
 30
0.0
 11
15.7129210842
 21
24.7923820018
 31
0.0
  0
LINE
  5
605
330
1F
100
AcDbEntity
  8
TRMODEL1
  6
Continuous
 62
     2
100
AcDbLine
 10
15.7129210842
 20
24.7923820018
 30
0.0
 11
15.7381146901
 21
24.8156298523
 31
0.0
  0
LINE
  5
606
330
1F
100
AcDbEntity
  8
TRMODEL1
  6
Continuous
 62
     2
100
AcDbLine
 10
15.7381146901
 20
24.8156298523
 30
0.0
 11
15.7469801033
 21
24.842239768
 31
0.0
  0
LINE
  5
607
330
1F
100
AcDbEntity
  8
TRMODEL1
  6
Continuous
 62
     2
100
AcDbLine
 10
15.7469801033
 20
24.842239768
 30
0.0
 11
15.7468826291
 21
24.8425464319
 31
0.0
  0
LINE
  5
608
330
1F
100
AcDbEntity
  8
TRMODEL1
  6
Continuous
 62
     2
100
AcDbLine
 10
15.4417544208
 20
24.9176414904
 30
0.0
 11
15.4473022525
 21
24.8896709878
 31
0.0
  0
LINE
  5
609
330
1F
100
AcDbEntity
  8
TRMODEL1
  6
Continuous
 62
     2
100
AcDbLine
 10
15.4473022525
 20
24.8896709878
 30
0.0
 11
15.4702812324
 21
24.8603656122
 31
0.0
  0
LINE
  5
60A
330
1F
100
AcDbEntity
  8
TRMODEL1
  6
Continuous
 62
     2
100
AcDbLine
 10
15.4702812324
 20
24.8603656122
 30
0.0
 11
15.5072501829
 21
24.8369680781
 31
0.0
  0
LINE
  5
60B
330
1F
100
AcDbEntity
  8
TRMODEL1
  6
Continuous
 62
     2
100
AcDbLine
 10
15.5072501829
 20
24.8369680781
 30
0.0
 11
15.5540233643
 21
24.8218101546
 31
0.0
  0
LINE
  5
60C
330
1F
100
AcDbEntity
  8
TRMODEL1
  6
Continuous
 62
     2
100
AcDbLine
 10
15.5540233643
 20
24.8218101546
 30
0.0
 11
15.6053099478
 21
24.8163322529
 31
0.0
  0
LINE
  5
60D
330
1F
100
AcDbEntity
  8
TRMODEL1
  6
Continuous
 62
     2
100
AcDbLine
 10
15.6053099478
 20
24.8163322529
 30
0.0
 11
15.6552975501
 21
24.8208063149
 31
0.0
  0
LINE
  5
60E
330
1F
100
AcDbEntity
  8
TRMODEL1
  6
Continuous
 62
     2
100
AcDbLine
 10
15.6552975501
 20
24.8208063149
 30
0.0
 11
15.6983367729
 21
24.8344729596
 31
0.0
  0
LINE
  5
60F
330
1F
100
AcDbEntity
  8
TRMODEL1
  6
Continuous
 62
     2
100
AcDbLine
 10
15.6983367729
 20
24.8344729596
 30
0.0
 11
15.7295470016
 21
24.8554297592
 31
0.0
  0
LINE
  5
610
330
1F
100
AcDbEntity
  8
TRMODEL1
  6
Continuous
 62
     2
100
AcDbLine
 10
15.7295470016
 20
24.8554297592
 30
0.0
 11
15.7454010117
 21
24.8810412079
 31
0.0
  0
LINE
  5
611
330
1F
100
AcDbEntity
  8
TRMODEL1
  6
Continuous
 62
     2
100
AcDbLine
 10
15.7454010117
 20
24.8810412079
 30
0.0
 11
15.7448487578
 21
24.8925317391
 31
0.0
  0
LINE
  5
612
330
1F
100
AcDbEntity
  8
TRMODEL1
  6
Continuous
 62
     2
100
AcDbLine
 10
15.4429252595
 20
24.9675526558
 30
0.0
 11
15.4425615826
 21
24.9528433071
 31
0.0
  0
LINE
  5
613
330
1F
100
AcDbEntity
  8
TRMODEL1
  6
Continuous
 62
     2
100
AcDbLine
 10
15.4425615826
 20
24.9528433071
 30
0.0
 11
15.4588874736
 21
24.9219403719
 31
0.0
  0
LINE
  5
614
330
1F
100
AcDbEntity
  8
TRMODEL1
  6
Continuous
 62
     2
100
AcDbLine
 10
15.4588874736
 20
24.9219403719
 30
0.0
 11
15.4904945641
 21
24.8957709786
 31
0.0
  0
LINE
  5
615
330
1F
100
AcDbEntity
  8
TRMODEL1
  6
Continuous
 62
     2
100
AcDbLine
 10
15.4904945641
 20
24.8957709786
 30
0.0
 11
15.5338025005
 21
24.87697849
 31
0.0
  0
LINE
  5
616
330
1F
100
AcDbEntity
  8
TRMODEL1
  6
Continuous
 62
     2
100
AcDbLine
 10
15.5338025005
 20
24.87697849
 30
0.0
 11
15.5839100923
 21
24.8673853334
 31
0.0
  0
LINE
  5
617
330
1F
100
AcDbEntity
  8
TRMODEL1
  6
Continuous
 62
     2
100
AcDbLine
 10
15.5839100923
 20
24.8673853334
 30
0.0
 11
15.6351468173
 21
24.8677862788
 31
0.0
  0
LINE
  5
618
330
1F
100
AcDbEntity
  8
TRMODEL1
  6
Continuous
 62
     2
100
AcDbLine
 10
15.6351468173
 20
24.8677862788
 30
0.0
 11
15.6817089337
 21
24.877806572
 31
0.0
  0
LINE
  5
619
330
1F
100
AcDbEntity
  8
TRMODEL1
  6
Continuous
 62
     2
100
AcDbLine
 10
15.6817089337
 20
24.877806572
 30
0.0
 11
15.7183305073
 21
24.8960416895
 31
0.0
  0
LINE
  5
61A
330
1F
100
AcDbEntity
  8
TRMODEL1
  6
Continuous
 62
     2
100
AcDbLine
 10
15.7183305073
 20
24.8960416895
 30
0.0
 11
15.7408615677
 21
24.9200807738
 31
0.0
  0
LINE
  5
61B
330
1F
100
AcDbEntity
  8
TRMODEL1
  6
Continuous
 62
     2
100
AcDbLine
 10
15.7408615677
 20
24.9200807738
 30
0.0
 11
15.7458119921
 21
24.9426466053
 31
0.0
  0
LINE
  5
61C
330
1F
100
AcDbEntity
  8
TRMODEL1
  6
Continuous
 62
     2
100
AcDbLine
 10
15.4410937975
 20
25.0175428279
 30
0.0
 11
15.4407760107
 21
25.0162643502
 31
0.0
  0
LINE
  5
61D
330
1F
100
AcDbEntity
  8
TRMODEL1
  6
Continuous
 62
     2
100
AcDbLine
 10
15.4407760107
 20
25.0162643502
 30
0.0
 11
15.4501319071
 21
24.9843424205
 31
0.0
  0
LINE
  5
61E
330
1F
100
AcDbEntity
  8
TRMODEL1
  6
Continuous
 62
     2
100
AcDbLine
 10
15.4501319071
 20
24.9843424205
 30
0.0
 11
15.4757571121
 21
24.9558441864
 31
0.0
  0
LINE
  5
61F
330
1F
100
AcDbEntity
  8
TRMODEL1
  6
Continuous
 62
     2
100
AcDbLine
 10
15.4757571121
 20
24.9558441864
 30
0.0
 11
15.5147553665
 21
24.9337311842
 31
0.0
  0
LINE
  5
620
330
1F
100
AcDbEntity
  8
TRMODEL1
  6
Continuous
 62
     2
100
AcDbLine
 10
15.5147553665
 20
24.9337311842
 30
0.0
 11
15.5627064157
 21
24.9201700162
 31
0.0
  0
LINE
  5
621
330
1F
100
AcDbEntity
  8
TRMODEL1
  6
Continuous
 62
     2
100
AcDbLine
 10
15.5627064157
 20
24.9201700162
 30
0.0
 11
15.614187331
 21
24.9164115497
 31
0.0
  0
LINE
  5
622
330
1F
100
AcDbEntity
  8
TRMODEL1
  6
Continuous
 62
     2
100
AcDbLine
 10
15.614187331
 20
24.9164115497
 30
0.0
 11
15.6633678283
 21
24.9225729198
 31
0.0
  0
LINE
  5
623
330
1F
100
AcDbEntity
  8
TRMODEL1
  6
Continuous
 62
     2
100
AcDbLine
 10
15.6633678283
 20
24.9225729198
 30
0.0
 11
15.7046805675
 21
24.9376360645
 31
0.0
  0
LINE
  5
624
330
1F
100
AcDbEntity
  8
TRMODEL1
  6
Continuous
 62
     2
100
AcDbLine
 10
15.7046805675
 20
24.9376360645
 30
0.0
 11
15.7334522344
 21
24.9596267833
 31
0.0
  0
LINE
  5
625
330
1F
100
AcDbEntity
  8
TRMODEL1
  6
Continuous
 62
     2
100
AcDbLine
 10
15.7334522344
 20
24.9596267833
 30
0.0
 11
15.7464219347
 21
24.9857028143
 31
0.0
  0
LINE
  5
626
330
1F
100
AcDbEntity
  8
TRMODEL1
  6
Continuous
 62
     2
100
AcDbLine
 10
15.7464219347
 20
24.9857028143
 30
0.0
 11
15.7453386717
 21
24.9924965614
 31
0.0
  0
LINE
  5
627
330
1F
100
AcDbEntity
  8
TRMODEL1
  6
Continuous
 62
     2
100
AcDbLine
 10
15.7390800863
 20
24.9181800563
 30
0.0
 11
15.7469749185
 21
24.8952022819
 31
0.0
  0
LINE
  5
628
330
1F
100
AcDbEntity
  8
TRMODEL1
  6
Continuous
 62
     2
100
AcDbLine
 10
15.7469749185
 20
24.8952022819
 30
0.0
 11
15.7387717558
 21
24.8685213349
 31
0.0
  0
LINE
  5
629
330
1F
100
AcDbEntity
  8
TRMODEL1
  6
Continuous
 62
     2
100
AcDbLine
 10
15.7387717558
 20
24.8685213349
 30
0.0
 11
15.714167603
 21
24.8450976652
 31
0.0
  0
LINE
  5
62A
330
1F
100
AcDbEntity
  8
TRMODEL1
  6
Continuous
 62
     2
100
AcDbLine
 10
15.714167603
 20
24.8450976652
 30
0.0
 11
15.675943671
 21
24.82784031
 31
0.0
  0
LINE
  5
62B
330
1F
100
AcDbEntity
  8
TRMODEL1
  6
Continuous
 62
     2
100
AcDbLine
 10
15.675943671
 20
24.82784031
 30
0.0
 11
15.6284326845
 21
24.8190502418
 31
0.0
  0
LINE
  5
62C
330
1F
100
AcDbEntity
  8
TRMODEL1
  6
Continuous
 62
     2
100
AcDbLine
 10
15.6284326845
 20
24.8190502418
 30
0.0
 11
15.5770062752
 21
24.8199917504
 31
0.0
  0
LINE
  5
62D
330
1F
100
AcDbEntity
  8
TRMODEL1
  6
Continuous
 62
     2
100
AcDbLine
 10
15.5770062752
 20
24.8199917504
 30
0.0
 11
15.5274912906
 21
24.83088452
 31
0.0
  0
LINE
  5
62E
330
1F
100
AcDbEntity
  8
TRMODEL1
  6
Continuous
 62
     2
100
AcDbLine
 10
15.5274912906
 20
24.83088452
 30
0.0
 11
15.4854896341
 21
24.8507952158
 31
0.0
  0
LINE
  5
62F
330
1F
100
AcDbEntity
  8
TRMODEL1
  6
Continuous
 62
     2
100
AcDbLine
 10
15.4854896341
 20
24.8507952158
 30
0.0
 11
15.4557558403
 21
24.8777638064
 31
0.0
  0
LINE
  5
630
330
1F
100
AcDbEntity
  8
TRMODEL1
  6
Continuous
 62
     2
100
AcDbLine
 10
15.4557558403
 20
24.8777638064
 30
0.0
 11
15.4416573735
 21
24.9090644947
 31
0.0
  0
LINE
  5
631
330
1F
100
AcDbEntity
  8
TRMODEL1
  6
Continuous
 62
     2
100
AcDbLine
 10
15.4416573735
 20
24.9090644947
 30
0.0
 11
15.4447889468
 21
24.9414297034
 31
0.0
  0
LINE
  5
632
330
1F
100
AcDbEntity
  8
TRMODEL1
  6
Continuous
 62
     2
100
AcDbLine
 10
15.4447889468
 20
24.9414297034
 30
0.0
 11
15.4469073469
 21
24.9446173014
 31
0.0
  0
LINE
  5
633
330
1F
100
AcDbEntity
  8
TRMODEL1
  6
Continuous
 62
     4
100
AcDbLine
 10
14.9762739892
 20
24.271949325
 30
0.0
 11
15.3053993107
 21
24.0819493212
 31
0.0
  0
LINE
  5
634
330
1F
100
AcDbEntity
  8
TRMODEL1
  6
Continuous
 62
     4
100
AcDbLine
 10
14.9012563324
 20
24.2793778846
 30
0.0
 11
14.9173282041
 21
24.2853296739
 31
0.0
  0
LINE
  5
635
330
1F
100
AcDbEntity
  8
TRMODEL1
  6
Continuous
 62
     4
100
AcDbLine
 10
14.9173282041
 20
24.2853296739
 30
0.0
 11
14.9356714262
 21
24.2860624126
 31
0.0
  0
LINE
  5
636
330
1F
100
AcDbEntity
  8
TRMODEL1
  6
Continuous
 62
     4
100
AcDbLine
 10
14.9356714262
 20
24.2860624126
 30
0.0
 11
14.9555749821
 21
24.2815444217
 31
0.0
  0
LINE
  5
637
330
1F
100
AcDbEntity
  8
TRMODEL1
  6
Continuous
 62
     4
100
AcDbLine
 10
14.9555749821
 20
24.2815444217
 30
0.0
 11
14.9762739892
 21
24.271949325
 31
0.0
  0
LINE
  5
638
330
1F
100
AcDbEntity
  8
TRMODEL1
  6
Continuous
 62
     2
100
AcDbLine
 10
15.6404668167
 20
24.6702870222
 30
0.0
 11
15.5894609573
 21
24.6688140112
 31
0.0
  0
LINE
  5
639
330
1F
100
AcDbEntity
  8
TRMODEL1
  6
Continuous
 62
     2
100
AcDbLine
 10
15.5894609573
 20
24.6688140112
 30
0.0
 11
15.538954129
 21
24.677359526
 31
0.0
  0
LINE
  5
63A
330
1F
100
AcDbEntity
  8
TRMODEL1
  6
Continuous
 62
     2
100
AcDbLine
 10
15.538954129
 20
24.677359526
 30
0.0
 11
15.4946599181
 21
24.6952234413
 31
0.0
  0
LINE
  5
63B
330
1F
100
AcDbEntity
  8
TRMODEL1
  6
Continuous
 62
     2
100
AcDbLine
 10
15.4946599181
 20
24.6952234413
 30
0.0
 11
15.4615997186
 21
24.7207294328
 31
0.0
  0
LINE
  5
63C
330
1F
100
AcDbEntity
  8
TRMODEL1
  6
Continuous
 62
     2
100
AcDbLine
 10
15.4615997186
 20
24.7207294328
 30
0.0
 11
15.4435102524
 21
24.7512558491
 31
0.0
  0
LINE
  5
63D
330
1F
100
AcDbEntity
  8
TRMODEL1
  6
Continuous
 62
     2
100
AcDbLine
 10
15.4435102524
 20
24.7512558491
 30
0.0
 11
15.4424421022
 21
24.7836853802
 31
0.0
  0
LINE
  5
63E
330
1F
100
AcDbEntity
  8
TRMODEL1
  6
Continuous
 62
     2
100
AcDbLine
 10
15.4424421022
 20
24.7836853802
 30
0.0
 11
15.4468896011
 21
24.79224658
 31
0.0
  0
LINE
  5
63F
330
1F
100
AcDbEntity
  8
TRMODEL1
  6
Continuous
 62
     2
100
AcDbLine
 10
15.4416007313
 20
24.7674677149
 30
0.0
 11
15.4408657746
 21
24.763983794
 31
0.0
  0
LINE
  5
640
330
1F
100
AcDbEntity
  8
TRMODEL1
  6
Continuous
 62
     2
100
AcDbLine
 10
15.4408657746
 20
24.763983794
 30
0.0
 11
15.4513971627
 21
24.7321951269
 31
0.0
  0
LINE
  5
641
330
1F
100
AcDbEntity
  8
TRMODEL1
  6
Continuous
 62
     2
100
AcDbLine
 10
15.4513971627
 20
24.7321951269
 30
0.0
 11
15.4780545849
 21
24.7040487488
 31
0.0
  0
LINE
  5
642
330
1F
100
AcDbEntity
  8
TRMODEL1
  6
Continuous
 62
     2
100
AcDbLine
 10
15.4780545849
 20
24.7040487488
 30
0.0
 11
15.5178248203
 21
24.6824631794
 31
0.0
  0
LINE
  5
643
330
1F
100
AcDbEntity
  8
TRMODEL1
  6
Continuous
 62
     2
100
AcDbLine
 10
15.5178248203
 20
24.6824631794
 30
0.0
 11
15.5662008454
 21
24.6695505413
 31
0.0
  0
LINE
  5
644
330
1F
100
AcDbEntity
  8
TRMODEL1
  6
Continuous
 62
     2
100
AcDbLine
 10
15.5662008454
 20
24.6695505413
 30
0.0
 11
15.6044092168
 21
24.6663041718
 31
0.0
  0
LINE
  5
645
330
1F
100
AcDbEntity
  8
TRMODEL1
  6
Continuous
 62
     2
100
AcDbLine
 10
15.7034527277
 20
24.6927430269
 30
0.0
 11
15.6902147374
 21
24.6850984137
 31
0.0
  0
LINE
  5
646
330
1F
100
AcDbEntity
  8
TRMODEL1
  6
Continuous
 62
     2
100
AcDbLine
 10
15.6044092168
 20
24.6663041718
 30
0.0
 11
15.6512726387
 21
24.6710622342
 31
0.0
  0
LINE
  5
647
330
1F
100
AcDbEntity
  8
TRMODEL1
  6
Continuous
 62
     2
100
AcDbLine
 10
15.6512726387
 20
24.6710622342
 30
0.0
 11
15.6881165356
 21
24.6839326186
 31
0.0
  0
LINE
  5
648
330
1F
100
AcDbEntity
  8
TRMODEL1
  6
Continuous
 62
     2
100
AcDbLine
 10
15.6881165356
 20
24.6839326186
 30
0.0
 11
15.6899587566
 21
24.6854654784
 31
0.0
  0
LINE
  5
649
330
1F
100
AcDbEntity
  8
TRMODEL1
  6
Continuous
 62
     2
100
AcDbLine
 10
15.6044092168
 20
24.6663041718
 30
0.0
 11
15.6089928925
 21
24.6665267033
 31
0.0
  0
LINE
  5
64A
330
1F
100
AcDbEntity
  8
TRMODEL1
  6
Continuous
 62
     2
100
AcDbLine
 10
15.6089928925
 20
24.6665267033
 30
0.0
 11
15.61356292
 21
24.666828622
 31
0.0
  0
LINE
  5
64B
330
1F
100
AcDbEntity
  8
TRMODEL1
  6
Continuous
 62
     2
100
AcDbLine
 10
15.61356292
 20
24.666828622
 30
0.0
 11
15.6181151746
 21
24.6672096551
 31
0.0
  0
LINE
  5
64C
330
1F
100
AcDbEntity
  8
TRMODEL1
  6
Continuous
 62
     2
100
AcDbLine
 10
15.6181151746
 20
24.6672096551
 30
0.0
 11
15.6226455476
 21
24.6676694589
 31
0.0
  0
LINE
  5
64D
330
1F
100
AcDbEntity
  8
TRMODEL1
  6
Continuous
 62
     2
100
AcDbLine
 10
15.6226455476
 20
24.6676694589
 30
0.0
 11
15.62714995
 21
24.6682076184
 31
0.0
  0
LINE
  5
64E
330
1F
100
AcDbEntity
  8
TRMODEL1
  6
Continuous
 62
     2
100
AcDbLine
 10
15.62714995
 20
24.6682076184
 30
0.0
 11
15.6316243161
 21
24.6688236477
 31
0.0
  0
LINE
  5
64F
330
1F
100
AcDbEntity
  8
TRMODEL1
  6
Continuous
 62
     2
100
AcDbLine
 10
15.6316243161
 20
24.6688236477
 30
0.0
 11
15.6360646076
 21
24.6695169909
 31
0.0
  0
LINE
  5
650
330
1F
100
AcDbEntity
  8
TRMODEL1
  6
Continuous
 62
     2
100
AcDbLine
 10
15.6360646076
 20
24.6695169909
 30
0.0
 11
15.6404668167
 21
24.6702870222
 31
0.0
  0
LINE
  5
651
330
1F
100
AcDbEntity
  8
TRMODEL1
  6
Continuous
 62
     2
100
AcDbLine
 10
15.7335740654
 20
24.7626281132
 30
0.0
 11
15.7392434595
 21
24.7471336487
 31
0.0
  0
LINE
  5
652
330
1F
100
AcDbEntity
  8
TRMODEL1
  6
Continuous
 62
     2
100
AcDbLine
 10
15.7392434595
 20
24.7471336487
 30
0.0
 11
15.7326366651
 21
24.7210829578
 31
0.0
  0
LINE
  5
653
330
1F
100
AcDbEntity
  8
TRMODEL1
  6
Continuous
 62
     2
100
AcDbLine
 10
15.7326366651
 20
24.7210829578
 30
0.0
 11
15.7103809936
 21
24.6974564991
 31
0.0
  0
LINE
  5
654
330
1F
100
AcDbEntity
  8
TRMODEL1
  6
Continuous
 62
     2
100
AcDbLine
 10
15.7103809936
 20
24.6974564991
 30
0.0
 11
15.6745750088
 21
24.6791581451
 31
0.0
  0
LINE
  5
655
330
1F
100
AcDbEntity
  8
TRMODEL1
  6
Continuous
 62
     2
100
AcDbLine
 10
15.6745750088
 20
24.6791581451
 30
0.0
 11
15.6404668167
 21
24.6702870222
 31
0.0
  0
LINE
  5
656
330
1F
100
AcDbEntity
  8
TRMODEL1
  6
Continuous
 62
     2
100
AcDbLine
 10
17.1908817198
 20
23.0380181205
 30
0.0
 11
18.1752713268
 21
23.0380181205
 31
0.0
  0
LINE
  5
657
330
1F
100
AcDbEntity
  8
TRMODEL1
  6
Continuous
 62
     2
100
AcDbLine
 10
16.319872654
 20
26.5095202142
 30
0.0
 11
18.1752713268
 21
26.5095202142
 31
0.0
  0
LINE
  5
658
330
1F
100
AcDbEntity
  8
TRMODEL1
  6
Continuous
 62
     4
100
AcDbLine
 10
15.7469812848
 20
26.3480744793
 30
0.0
 11
15.7469812848
 21
25.4439289358
 31
0.0
  0
LINE
  5
659
330
1F
100
AcDbEntity
  8
TRMODEL1
  6
Continuous
 62
     4
100
AcDbLine
 10
15.4407618813
 20
25.4676542998
 30
0.0
 11
15.4407618813
 21
26.3480744793
 31
0.0
  0
LINE
  5
65A
330
1F
100
AcDbEntity
  8
TRMODEL1
  6
Continuous
 62
     2
100
AcDbLine
 10
15.7377921859
 20
25.3685183211
 30
0.0
 11
15.7461781455
 21
25.3527595022
 31
0.0
  0
LINE
  5
65B
330
1F
100
AcDbEntity
  8
TRMODEL1
  6
Continuous
 62
     2
100
AcDbLine
 10
15.7461781455
 20
25.3527595022
 30
0.0
 11
15.7427522558
 21
25.325784241
 31
0.0
  0
LINE
  5
65C
330
1F
100
AcDbEntity
  8
TRMODEL1
  6
Continuous
 62
     2
100
AcDbLine
 10
15.7427522558
 20
25.325784241
 30
0.0
 11
15.7224728215
 21
25.3011282694
 31
0.0
  0
LINE
  5
65D
330
1F
100
AcDbEntity
  8
TRMODEL1
  6
Continuous
 62
     2
100
AcDbLine
 10
15.7224728215
 20
25.3011282694
 30
0.0
 11
15.6876381208
 21
25.2819251015
 31
0.0
  0
LINE
  5
65E
330
1F
100
AcDbEntity
  8
TRMODEL1
  6
Continuous
 62
     2
100
AcDbLine
 10
15.6876381208
 20
25.2819251015
 30
0.0
 11
15.6421855628
 21
25.2706045741
 31
0.0
  0
LINE
  5
65F
330
1F
100
AcDbEntity
  8
TRMODEL1
  6
Continuous
 62
     2
100
AcDbLine
 10
15.6421855628
 20
25.2706045741
 30
0.0
 11
15.5912685201
 21
25.2688024095
 31
0.0
  0
LINE
  5
660
330
1F
100
AcDbEntity
  8
TRMODEL1
  6
Continuous
 62
     2
100
AcDbLine
 10
15.5912685201
 20
25.2688024095
 30
0.0
 11
15.54064194
 21
25.2769862377
 31
0.0
  0
LINE
  5
661
330
1F
100
AcDbEntity
  8
TRMODEL1
  6
Continuous
 62
     2
100
AcDbLine
 10
15.54064194
 20
25.2769862377
 30
0.0
 11
15.4960436221
 21
25.2945617547
 31
0.0
  0
LINE
  5
662
330
1F
100
AcDbEntity
  8
TRMODEL1
  6
Continuous
 62
     2
100
AcDbLine
 10
15.4960436221
 20
25.2945617547
 30
0.0
 11
15.4625180651
 21
25.3198318142
 31
0.0
  0
LINE
  5
663
330
1F
100
AcDbEntity
  8
TRMODEL1
  6
Continuous
 62
     2
100
AcDbLine
 10
15.4625180651
 20
25.3198318142
 30
0.0
 11
15.4438615371
 21
25.3502371158
 31
0.0
  0
LINE
  5
664
330
1F
100
AcDbEntity
  8
TRMODEL1
  6
Continuous
 62
     2
100
AcDbLine
 10
15.4438615371
 20
25.3502371158
 30
0.0
 11
15.4421857416
 21
25.3826593151
 31
0.0
  0
LINE
  5
665
330
1F
100
AcDbEntity
  8
TRMODEL1
  6
Continuous
 62
     2
100
AcDbLine
 10
15.4421857416
 20
25.3826593151
 30
0.0
 11
15.4468500265
 21
25.3920026293
 31
0.0
  0
LINE
  5
666
330
1F
100
AcDbEntity
  8
TRMODEL1
  6
Continuous
 62
     2
100
AcDbLine
 10
15.738349632
 20
25.3187690378
 30
0.0
 11
15.742507162
 21
25.3138097178
 31
0.0
  0
LINE
  5
667
330
1F
100
AcDbEntity
  8
TRMODEL1
  6
Continuous
 62
     2
100
AcDbLine
 10
15.742507162
 20
25.3138097178
 30
0.0
 11
15.7462805821
 21
25.2868426725
 31
0.0
  0
LINE
  5
668
330
1F
100
AcDbEntity
  8
TRMODEL1
  6
Continuous
 62
     2
100
AcDbLine
 10
15.7462805821
 20
25.2868426725
 30
0.0
 11
15.7328020957
 21
25.2608362149
 31
0.0
  0
LINE
  5
669
330
1F
100
AcDbEntity
  8
TRMODEL1
  6
Continuous
 62
     2
100
AcDbLine
 10
15.7328020957
 20
25.2608362149
 30
0.0
 11
15.7035959586
 21
25.2390203025
 31
0.0
  0
LINE
  5
66A
330
1F
100
AcDbEntity
  8
TRMODEL1
  6
Continuous
 62
     2
100
AcDbLine
 10
15.7035959586
 20
25.2390203025
 30
0.0
 11
15.661971615
 21
25.2242024745
 31
0.0
  0
LINE
  5
66B
330
1F
100
AcDbEntity
  8
TRMODEL1
  6
Continuous
 62
     2
100
AcDbLine
 10
15.661971615
 20
25.2242024745
 30
0.0
 11
15.6126349999
 21
25.2183246193
 31
0.0
  0
LINE
  5
66C
330
1F
100
AcDbEntity
  8
TRMODEL1
  6
Continuous
 62
     2
100
AcDbLine
 10
15.6126349999
 20
25.2183246193
 30
0.0
 11
15.561178405
 21
25.2223982325
 31
0.0
  0
LINE
  5
66D
330
1F
100
AcDbEntity
  8
TRMODEL1
  6
Continuous
 62
     2
100
AcDbLine
 10
15.561178405
 20
25.2223982325
 30
0.0
 11
15.5134188779
 21
25.2362270118
 31
0.0
  0
LINE
  5
66E
330
1F
100
AcDbEntity
  8
TRMODEL1
  6
Continuous
 62
     2
100
AcDbLine
 10
15.5134188779
 20
25.2362270118
 30
0.0
 11
15.4747694317
 21
25.2585833808
 31
0.0
  0
LINE
  5
66F
330
1F
100
AcDbEntity
  8
TRMODEL1
  6
Continuous
 62
     2
100
AcDbLine
 10
15.4747694317
 20
25.2585833808
 30
0.0
 11
15.4496001832
 21
25.2872186948
 31
0.0
  0
LINE
  5
670
330
1F
100
AcDbEntity
  8
TRMODEL1
  6
Continuous
 62
     2
100
AcDbLine
 10
15.4496001832
 20
25.2872186948
 30
0.0
 11
15.4407627565
 21
25.3192043785
 31
0.0
  0
LINE
  5
671
330
1F
100
AcDbEntity
  8
TRMODEL1
  6
Continuous
 62
     2
100
AcDbLine
 10
15.4407627565
 20
25.3192043785
 30
0.0
 11
15.4474461883
 21
25.3444041906
 31
0.0
  0
LINE
  5
672
330
1F
100
AcDbEntity
  8
TRMODEL1
  6
Continuous
 62
     2
100
AcDbLine
 10
15.4429143523
 20
25.3176540046
 30
0.0
 11
15.4434746643
 21
25.299561769
 31
0.0
  0
LINE
  5
673
330
1F
100
AcDbEntity
  8
TRMODEL1
  6
Continuous
 62
     2
100
AcDbLine
 10
15.4434746643
 20
25.299561769
 30
0.0
 11
15.4615038648
 21
25.2690207137
 31
0.0
  0
LINE
  5
674
330
1F
100
AcDbEntity
  8
TRMODEL1
  6
Continuous
 62
     2
100
AcDbLine
 10
15.4615038648
 20
25.2690207137
 30
0.0
 11
15.4945150558
 21
25.2434902206
 31
0.0
  0
LINE
  5
675
330
1F
100
AcDbEntity
  8
TRMODEL1
  6
Continuous
 62
     2
100
AcDbLine
 10
15.4945150558
 20
25.2434902206
 30
0.0
 11
15.5387765669
 21
25.2255961694
 31
0.0
  0
LINE
  5
676
330
1F
100
AcDbEntity
  8
TRMODEL1
  6
Continuous
 62
     2
100
AcDbLine
 10
15.5387765669
 20
25.2255961694
 30
0.0
 11
15.5892700494
 21
25.2170127018
 31
0.0
  0
LINE
  5
677
330
1F
100
AcDbEntity
  8
TRMODEL1
  6
Continuous
 62
     2
100
AcDbLine
 10
15.5892700494
 20
25.2170127018
 30
0.0
 11
15.6402892737
 21
25.2184517171
 31
0.0
  0
LINE
  5
678
330
1F
100
AcDbEntity
  8
TRMODEL1
  6
Continuous
 62
     2
100
AcDbLine
 10
15.6402892737
 20
25.2184517171
 30
0.0
 11
15.6860504484
 21
25.2294090842
 31
0.0
  0
LINE
  5
679
330
1F
100
AcDbEntity
  8
TRMODEL1
  6
Continuous
 62
     2
100
AcDbLine
 10
15.6860504484
 20
25.2294090842
 30
0.0
 11
15.7213790934
 21
25.2483634252
 31
0.0
  0
LINE
  5
67A
330
1F
100
AcDbEntity
  8
TRMODEL1
  6
Continuous
 62
     2
100
AcDbLine
 10
15.7213790934
 20
25.2483634252
 30
0.0
 11
15.7422735608
 21
25.2728571407
 31
0.0
  0
LINE
  5
67B
330
1F
100
AcDbEntity
  8
TRMODEL1
  6
Continuous
 62
     2
100
AcDbLine
 10
15.7422735608
 20
25.2728571407
 30
0.0
 11
15.7452895232
 21
25.2926973364
 31
0.0
  0
LINE
  5
67C
330
1F
100
AcDbEntity
  8
TRMODEL1
  6
Continuous
 62
     2
100
AcDbLine
 10
15.4418280177
 20
25.3675603335
 30
0.0
 11
15.4409430135
 21
25.3629512504
 31
0.0
  0
LINE
  5
67D
330
1F
100
AcDbEntity
  8
TRMODEL1
  6
Continuous
 62
     2
100
AcDbLine
 10
15.4409430135
 20
25.3629512504
 30
0.0
 11
15.45206794
 21
25.331222951
 31
0.0
  0
LINE
  5
67E
330
1F
100
AcDbEntity
  8
TRMODEL1
  6
Continuous
 62
     2
100
AcDbLine
 10
15.45206794
 20
25.331222951
 30
0.0
 11
15.4792451547
 21
25.3032748826
 31
0.0
  0
LINE
  5
67F
330
1F
100
AcDbEntity
  8
TRMODEL1
  6
Continuous
 62
     2
100
AcDbLine
 10
15.4792451547
 20
25.3032748826
 30
0.0
 11
15.5193963106
 21
25.2819474394
 31
0.0
  0
LINE
  5
680
330
1F
100
AcDbEntity
  8
TRMODEL1
  6
Continuous
 62
     2
100
AcDbLine
 10
15.5193963106
 20
25.2819474394
 30
0.0
 11
15.5679805881
 21
25.2693777821
 31
0.0
  0
LINE
  5
681
330
1F
100
AcDbEntity
  8
TRMODEL1
  6
Continuous
 62
     2
100
AcDbLine
 10
15.5679805881
 20
25.2693777821
 30
0.0
 11
15.6194921939
 21
25.2666499587
 31
0.0
  0
LINE
  5
682
330
1F
100
AcDbEntity
  8
TRMODEL1
  6
Continuous
 62
     2
100
AcDbLine
 10
15.6194921939
 20
25.2666499587
 30
0.0
 11
15.6681072691
 21
25.2738077462
 31
0.0
  0
LINE
  5
683
330
1F
100
AcDbEntity
  8
TRMODEL1
  6
Continuous
 62
     2
100
AcDbLine
 10
15.6681072691
 20
25.2738077462
 30
0.0
 11
15.7083156304
 21
25.2896952988
 31
0.0
  0
LINE
  5
684
330
1F
100
AcDbEntity
  8
TRMODEL1
  6
Continuous
 62
     2
100
AcDbLine
 10
15.7083156304
 20
25.2896952988
 30
0.0
 11
15.735571735
 21
25.3122465534
 31
0.0
  0
LINE
  5
685
330
1F
100
AcDbEntity
  8
TRMODEL1
  6
Continuous
 62
     2
100
AcDbLine
 10
15.735571735
 20
25.3122465534
 30
0.0
 11
15.7467865409
 21
25.338578846
 31
0.0
  0
LINE
  5
686
330
1F
100
AcDbEntity
  8
TRMODEL1
  6
Continuous
 62
     2
100
AcDbLine
 10
15.7467865409
 20
25.338578846
 30
0.0
 11
15.7458823576
 21
25.3425604236
 31
0.0
  0
LINE
  5
687
330
1F
100
AcDbEntity
  8
TRMODEL1
  6
Continuous
 62
     2
100
AcDbLine
 10
15.4424752888
 20
25.4177284027
 30
0.0
 11
15.4454022708
 21
25.3940819754
 31
0.0
  0
LINE
  5
688
330
1F
100
AcDbEntity
  8
TRMODEL1
  6
Continuous
 62
     2
100
AcDbLine
 10
15.4454022708
 20
25.3940819754
 30
0.0
 11
15.4662131219
 21
25.3641922922
 31
0.0
  0
LINE
  5
689
330
1F
100
AcDbEntity
  8
TRMODEL1
  6
Continuous
 62
     2
100
AcDbLine
 10
15.4662131219
 20
25.3641922922
 30
0.0
 11
15.5014735665
 21
25.3398211174
 31
0.0
  0
LINE
  5
68A
330
1F
100
AcDbEntity
  8
TRMODEL1
  6
Continuous
 62
     2
100
AcDbLine
 10
15.5014735665
 20
25.3398211174
 30
0.0
 11
15.547193358
 21
25.3234245757
 31
0.0
  0
LINE
  5
68B
330
1F
100
AcDbEntity
  8
TRMODEL1
  6
Continuous
 62
     2
100
AcDbLine
 10
15.547193358
 20
25.3234245757
 30
0.0
 11
15.5981984514
 21
25.3165709303
 31
0.0
  0
LINE
  5
68C
330
1F
100
AcDbEntity
  8
TRMODEL1
  6
Continuous
 62
     2
100
AcDbLine
 10
15.5981984514
 20
25.3165709303
 30
0.0
 11
15.6487104459
 21
25.3196967526
 31
0.0
  0
LINE
  5
68D
330
1F
100
AcDbEntity
  8
TRMODEL1
  6
Continuous
 62
     2
100
AcDbLine
 10
15.6487104459
 20
25.3196967526
 30
0.0
 11
15.6930193951
 21
25.3321908152
 31
0.0
  0
LINE
  5
68E
330
1F
100
AcDbEntity
  8
TRMODEL1
  6
Continuous
 62
     2
100
AcDbLine
 10
15.6930193951
 20
25.3321908152
 30
0.0
 11
15.7261011107
 21
25.3522824012
 31
0.0
  0
LINE
  5
68F
330
1F
100
AcDbEntity
  8
TRMODEL1
  6
Continuous
 62
     2
100
AcDbLine
 10
15.7261011107
 20
25.3522824012
 30
0.0
 11
15.7442170506
 21
25.3774408186
 31
0.0
  0
LINE
  5
690
330
1F
100
AcDbEntity
  8
TRMODEL1
  6
Continuous
 62
     2
100
AcDbLine
 10
15.7442170506
 20
25.3774408186
 30
0.0
 11
15.7448345914
 21
25.3926675524
 31
0.0
  0
LINE
  5
691
330
1F
100
AcDbEntity
  8
TRMODEL1
  6
Continuous
 62
     2
100
AcDbLine
 10
15.4426455841
 20
25.4675867184
 30
0.0
 11
15.4416369741
 21
25.4573719079
 31
0.0
  0
LINE
  5
692
330
1F
100
AcDbEntity
  8
TRMODEL1
  6
Continuous
 62
     2
100
AcDbLine
 10
15.4416369741
 20
25.4573719079
 30
0.0
 11
15.4556735527
 21
25.4260578823
 31
0.0
  0
LINE
  5
693
330
1F
100
AcDbEntity
  8
TRMODEL1
  6
Continuous
 62
     2
100
AcDbLine
 10
15.4556735527
 20
25.4260578823
 30
0.0
 11
15.4853558224
 21
25.3990708574
 31
0.0
  0
LINE
  5
694
330
1F
100
AcDbEntity
  8
TRMODEL1
  6
Continuous
 62
     2
100
AcDbLine
 10
15.4853558224
 20
25.3990708574
 30
0.0
 11
15.5273191771
 21
25.3791272639
 31
0.0
  0
LINE
  5
695
330
1F
100
AcDbEntity
  8
TRMODEL1
  6
Continuous
 62
     2
100
AcDbLine
 10
15.5273191771
 20
25.3791272639
 30
0.0
 11
15.5768182925
 21
25.3682027618
 31
0.0
  0
LINE
  5
696
330
1F
100
AcDbEntity
  8
TRMODEL1
  6
Continuous
 62
     2
100
AcDbLine
 10
15.5768182925
 20
25.3682027618
 30
0.0
 11
15.6282467742
 21
25.367219611
 31
0.0
  0
LINE
  5
697
330
1F
100
AcDbEntity
  8
TRMODEL1
  6
Continuous
 62
     2
100
AcDbLine
 10
15.6282467742
 20
25.367219611
 30
0.0
 11
15.6757837076
 21
25.3759799775
 31
0.0
  0
LINE
  5
698
330
1F
100
AcDbEntity
  8
TRMODEL1
  6
Continuous
 62
     2
100
AcDbLine
 10
15.6757837076
 20
25.3759799775
 30
0.0
 11
15.7140496908
 21
25.3932080269
 31
0.0
  0
LINE
  5
699
330
1F
100
AcDbEntity
  8
TRMODEL1
  6
Continuous
 62
     2
100
AcDbLine
 10
15.7140496908
 20
25.3932080269
 30
0.0
 11
15.7387101048
 21
25.4166125395
 31
0.0
  0
LINE
  5
69A
330
1F
100
AcDbEntity
  8
TRMODEL1
  6
Continuous
 62
     2
100
AcDbLine
 10
15.7387101048
 20
25.4166125395
 30
0.0
 11
15.7467856311
 21
25.4426736693
 31
0.0
  0
LINE
  5
69B
330
1F
100
AcDbEntity
  8
TRMODEL1
  6
Continuous
 62
     2
100
AcDbLine
 10
15.7394498391
 20
25.4189997912
 30
0.0
 11
15.7401134035
 21
25.4183213684
 31
0.0
  0
LINE
  5
69C
330
1F
100
AcDbEntity
  8
TRMODEL1
  6
Continuous
 62
     2
100
AcDbLine
 10
15.7401134035
 20
25.4183213684
 30
0.0
 11
15.7468742778
 21
25.3915452558
 31
0.0
  0
LINE
  5
69D
330
1F
100
AcDbEntity
  8
TRMODEL1
  6
Continuous
 62
     2
100
AcDbLine
 10
15.7468742778
 20
25.3915452558
 30
0.0
 11
15.7363152651
 21
25.3651137314
 31
0.0
  0
LINE
  5
69E
330
1F
100
AcDbEntity
  8
TRMODEL1
  6
Continuous
 62
     2
100
AcDbLine
 10
15.7363152651
 20
25.3651137314
 30
0.0
 11
15.709633724
 21
25.3423791236
 31
0.0
  0
LINE
  5
69F
330
1F
100
AcDbEntity
  8
TRMODEL1
  6
Continuous
 62
     2
100
AcDbLine
 10
15.709633724
 20
25.3423791236
 30
0.0
 11
15.669845436
 21
25.3261707169
 31
0.0
  0
LINE
  5
6A0
330
1F
100
AcDbEntity
  8
TRMODEL1
  6
Continuous
 62
     2
100
AcDbLine
 10
15.669845436
 20
25.3261707169
 30
0.0
 11
15.6214600095
 21
25.31866486
 31
0.0
  0
LINE
  5
6A1
330
1F
100
AcDbEntity
  8
TRMODEL1
  6
Continuous
 62
     2
100
AcDbLine
 10
15.6214600095
 20
25.31866486
 30
0.0
 11
15.5699496775
 21
25.3209936308
 31
0.0
  0
LINE
  5
6A2
330
1F
100
AcDbEntity
  8
TRMODEL1
  6
Continuous
 62
     2
100
AcDbLine
 10
15.5699496775
 20
25.3209936308
 30
0.0
 11
15.5211478122
 21
25.3332010943
 31
0.0
  0
LINE
  5
6A3
330
1F
100
AcDbEntity
  8
TRMODEL1
  6
Continuous
 62
     2
100
AcDbLine
 10
15.5211478122
 20
25.3332010943
 30
0.0
 11
15.4805791866
 21
25.3542261977
 31
0.0
  0
LINE
  5
6A4
330
1F
100
AcDbEntity
  8
TRMODEL1
  6
Continuous
 62
     2
100
AcDbLine
 10
15.4805791866
 20
25.3542261977
 30
0.0
 11
15.4528327175
 21
25.3819618399
 31
0.0
  0
LINE
  5
6A5
330
1F
100
AcDbEntity
  8
TRMODEL1
  6
Continuous
 62
     2
100
AcDbLine
 10
15.4528327175
 20
25.3819618399
 30
0.0
 11
15.4410532253
 21
25.4136130182
 31
0.0
  0
LINE
  5
6A6
330
1F
100
AcDbEntity
  8
TRMODEL1
  6
Continuous
 62
     2
100
AcDbLine
 10
15.4410532253
 20
25.4136130182
 30
0.0
 11
15.4465721256
 21
25.4458609293
 31
0.0
  0
LINE
  5
6A7
330
1F
100
AcDbEntity
  8
TRMODEL1
  6
Continuous
 62
     2
100
AcDbLine
 10
15.4465721256
 20
25.4458609293
 30
0.0
 11
15.4467128426
 21
25.446048217
 31
0.0
  0
LINE
  5
6A8
330
1F
100
AcDbEntity
  8
TRMODEL1
  6
Continuous
 62
     2
100
AcDbLine
 10
15.7376766553
 20
25.1185159943
 30
0.0
 11
15.7457727541
 21
25.1045772039
 31
0.0
  0
LINE
  5
6A9
330
1F
100
AcDbEntity
  8
TRMODEL1
  6
Continuous
 62
     2
100
AcDbLine
 10
15.7457727541
 20
25.1045772039
 30
0.0
 11
15.7435429437
 21
25.077561884
 31
0.0
  0
LINE
  5
6AA
330
1F
100
AcDbEntity
  8
TRMODEL1
  6
Continuous
 62
     2
100
AcDbLine
 10
15.7435429437
 20
25.077561884
 30
0.0
 11
15.7243702593
 21
25.052642321
 31
0.0
  0
LINE
  5
6AB
330
1F
100
AcDbEntity
  8
TRMODEL1
  6
Continuous
 62
     2
100
AcDbLine
 10
15.7243702593
 20
25.052642321
 30
0.0
 11
15.6904273181
 21
25.0329772606
 31
0.0
  0
LINE
  5
6AC
330
1F
100
AcDbEntity
  8
TRMODEL1
  6
Continuous
 62
     2
100
AcDbLine
 10
15.6904273181
 20
25.0329772606
 30
0.0
 11
15.6455508393
 21
25.0210494999
 31
0.0
  0
LINE
  5
6AD
330
1F
100
AcDbEntity
  8
TRMODEL1
  6
Continuous
 62
     2
100
AcDbLine
 10
15.6455508393
 20
25.0210494999
 30
0.0
 11
15.5948291763
 21
25.0185665799
 31
0.0
  0
LINE
  5
6AE
330
1F
100
AcDbEntity
  8
TRMODEL1
  6
Continuous
 62
     2
100
AcDbLine
 10
15.5948291763
 20
25.0185665799
 30
0.0
 11
15.5439943302
 21
25.026067354
 31
0.0
  0
LINE
  5
6AF
330
1F
100
AcDbEntity
  8
TRMODEL1
  6
Continuous
 62
     2
100
AcDbLine
 10
15.5439943302
 20
25.026067354
 30
0.0
 11
15.4988090287
 21
25.0430423806
 31
0.0
  0
LINE
  5
6B0
330
1F
100
AcDbEntity
  8
TRMODEL1
  6
Continuous
 62
     2
100
AcDbLine
 10
15.4988090287
 20
25.0430423806
 30
0.0
 11
15.4643827798
 21
25.0678543754
 31
0.0
  0
LINE
  5
6B1
330
1F
100
AcDbEntity
  8
TRMODEL1
  6
Continuous
 62
     2
100
AcDbLine
 10
15.4643827798
 20
25.0678543754
 30
0.0
 11
15.4446149136
 21
25.0980033417
 31
0.0
  0
LINE
  5
6B2
330
1F
100
AcDbEntity
  8
TRMODEL1
  6
Continuous
 62
     2
100
AcDbLine
 10
15.4446149136
 20
25.0980033417
 30
0.0
 11
15.4417423465
 21
25.1303938456
 31
0.0
  0
LINE
  5
6B3
330
1F
100
AcDbEntity
  8
TRMODEL1
  6
Continuous
 62
     2
100
AcDbLine
 10
15.4417423465
 20
25.1303938456
 30
0.0
 11
15.446744827
 21
25.1412854302
 31
0.0
  0
LINE
  5
6B4
330
1F
100
AcDbEntity
  8
TRMODEL1
  6
Continuous
 62
     2
100
AcDbLine
 10
15.4421553488
 20
25.1676926501
 30
0.0
 11
15.4463123576
 21
25.141870025
 31
0.0
  0
LINE
  5
6B5
330
1F
100
AcDbEntity
  8
TRMODEL1
  6
Continuous
 62
     2
100
AcDbLine
 10
15.4463123576
 20
25.141870025
 30
0.0
 11
15.4682132256
 21
25.1122653147
 31
0.0
  0
LINE
  5
6B6
330
1F
100
AcDbEntity
  8
TRMODEL1
  6
Continuous
 62
     2
100
AcDbLine
 10
15.4682132256
 20
25.1122653147
 30
0.0
 11
15.5043376764
 21
25.0883752537
 31
0.0
  0
LINE
  5
6B7
330
1F
100
AcDbEntity
  8
TRMODEL1
  6
Continuous
 62
     2
100
AcDbLine
 10
15.5043376764
 20
25.0883752537
 30
0.0
 11
15.5505966487
 21
25.0725943031
 31
0.0
  0
LINE
  5
6B8
330
1F
100
AcDbEntity
  8
TRMODEL1
  6
Continuous
 62
     2
100
AcDbLine
 10
15.5505966487
 20
25.0725943031
 30
0.0
 11
15.6017563592
 21
25.0664278811
 31
0.0
  0
LINE
  5
6B9
330
1F
100
AcDbEntity
  8
TRMODEL1
  6
Continuous
 62
     2
100
AcDbLine
 10
15.6017563592
 20
25.0664278811
 30
0.0
 11
15.6520196783
 21
25.0702292001
 31
0.0
  0
LINE
  5
6BA
330
1F
100
AcDbEntity
  8
TRMODEL1
  6
Continuous
 62
     2
100
AcDbLine
 10
15.6520196783
 20
25.0702292001
 30
0.0
 11
15.69570565
 21
25.0833142363
 31
0.0
  0
LINE
  5
6BB
330
1F
100
AcDbEntity
  8
TRMODEL1
  6
Continuous
 62
     2
100
AcDbLine
 10
15.69570565
 20
25.0833142363
 30
0.0
 11
15.7278602727
 21
25.1038443497
 31
0.0
  0
LINE
  5
6BC
330
1F
100
AcDbEntity
  8
TRMODEL1
  6
Continuous
 62
     2
100
AcDbLine
 10
15.7278602727
 20
25.1038443497
 30
0.0
 11
15.7448498572
 21
25.1292371196
 31
0.0
  0
LINE
  5
6BD
330
1F
100
AcDbEntity
  8
TRMODEL1
  6
Continuous
 62
     2
100
AcDbLine
 10
15.7448498572
 20
25.1292371196
 30
0.0
 11
15.7447996979
 21
25.1425996729
 31
0.0
  0
LINE
  5
6BE
330
1F
100
AcDbEntity
  8
TRMODEL1
  6
Continuous
 62
     2
100
AcDbLine
 10
15.737753832
 20
25.218625524
 30
0.0
 11
15.7443955235
 21
25.2092280415
 31
0.0
  0
LINE
  5
6BF
330
1F
100
AcDbEntity
  8
TRMODEL1
  6
Continuous
 62
     2
100
AcDbLine
 10
15.7443955235
 20
25.2092280415
 30
0.0
 11
15.7451687014
 21
25.1821719304
 31
0.0
  0
LINE
  5
6C0
330
1F
100
AcDbEntity
  8
TRMODEL1
  6
Continuous
 62
     2
100
AcDbLine
 10
15.7451687014
 20
25.1821719304
 30
0.0
 11
15.7288161301
 21
25.1566743996
 31
0.0
  0
LINE
  5
6C1
330
1F
100
AcDbEntity
  8
TRMODEL1
  6
Continuous
 62
     2
100
AcDbLine
 10
15.7288161301
 20
25.1566743996
 30
0.0
 11
15.6971863126
 21
25.1358834135
 31
0.0
  0
LINE
  5
6C2
330
1F
100
AcDbEntity
  8
TRMODEL1
  6
Continuous
 62
     2
100
AcDbLine
 10
15.6971863126
 20
25.1358834135
 30
0.0
 11
15.6538635654
 21
25.122489011
 31
0.0
  0
LINE
  5
6C3
330
1F
100
AcDbEntity
  8
TRMODEL1
  6
Continuous
 62
     2
100
AcDbLine
 10
15.6538635654
 20
25.122489011
 30
0.0
 11
15.6037486905
 21
25.1182962476
 31
0.0
  0
LINE
  5
6C4
330
1F
100
AcDbEntity
  8
TRMODEL1
  6
Continuous
 62
     2
100
AcDbLine
 10
15.6037486905
 20
25.1182962476
 30
0.0
 11
15.5525156299
 21
25.1240845627
 31
0.0
  0
LINE
  5
6C5
330
1F
100
AcDbEntity
  8
TRMODEL1
  6
Continuous
 62
     2
100
AcDbLine
 10
15.5525156299
 20
25.1240845627
 30
0.0
 11
15.5059652528
 21
25.1395168191
 31
0.0
  0
LINE
  5
6C6
330
1F
100
AcDbEntity
  8
TRMODEL1
  6
Continuous
 62
     2
100
AcDbLine
 10
15.5059652528
 20
25.1395168191
 30
0.0
 11
15.4693637566
 21
25.1631246226
 31
0.0
  0
LINE
  5
6C7
330
1F
100
AcDbEntity
  8
TRMODEL1
  6
Continuous
 62
     2
100
AcDbLine
 10
15.4693637566
 20
25.1631246226
 30
0.0
 11
15.4468581533
 21
25.1925763097
 31
0.0
  0
LINE
  5
6C8
330
1F
100
AcDbEntity
  8
TRMODEL1
  6
Continuous
 62
     2
100
AcDbLine
 10
15.4468581533
 20
25.1925763097
 30
0.0
 11
15.4409928624
 21
25.2248007534
 31
0.0
  0
LINE
  5
6C9
330
1F
100
AcDbEntity
  8
TRMODEL1
  6
Continuous
 62
     2
100
AcDbLine
 10
15.4409928624
 20
25.2248007534
 30
0.0
 11
15.4474010717
 21
25.242554198
 31
0.0
  0
LINE
  5
6CA
330
1F
100
AcDbEntity
  8
TRMODEL1
  6
Continuous
 62
     2
100
AcDbLine
 10
15.4428271812
 20
25.2175668667
 30
0.0
 11
15.4420582327
 21
25.2051046726
 31
0.0
  0
LINE
  5
6CB
330
1F
100
AcDbEntity
  8
TRMODEL1
  6
Continuous
 62
     2
100
AcDbLine
 10
15.4420582327
 20
25.2051046726
 30
0.0
 11
15.4572435557
 21
25.1739882561
 31
0.0
  0
LINE
  5
6CC
330
1F
100
AcDbEntity
  8
TRMODEL1
  6
Continuous
 62
     2
100
AcDbLine
 10
15.4572435557
 20
25.1739882561
 30
0.0
 11
15.4878965761
 21
25.1474038674
 31
0.0
  0
LINE
  5
6CD
330
1F
100
AcDbEntity
  8
TRMODEL1
  6
Continuous
 62
     2
100
AcDbLine
 10
15.4878965761
 20
25.1474038674
 30
0.0
 11
15.5305437057
 21
25.1280310613
 31
0.0
  0
LINE
  5
6CE
330
1F
100
AcDbEntity
  8
TRMODEL1
  6
Continuous
 62
     2
100
AcDbLine
 10
15.5305437057
 20
25.1280310613
 30
0.0
 11
15.5803605828
 21
25.1177703827
 31
0.0
  0
LINE
  5
6CF
330
1F
100
AcDbEntity
  8
TRMODEL1
  6
Continuous
 62
     2
100
AcDbLine
 10
15.5803605828
 20
25.1177703827
 30
0.0
 11
15.6317070359
 21
25.1174798355
 31
0.0
  0
LINE
  5
6D0
330
1F
100
AcDbEntity
  8
TRMODEL1
  6
Continuous
 62
     2
100
AcDbLine
 10
15.6317070359
 20
25.1174798355
 30
0.0
 11
15.678769285
 21
25.126873381
 31
0.0
  0
LINE
  5
6D1
330
1F
100
AcDbEntity
  8
TRMODEL1
  6
Continuous
 62
     2
100
AcDbLine
 10
15.678769285
 20
25.126873381
 30
0.0
 11
15.7162232031
 21
25.1446106596
 31
0.0
  0
LINE
  5
6D2
330
1F
100
AcDbEntity
  8
TRMODEL1
  6
Continuous
 62
     2
100
AcDbLine
 10
15.7162232031
 20
25.1446106596
 30
0.0
 11
15.7398252995
 21
25.1683393048
 31
0.0
  0
LINE
  5
6D3
330
1F
100
AcDbEntity
  8
TRMODEL1
  6
Continuous
 62
     2
100
AcDbLine
 10
15.7398252995
 20
25.1683393048
 30
0.0
 11
15.7462595667
 21
25.1926696894
 31
0.0
  0
LINE
  5
6D4
330
1F
100
AcDbEntity
  8
TRMODEL1
  6
Continuous
 62
     2
100
AcDbLine
 10
15.441000815
 20
25.2676375782
 30
0.0
 11
15.4489443635
 21
25.2365058505
 31
0.0
  0
LINE
  5
6D5
330
1F
100
AcDbEntity
  8
TRMODEL1
  6
Continuous
 62
     2
100
AcDbLine
 10
15.4489443635
 20
25.2365058505
 30
0.0
 11
15.4735235698
 21
25.2076703397
 31
0.0
  0
LINE
  5
6D6
330
1F
100
AcDbEntity
  8
TRMODEL1
  6
Continuous
 62
     2
100
AcDbLine
 10
15.4735235698
 20
25.2076703397
 30
0.0
 11
15.5117286469
 21
25.185039958
 31
0.0
  0
LINE
  5
6D7
330
1F
100
AcDbEntity
  8
TRMODEL1
  6
Continuous
 62
     2
100
AcDbLine
 10
15.5117286469
 20
25.185039958
 30
0.0
 11
15.5592288715
 21
25.1708363658
 31
0.0
  0
LINE
  5
6D8
330
1F
100
AcDbEntity
  8
TRMODEL1
  6
Continuous
 62
     2
100
AcDbLine
 10
15.5592288715
 20
25.1708363658
 30
0.0
 11
15.6106532155
 21
25.1663893955
 31
0.0
  0
LINE
  5
6D9
330
1F
100
AcDbEntity
  8
TRMODEL1
  6
Continuous
 62
     2
100
AcDbLine
 10
15.6106532155
 20
25.1663893955
 30
0.0
 11
15.6601763967
 21
25.1718856801
 31
0.0
  0
LINE
  5
6DA
330
1F
100
AcDbEntity
  8
TRMODEL1
  6
Continuous
 62
     2
100
AcDbLine
 10
15.6601763967
 20
25.1718856801
 30
0.0
 11
15.702193885
 21
25.1863922141
 31
0.0
  0
LINE
  5
6DB
330
1F
100
AcDbEntity
  8
TRMODEL1
  6
Continuous
 62
     2
100
AcDbLine
 10
15.702193885
 20
25.1863922141
 30
0.0
 11
15.7319511506
 21
25.2079877189
 31
0.0
  0
LINE
  5
6DC
330
1F
100
AcDbEntity
  8
TRMODEL1
  6
Continuous
 62
     2
100
AcDbLine
 10
15.7319511506
 20
25.2079877189
 30
0.0
 11
15.7460766546
 21
25.2338833952
 31
0.0
  0
LINE
  5
6DD
330
1F
100
AcDbEntity
  8
TRMODEL1
  6
Continuous
 62
     2
100
AcDbLine
 10
15.7460766546
 20
25.2338833952
 30
0.0
 11
15.7450806068
 21
25.2425511496
 31
0.0
  0
LINE
  5
6DE
330
1F
100
AcDbEntity
  8
TRMODEL1
  6
Continuous
 62
     2
100
AcDbLine
 10
15.7384449035
 20
25.2683689649
 30
0.0
 11
15.746832046
 21
25.2480652577
 31
0.0
  0
LINE
  5
6DF
330
1F
100
AcDbEntity
  8
TRMODEL1
  6
Continuous
 62
     2
100
AcDbLine
 10
15.746832046
 20
25.2480652577
 30
0.0
 11
15.7404166686
 21
25.2212572872
 31
0.0
  0
LINE
  5
6E0
330
1F
100
AcDbEntity
  8
TRMODEL1
  6
Continuous
 62
     2
100
AcDbLine
 10
15.7404166686
 20
25.2212572872
 30
0.0
 11
15.7174122324
 21
25.1973362551
 31
0.0
  0
LINE
  5
6E1
330
1F
100
AcDbEntity
  8
TRMODEL1
  6
Continuous
 62
     2
100
AcDbLine
 10
15.7174122324
 20
25.1973362551
 30
0.0
 11
15.6804239089
 21
25.1793279868
 31
0.0
  0
LINE
  5
6E2
330
1F
100
AcDbEntity
  8
TRMODEL1
  6
Continuous
 62
     2
100
AcDbLine
 10
15.6804239089
 20
25.1793279868
 30
0.0
 11
15.6336387179
 21
25.1695811995
 31
0.0
  0
LINE
  5
6E3
330
1F
100
AcDbEntity
  8
TRMODEL1
  6
Continuous
 62
     2
100
AcDbLine
 10
15.6336387179
 20
25.1695811995
 30
0.0
 11
15.5823495981
 21
25.1694776968
 31
0.0
  0
LINE
  5
6E4
330
1F
100
AcDbEntity
  8
TRMODEL1
  6
Continuous
 62
     2
100
AcDbLine
 10
15.5823495981
 20
25.1694776968
 30
0.0
 11
15.5323687642
 21
25.1793752834
 31
0.0
  0
LINE
  5
6E5
330
1F
100
AcDbEntity
  8
TRMODEL1
  6
Continuous
 62
     2
100
AcDbLine
 10
15.5323687642
 20
25.1793752834
 30
0.0
 11
15.4893450544
 21
25.1984103796
 31
0.0
  0
LINE
  5
6E6
330
1F
100
AcDbEntity
  8
TRMODEL1
  6
Continuous
 62
     2
100
AcDbLine
 10
15.4893450544
 20
25.1984103796
 30
0.0
 11
15.4581573401
 21
25.2247785208
 31
0.0
  0
LINE
  5
6E7
330
1F
100
AcDbEntity
  8
TRMODEL1
  6
Continuous
 62
     2
100
AcDbLine
 10
15.4581573401
 20
25.2247785208
 30
0.0
 11
15.4423301359
 21
25.2557623533
 31
0.0
  0
LINE
  5
6E8
330
1F
100
AcDbEntity
  8
TRMODEL1
  6
Continuous
 62
     2
100
AcDbLine
 10
15.4423301359
 20
25.2557623533
 30
0.0
 11
15.4436576657
 21
25.2881848943
 31
0.0
  0
LINE
  5
6E9
330
1F
100
AcDbEntity
  8
TRMODEL1
  6
Continuous
 62
     2
100
AcDbLine
 10
15.4436576657
 20
25.2881848943
 30
0.0
 11
15.4469544238
 21
25.2936671356
 31
0.0
  0
LINE
  5
6EA
330
1F
100
AcDbEntity
  8
TRMODEL1
  6
Continuous
 62
     2
100
AcDbLine
 10
15.7395978802
 20
25.1681106661
 30
0.0
 11
15.7469659907
 21
25.1433737305
 31
0.0
  0
LINE
  5
6EB
330
1F
100
AcDbEntity
  8
TRMODEL1
  6
Continuous
 62
     2
100
AcDbLine
 10
15.7469659907
 20
25.1433737305
 30
0.0
 11
15.7375823667
 21
25.1168091116
 31
0.0
  0
LINE
  5
6EC
330
1F
100
AcDbEntity
  8
TRMODEL1
  6
Continuous
 62
     2
100
AcDbLine
 10
15.7375823667
 20
25.1168091116
 30
0.0
 11
15.7119326264
 21
25.0937233962
 31
0.0
  0
LINE
  5
6ED
330
1F
100
AcDbEntity
  8
TRMODEL1
  6
Continuous
 62
     2
100
AcDbLine
 10
15.7119326264
 20
25.0937233962
 30
0.0
 11
15.6729159191
 21
25.0769849926
 31
0.0
  0
LINE
  5
6EE
330
1F
100
AcDbEntity
  8
TRMODEL1
  6
Continuous
 62
     2
100
AcDbLine
 10
15.6729159191
 20
25.0769849926
 30
0.0
 11
15.6249547802
 21
25.0688342009
 31
0.0
  0
LINE
  5
6EF
330
1F
100
AcDbEntity
  8
TRMODEL1
  6
Continuous
 62
     2
100
AcDbLine
 10
15.6249547802
 20
25.0688342009
 30
0.0
 11
15.5734724924
 21
25.0704691591
 31
0.0
  0
LINE
  5
6F0
330
1F
100
AcDbEntity
  8
TRMODEL1
  6
Continuous
 62
     2
100
AcDbLine
 10
15.5734724924
 20
25.0704691591
 30
0.0
 11
15.5243007418
 21
25.0820214253
 31
0.0
  0
LINE
  5
6F1
330
1F
100
AcDbEntity
  8
TRMODEL1
  6
Continuous
 62
     2
100
AcDbLine
 10
15.5243007418
 20
25.0820214253
 30
0.0
 11
15.4830044942
 21
25.102494484
 31
0.0
  0
LINE
  5
6F2
330
1F
100
AcDbEntity
  8
TRMODEL1
  6
Continuous
 62
     2
100
AcDbLine
 10
15.4830044942
 20
25.102494484
 30
0.0
 11
15.4542565213
 21
25.1298528626
 31
0.0
  0
LINE
  5
6F3
330
1F
100
AcDbEntity
  8
TRMODEL1
  6
Continuous
 62
     2
100
AcDbLine
 10
15.4542565213
 20
25.1298528626
 30
0.0
 11
15.4413140615
 21
25.1613369259
 31
0.0
  0
LINE
  5
6F4
330
1F
100
AcDbEntity
  8
TRMODEL1
  6
Continuous
 62
     2
100
AcDbLine
 10
15.4413140615
 20
25.1613369259
 30
0.0
 11
15.4456404565
 21
25.1936512404
 31
0.0
  0
LINE
  5
6F5
330
1F
100
AcDbEntity
  8
TRMODEL1
  6
Continuous
 62
     2
100
AcDbLine
 10
15.4456404565
 20
25.1936512404
 30
0.0
 11
15.4468283705
 21
25.1953301294
 31
0.0
  0
LINE
  5
6F6
330
1F
100
AcDbEntity
  8
TRMODEL1
  6
Continuous
 62
     4
100
AcDbLine
 10
15.3381029526
 20
26.4289187291
 30
0.0
 11
15.3618270233
 21
26.3976727762
 31
0.0
  0
LINE
  5
6F7
330
1F
100
AcDbEntity
  8
TRMODEL1
  6
Continuous
 62
     4
100
AcDbLine
 10
15.3618270233
 20
26.3976727762
 30
0.0
 11
15.4044079934
 21
26.3656375798
 31
0.0
  0
LINE
  5
6F8
330
1F
100
AcDbEntity
  8
TRMODEL1
  6
Continuous
 62
     4
100
AcDbLine
 10
15.4044079934
 20
26.3656375798
 30
0.0
 11
15.459900594
 21
26.341056109
 31
0.0
  0
LINE
  5
6F9
330
1F
100
AcDbEntity
  8
TRMODEL1
  6
Continuous
 62
     4
100
AcDbLine
 10
15.459900594
 20
26.341056109
 30
0.0
 11
15.5245230961
 21
26.3256035504
 31
0.0
  0
LINE
  5
6FA
330
1F
100
AcDbEntity
  8
TRMODEL1
  6
Continuous
 62
     4
100
AcDbLine
 10
15.5245230961
 20
26.3256035504
 30
0.0
 11
15.593871583
 21
26.3203329705
 31
0.0
  0
LINE
  5
6FB
330
1F
100
AcDbEntity
  8
TRMODEL1
  6
Continuous
 62
     4
100
AcDbLine
 10
15.593871583
 20
26.3203329705
 30
0.0
 11
15.6632200699
 21
26.3256035504
 31
0.0
  0
LINE
  5
6FC
330
1F
100
AcDbEntity
  8
TRMODEL1
  6
Continuous
 62
     4
100
AcDbLine
 10
15.6632200699
 20
26.3256035504
 30
0.0
 11
15.7278425721
 21
26.341056109
 31
0.0
  0
LINE
  5
6FD
330
1F
100
AcDbEntity
  8
TRMODEL1
  6
Continuous
 62
     4
100
AcDbLine
 10
15.7278425721
 20
26.341056109
 30
0.0
 11
15.7833351727
 21
26.3656375798
 31
0.0
  0
LINE
  5
6FE
330
1F
100
AcDbEntity
  8
TRMODEL1
  6
Continuous
 62
     4
100
AcDbLine
 10
15.7833351727
 20
26.3656375798
 30
0.0
 11
15.7912619553
 21
26.3704136168
 31
0.0
  0
LINE
  5
6FF
330
1F
100
AcDbEntity
  8
TRMODEL1
  6
Continuous
 62
     4
100
AcDbLine
 10
15.4076646733
 20
26.7455340403
 30
0.0
 11
15.3658156253
 21
26.7140494952
 31
0.0
  0
LINE
  5
700
330
1F
100
AcDbEntity
  8
TRMODEL1
  6
Continuous
 62
     4
100
AcDbLine
 10
15.3658156253
 20
26.7140494952
 30
0.0
 11
15.339508214
 21
26.6773849659
 31
0.0
  0
LINE
  5
701
330
1F
100
AcDbEntity
  8
TRMODEL1
  6
Continuous
 62
     4
100
AcDbLine
 10
15.339508214
 20
26.6773849659
 30
0.0
 11
15.3305352459
 21
26.6380390794
 31
0.0
  0
LINE
  5
702
330
1F
100
AcDbEntity
  8
TRMODEL1
  6
Continuous
 62
     4
100
AcDbLine
 10
15.3305352459
 20
26.6380390794
 30
0.0
 11
15.339508214
 21
26.598693193
 31
0.0
  0
LINE
  5
703
330
1F
100
AcDbEntity
  8
TRMODEL1
  6
Continuous
 62
     4
100
AcDbLine
 10
15.339508214
 20
26.598693193
 30
0.0
 11
15.3658156253
 21
26.5620286637
 31
0.0
  0
LINE
  5
704
330
1F
100
AcDbEntity
  8
TRMODEL1
  6
Continuous
 62
     4
100
AcDbLine
 10
15.3658156253
 20
26.5620286637
 30
0.0
 11
15.4076646733
 21
26.5305441186
 31
0.0
  0
LINE
  5
705
330
1F
100
AcDbEntity
  8
TRMODEL1
  6
Continuous
 62
     4
100
AcDbLine
 10
15.4076646733
 20
26.5305441186
 30
0.0
 11
15.4622034145
 21
26.5063851774
 31
0.0
  0
LINE
  5
706
330
1F
100
AcDbEntity
  8
TRMODEL1
  6
Continuous
 62
     4
100
AcDbLine
 10
15.4622034145
 20
26.5063851774
 30
0.0
 11
15.5257151237
 21
26.4911982321
 31
0.0
  0
LINE
  5
707
330
1F
100
AcDbEntity
  8
TRMODEL1
  6
Continuous
 62
     4
100
AcDbLine
 10
15.5257151237
 20
26.4911982321
 30
0.0
 11
15.593871583
 21
26.4860182479
 31
0.0
  0
LINE
  5
708
330
1F
100
AcDbEntity
  8
TRMODEL1
  6
Continuous
 62
     4
100
AcDbLine
 10
15.593871583
 20
26.4860182479
 30
0.0
 11
15.6620280423
 21
26.4911982321
 31
0.0
  0
LINE
  5
709
330
1F
100
AcDbEntity
  8
TRMODEL1
  6
Continuous
 62
     4
100
AcDbLine
 10
15.6620280423
 20
26.4911982321
 30
0.0
 11
15.7255397516
 21
26.5063851774
 31
0.0
  0
LINE
  5
70A
330
1F
100
AcDbEntity
  8
TRMODEL1
  6
Continuous
 62
     4
100
AcDbLine
 10
15.7255397516
 20
26.5063851774
 30
0.0
 11
15.7800784927
 21
26.5305441186
 31
0.0
  0
LINE
  5
70B
330
1F
100
AcDbEntity
  8
TRMODEL1
  6
Continuous
 62
     4
100
AcDbLine
 10
15.7800784927
 20
26.5305441186
 30
0.0
 11
15.8219275407
 21
26.5620286637
 31
0.0
  0
LINE
  5
70C
330
1F
100
AcDbEntity
  8
TRMODEL1
  6
Continuous
 62
     4
100
AcDbLine
 10
15.8219275407
 20
26.5620286637
 30
0.0
 11
15.8482349521
 21
26.598693193
 31
0.0
  0
LINE
  5
70D
330
1F
100
AcDbEntity
  8
TRMODEL1
  6
Continuous
 62
     4
100
AcDbLine
 10
15.8482349521
 20
26.598693193
 30
0.0
 11
15.8572079202
 21
26.6380390794
 31
0.0
  0
LINE
  5
70E
330
1F
100
AcDbEntity
  8
TRMODEL1
  6
Continuous
 62
     4
100
AcDbLine
 10
15.8572079202
 20
26.6380390794
 30
0.0
 11
15.8482349521
 21
26.6773849659
 31
0.0
  0
LINE
  5
70F
330
1F
100
AcDbEntity
  8
TRMODEL1
  6
Continuous
 62
     4
100
AcDbLine
 10
15.8482349521
 20
26.6773849659
 30
0.0
 11
15.8219275407
 21
26.7140494952
 31
0.0
  0
LINE
  5
710
330
1F
100
AcDbEntity
  8
TRMODEL1
  6
Continuous
 62
     4
100
AcDbLine
 10
15.8219275407
 20
26.7140494952
 30
0.0
 11
15.7800784927
 21
26.7455340403
 31
0.0
  0
LINE
  5
711
330
1F
100
AcDbEntity
  8
TRMODEL1
  6
Continuous
 62
     4
100
AcDbLine
 10
15.7800784927
 20
26.7455340403
 30
0.0
 11
15.7255397516
 21
26.7696929815
 31
0.0
  0
LINE
  5
712
330
1F
100
AcDbEntity
  8
TRMODEL1
  6
Continuous
 62
     4
100
AcDbLine
 10
15.7255397516
 20
26.7696929815
 30
0.0
 11
15.6620280423
 21
26.7848799268
 31
0.0
  0
LINE
  5
713
330
1F
100
AcDbEntity
  8
TRMODEL1
  6
Continuous
 62
     4
100
AcDbLine
 10
15.6620280423
 20
26.7848799268
 30
0.0
 11
15.593871583
 21
26.790059911
 31
0.0
  0
LINE
  5
714
330
1F
100
AcDbEntity
  8
TRMODEL1
  6
Continuous
 62
     4
100
AcDbLine
 10
15.593871583
 20
26.790059911
 30
0.0
 11
15.5257151237
 21
26.7848799268
 31
0.0
  0
LINE
  5
715
330
1F
100
AcDbEntity
  8
TRMODEL1
  6
Continuous
 62
     4
100
AcDbLine
 10
15.5257151237
 20
26.7848799268
 30
0.0
 11
15.4622034145
 21
26.7696929815
 31
0.0
  0
LINE
  5
716
330
1F
100
AcDbEntity
  8
TRMODEL1
  6
Continuous
 62
     4
100
AcDbLine
 10
15.4622034145
 20
26.7696929815
 30
0.0
 11
15.4076646733
 21
26.7455340403
 31
0.0
  0
LINE
  5
717
330
1F
100
AcDbEntity
  8
TRMODEL1
  6
Continuous
 62
     4
100
AcDbLine
 10
15.6739483182
 20
26.7930253655
 30
0.0
 11
15.7016269229
 21
26.7837466614
 31
0.0
  0
LINE
  5
718
330
1F
100
AcDbEntity
  8
TRMODEL1
  6
Continuous
 62
     4
100
AcDbLine
 10
15.7016269229
 20
26.7837466614
 30
0.0
 11
15.7742680686
 21
26.7507780079
 31
0.0
  0
LINE
  5
719
330
1F
100
AcDbEntity
  8
TRMODEL1
  6
Continuous
 62
     4
100
AcDbLine
 10
15.7742680686
 20
26.7507780079
 30
0.0
 11
15.8492844372
 21
26.7015848204
 31
0.0
  0
LINE
  5
71A
330
1F
100
AcDbEntity
  8
TRMODEL1
  6
Continuous
 62
     4
100
AcDbLine
 10
15.8492844372
 20
26.7015848204
 30
0.0
 11
15.8927220272
 21
26.6667299916
 31
0.0
  0
LINE
  5
71B
330
1F
100
AcDbEntity
  8
TRMODEL1
  6
Continuous
 62
     4
100
AcDbLine
 10
15.812645292
 20
26.4942073025
 30
0.0
 11
15.7054746751
 21
26.4920617603
 31
0.0
  0
LINE
  5
71C
330
1F
100
AcDbEntity
  8
TRMODEL1
  6
Continuous
 62
     4
100
AcDbLine
 10
15.7054746751
 20
26.4920617603
 30
0.0
 11
15.5936986397
 21
26.4725059807
 31
0.0
  0
LINE
  5
71D
330
1F
100
AcDbEntity
  8
TRMODEL1
  6
Continuous
 62
     4
100
AcDbLine
 10
15.5936986397
 20
26.4725059807
 30
0.0
 11
15.5137948479
 21
26.4479799872
 31
0.0
  0
LINE
  5
71E
330
1F
100
AcDbEntity
  8
TRMODEL1
  6
Continuous
 62
     4
100
AcDbLine
 10
15.6632200699
 20
26.3506076145
 30
0.0
 11
15.812645292
 21
26.3737212721
 31
0.0
  0
LINE
  5
71F
330
1F
100
AcDbEntity
  8
TRMODEL1
  6
Continuous
 62
     4
100
AcDbLine
 10
15.5137948479
 20
26.4479799872
 30
0.0
 11
15.4703572579
 21
26.482834816
 31
0.0
  0
LINE
  5
720
330
1F
100
AcDbEntity
  8
TRMODEL1
  6
Continuous
 62
     4
100
AcDbLine
 10
15.4703572579
 20
26.482834816
 30
0.0
 11
15.3975209356
 21
26.5308188704
 31
0.0
  0
LINE
  5
721
330
1F
100
AcDbEntity
  8
TRMODEL1
  6
Continuous
 62
     4
100
AcDbLine
 10
15.3975209356
 20
26.5308188704
 30
0.0
 11
15.3226997436
 21
26.5649966571
 31
0.0
  0
LINE
  5
722
330
1F
100
AcDbEntity
  8
TRMODEL1
  6
Continuous
 62
     4
100
AcDbLine
 10
15.3226997436
 20
26.5649966571
 30
0.0
 11
15.2950211389
 21
26.5742753611
 31
0.0
  0
LINE
  5
723
330
1F
100
AcDbEntity
  8
TRMODEL1
  6
Continuous
 62
     4
100
AcDbLine
 10
15.2950211389
 20
26.4537893308
 30
0.0
 11
15.2950211389
 21
26.5742753611
 31
0.0
  0
LINE
  5
724
330
1F
100
AcDbEntity
  8
TRMODEL1
  6
Continuous
 62
     4
100
AcDbLine
 10
15.4044079934
 20
26.3906416438
 30
0.0
 11
15.5137948479
 21
26.3274939568
 31
0.0
  0
LINE
  5
725
330
1F
100
AcDbEntity
  8
TRMODEL1
  6
Continuous
 62
     4
100
AcDbLine
 10
15.2950211389
 20
26.4537893308
 30
0.0
 11
15.4044079934
 21
26.3906416438
 31
0.0
  0
LINE
  5
726
330
1F
100
AcDbEntity
  8
TRMODEL1
  6
Continuous
 62
     4
100
AcDbLine
 10
15.5137948479
 20
26.3274939568
 30
0.0
 11
15.5137948479
 21
26.4479799872
 31
0.0
  0
LINE
  5
727
330
1F
100
AcDbEntity
  8
TRMODEL1
  6
Continuous
 62
     4
100
AcDbLine
 10
15.5137948479
 20
26.3274939568
 30
0.0
 11
15.6632200699
 21
26.3506076145
 31
0.0
  0
LINE
  5
728
330
1F
100
AcDbEntity
  8
TRMODEL1
  6
Continuous
 62
     4
100
AcDbLine
 10
15.3750978741
 20
26.7467980503
 30
0.0
 11
15.482268491
 21
26.7778076196
 31
0.0
  0
LINE
  5
729
330
1F
100
AcDbEntity
  8
TRMODEL1
  6
Continuous
 62
     4
100
AcDbLine
 10
15.482268491
 20
26.7778076196
 30
0.0
 11
15.5940445264
 21
26.7928317184
 31
0.0
  0
LINE
  5
72A
330
1F
100
AcDbEntity
  8
TRMODEL1
  6
Continuous
 62
     4
100
AcDbLine
 10
15.5940445264
 20
26.7928317184
 30
0.0
 11
15.6739483182
 21
26.7930253655
 31
0.0
  0
LINE
  5
72B
330
1F
100
AcDbEntity
  8
TRMODEL1
  6
Continuous
 62
     4
100
AcDbLine
 10
15.2950211389
 20
26.5742753611
 30
0.0
 11
15.3237374192
 21
26.650575655
 31
0.0
  0
LINE
  5
72C
330
1F
100
AcDbEntity
  8
TRMODEL1
  6
Continuous
 62
     4
100
AcDbLine
 10
15.3237374192
 20
26.650575655
 30
0.0
 11
15.3536877176
 21
26.7128367463
 31
0.0
  0
LINE
  5
72D
330
1F
100
AcDbEntity
  8
TRMODEL1
  6
Continuous
 62
     4
100
AcDbLine
 10
15.3536877176
 20
26.7128367463
 30
0.0
 11
15.3750978741
 21
26.7467980503
 31
0.0
  0
LINE
  5
72E
330
1F
100
AcDbEntity
  8
TRMODEL1
  6
Continuous
 62
     4
100
AcDbLine
 10
15.8927220272
 20
26.6667299916
 30
0.0
 11
15.8640057469
 21
26.619293725
 31
0.0
  0
LINE
  5
72F
330
1F
100
AcDbEntity
  8
TRMODEL1
  6
Continuous
 62
     4
100
AcDbLine
 10
15.8640057469
 20
26.619293725
 30
0.0
 11
15.8340554485
 21
26.5525009528
 31
0.0
  0
LINE
  5
730
330
1F
100
AcDbEntity
  8
TRMODEL1
  6
Continuous
 62
     4
100
AcDbLine
 10
15.8340554485
 20
26.5525009528
 30
0.0
 11
15.812645292
 21
26.4942073025
 31
0.0
  0
LINE
  5
731
330
1F
100
AcDbEntity
  8
TRMODEL1
  6
Continuous
 62
     4
100
AcDbLine
 10
15.8526836596
 20
26.4599826166
 30
0.0
 11
15.8927220272
 21
26.5462439612
 31
0.0
  0
LINE
  5
732
330
1F
100
AcDbEntity
  8
TRMODEL1
  6
Continuous
 62
     2
100
AcDbLine
 10
16.319872654
 20
26.4509264642
 30
0.0
 11
15.968310154
 21
26.5095202142
 31
0.0
  0
LINE
  5
733
330
1F
100
AcDbEntity
  8
TRMODEL1
  6
Continuous
 62
     2
100
AcDbLine
 10
15.968310154
 20
26.5095202142
 30
0.0
 11
16.319872654
 21
26.5681139642
 31
0.0
  0
LINE
  5
734
330
1F
100
AcDbEntity
  8
TRMODEL1
  6
Continuous
 62
     2
100
AcDbLine
 10
16.319872654
 20
26.5681139642
 30
0.0
 11
16.319872654
 21
26.4509264642
 31
0.0
  0
LINE
  5
735
330
1F
100
AcDbEntity
  8
TRMODEL1
  6
Continuous
 62
     4
100
AcDbLine
 10
15.822005974
 20
26.3938885533
 30
0.0
 11
15.8259161428
 21
26.3976727762
 31
0.0
  0
LINE
  5
736
330
1F
100
AcDbEntity
  8
TRMODEL1
  6
Continuous
 62
     4
100
AcDbLine
 10
15.8259161428
 20
26.3976727762
 30
0.0
 11
15.8526836596
 21
26.4349785526
 31
0.0
  0
LINE
  5
737
330
1F
100
AcDbEntity
  8
TRMODEL1
  6
Continuous
 62
     4
100
AcDbLine
 10
15.8526836596
 20
26.4349785526
 30
0.0
 11
15.8618135611
 21
26.4750125819
 31
0.0
  0
LINE
  5
738
330
1F
100
AcDbEntity
  8
TRMODEL1
  6
Continuous
 62
     4
100
AcDbLine
 10
15.812645292
 20
26.3737212721
 30
0.0
 11
15.8526836596
 21
26.4599826166
 31
0.0
  0
LINE
  5
739
330
1F
100
AcDbEntity
  8
TRMODEL1
  6
Continuous
 62
     4
100
AcDbLine
 10
15.812645292
 20
26.3737212721
 30
0.0
 11
15.812645292
 21
26.4942073025
 31
0.0
  0
LINE
  5
73A
330
1F
100
AcDbEntity
  8
TRMODEL1
  6
Continuous
 62
     4
100
AcDbLine
 10
15.8927220272
 20
26.5462439612
 30
0.0
 11
15.8927220272
 21
26.6667299916
 31
0.0
  0
ELLIPSE
  5
73B
330
1F
100
AcDbEntity
  8
TRMODEL1
  6
Continuous
 62
     4
100
AcDbEllipse
 10
4.6769052716
 20
15.5581037444
 30
0.0
 11
-0.1965681194657742
 21
5.329070518200751E-15
 31
0.0
210
0.0
220
0.0
230
1.0
 40
0.5593241965
 41
1.570796326794912
 42
2.333139573346254
  0
ELLIPSE
  5
73C
330
1F
100
AcDbEntity
  8
TRMODEL1
  6
Continuous
 62
     4
100
AcDbEllipse
 10
15.6005401602
 20
23.1660809016
 30
0.0
 11
0.1965681194658284
 21
4.263256414560601E-14
 31
0.0
210
0.0
220
0.0
230
1.0
 40
0.5593241965
 41
4.712388980384576
 42
5.474732226935649
  0
MTEXT
  5
73E
330
1F
100
AcDbEntity
  8
TRMODEL1
 62
     4
100
AcDbMText
 10
16.2640091865
 20
15.0603143666
 30
0.0
 40
0.5625
 41
0.0
 71
     1
 72
     1
  1
RIGIDEX I GRATING
  7
SLDTEXTSTYLE0
 73
     1
 44
1.0
  0
MTEXT
  5
73F
330
1F
100
AcDbEntity
  8
TRMODEL1
 62
     4
100
AcDbMText
 10
16.2345431019
 20
16.0080141652
 30
0.0
 40
0.5625
 41
0.0
 71
     1
 72
     1
  1
1 1/2" DEEP
  7
SLDTEXTSTYLE0
 73
     1
 44
1.0
  0
MTEXT
  5
740
330
1F
100
AcDbEntity
  8
TRMODEL1
 62
     4
100
AcDbMText
 10
14.5895037991
 20
4.5991389459
 30
0.0
 40
0.5625
 41
0.0
 71
     1
 72
     1
  1
CLIP ASSY.
  7
SLDTEXTSTYLE0
 73
     1
 44
1.0
  0
MTEXT
  5
741
330
1F
100
AcDbEntity
  8
TRMODEL1
 62
     4
100
AcDbMText
 10
14.5573933223
 20
5.5468387444
 30
0.0
 40
0.5625
 41
0.0
 71
     1
 72
     1
  1
HOLD DOWN
  7
SLDTEXTSTYLE0
 73
     1
 44
1.0
  0
MTEXT
  5
742
330
1F
100
AcDbEntity
  8
TRMODEL1
 62
     4
100
AcDbMText
 10
14.6329473854
 20
6.4960496242
 30
0.0
 40
0.5625
 41
0.0
 71
     1
 72
     1
  1
TO INSTALL THE
  7
SLDTEXTSTYLE0
 73
     1
 44
1.0
  0
MTEXT
  5
743
330
1F
100
AcDbEntity
  8
TRMODEL1
 62
     4
100
AcDbMText
 10
14.5823261631
 20
7.4452605039
 30
0.0
 40
0.5625
 41
0.0
 71
     1
 72
     1
  1
SUPPORT BEAM
  7
SLDTEXTSTYLE0
 73
     1
 44
1.0
  0
MTEXT
  5
744
330
1F
100
AcDbEntity
  8
TRMODEL1
 62
     4
100
AcDbMText
 10
14.5573933223
 20
8.3944713837
 30
0.0
 40
0.5625
 41
0.0
 71
     1
 72
     1
  1
HOLE IN THE
  7
SLDTEXTSTYLE0
 73
     1
 44
1.0
  0
MTEXT
  5
745
330
1F
100
AcDbEntity
  8
TRMODEL1
 62
     4
100
AcDbMText
 10
14.6231253572
 20
9.3436822635
 30
0.0
 40
0.5625
 41
0.0
 71
     1
 72
     1
  1
AND DRILL 5/16"
  7
SLDTEXTSTYLE0
 73
     1
 44
1.0
  0
MTEXT
  5
746
330
1F
100
AcDbEntity
  8
TRMODEL1
 62
     4
100
AcDbMText
 10
14.5573933223
 20
10.327270242
 30
0.0
 40
0.5625
 41
0.0
 71
     1
 72
     1
  1
FIELD LOCATE
  7
SLDTEXTSTYLE0
 73
     1
 44
1.0
  0
MTEXT
  5
747
330
1F
100
AcDbEntity
  8
TRMODEL1
 62
     4
100
AcDbMText
 10
21.3738808979
 20
9.3436822635
 30
0.0
 40
0.5625
 41
0.0
 71
     1
 72
     1
  1
%%c
  7
SLDTEXTSTYLE0
 73
     1
 44
1.0
  0
MTEXT
  5
748
330
1F
100
AcDbEntity
  8
TRMODEL1
 62
     4
100
AcDbMText
 10
18.4244658002
 20
22.0574019794
 30
0.0
 40
0.5625
 41
0.0
 71
     1
 72
     1
  1
1/4" FLAT WASHER
  7
SLDTEXTSTYLE0
 73
     1
 44
1.0
  0
MTEXT
  5
749
330
1F
100
AcDbEntity
  8
TRMODEL1
 62
     4
100
AcDbMText
 10
18.4244658002
 20
20.5522744932
 30
0.0
 40
0.5625
 41
0.0
 71
     1
 72
     1
  1
1/4" HEX NUT
  7
SLDTEXTSTYLE0
 73
     1
 44
1.0
  0
MTEXT
  5
74A
330
1F
100
AcDbEntity
  8
TRMODEL1
 62
     4
100
AcDbMText
 10
18.4244658002
 20
26.8209607523
 30
0.0
 40
0.5625
 41
0.0
 71
     1
 72
     1
  1
1/4"
  7
SLDTEXTSTYLE0
 73
     1
 44
1.0
  0
MTEXT
  5
74B
330
1F
100
AcDbEntity
  8
TRMODEL1
 62
     4
100
AcDbMText
 10
18.4539318848
 20
25.8717498725
 30
0.0
 40
0.5625
 41
0.0
 71
     1
 72
     1
  1
HEX HD. BOLT
  7
SLDTEXTSTYLE0
 73
     1
 44
1.0
  0
MTEXT
  5
74C
330
1F
100
AcDbEntity
  8
TRMODEL1
 62
     4
100
AcDbMText
 10
18.4539318848
 20
23.3838357573
 30
0.0
 40
0.5625
 41
0.0
 71
     1
 72
     1
  1
M-2 SADDLE CLIP
  7
SLDTEXTSTYLE0
 73
     1
 44
1.0
  0
MTEXT
  5
74D
330
1F
100
AcDbEntity
  8
TRMODEL1
 62
     4
100
AcDbMText
 10
20.7235759412
 20
26.8209607523
 30
0.0
 40
0.5625
 41
0.0
 71
     1
 72
     1
  1
x2 1/4" Lg.
  7
SLDTEXTSTYLE0
 73
     1
 44
1.0
  0
MTEXT
  5
74E
330
1F
100
AcDbEntity
  8
TRMODEL1
 62
     4
100
AcDbMText
 10
20.1146101924
 20
26.8209607523
 30
0.0
 40
0.5625
 41
0.0
 71
     1
 72
     1
  1
%%c
  7
SLDTEXTSTYLE0
 73
     1
 44
1.0
  0
ENDSEC
  0
SECTION
  2
OBJECTS
  0
DICTIONARY
  5
C
330
0
100
AcDbDictionary
281
     1
  3
ACAD_GROUP
350
D
  3
ACAD_LAYOUT
350
1A
  3
ACAD_MLINESTYLE
350
17
  3
ACAD_PLOTSETTINGS
350
19
  3
ACAD_PLOTSTYLENAME
350
E
  3
ACAD_TABLESTYLE
350
74F
  3
ACAD_VISUALSTYLE
350
2A
  0
DICTIONARY
  5
D
102
{ACAD_REACTORS
330
C
102
}
330
C
100
AcDbDictionary
281
     1
  0
DICTIONARY
  5
1A
102
{ACAD_REACTORS
330
C
102
}
330
C
100
AcDbDictionary
281
     1
  3
Layout1
350
1E
  3
Layout2
350
26
  3
Model
350
22
  0
DICTIONARY
  5
17
102
{ACAD_REACTORS
330
C
102
}
330
C
100
AcDbDictionary
281
     1
  3
Standard
350
18
  0
DICTIONARY
  5
19
102
{ACAD_REACTORS
330
C
102
}
330
C
100
AcDbDictionary
281
     1
  0
ACDBDICTIONARYWDFLT
  5
E
102
{ACAD_REACTORS
330
C
102
}
330
C
100
AcDbDictionary
281
     1
  3
Normal
350
F
100
AcDbDictionaryWithDefault
340
F
  0
DICTIONARY
  5
74F
102
{ACAD_REACTORS
330
C
102
}
330
C
100
AcDbDictionary
281
     1
  0
DICTIONARY
  5
2A
102
{ACAD_REACTORS
330
C
102
}
330
C
100
AcDbDictionary
281
     1
  3
2dWireframe
350
2F
  3
3D Hidden
350
31
  3
3dWireframe
350
30
  3
Basic
350
32
  3
Brighten
350
36
  3
ColorChange
350
3A
  3
Conceptual
350
34
  3
Dim
350
35
  3
Facepattern
350
39
  3
Flat
350
2B
  3
FlatWithEdges
350
2C
  3
Gouraud
350
2D
  3
GouraudWithEdges
350
2E
  3
Linepattern
350
38
  3
Realistic
350
33
  3
Thicken
350
37
  0
LAYOUT
  5
1E
102
{ACAD_REACTORS
330
1A
102
}
330
1A
100
AcDbPlotSettings
  1

  2
none_device
  4

  6

 40
0.0
 41
0.0
 42
0.0
 43
0.0
 44
0.0
 45
0.0
 46
0.0
 47
0.0
 48
0.0
 49
0.0
140
0.0
141
0.0
142
1.0
143
1.0
 70
   688
 72
     0
 73
     0
 74
     5
  7

 75
    16
147
1.0
148
0.0
149
0.0
100
AcDbLayout
  1
Layout1
 70
     1
 71
     1
 10
0.0
 20
0.0
 11
12.0
 21
9.0
 12
0.0
 22
0.0
 32
0.0
 14
1.0000000000E+20
 24
1.0000000000E+20
 34
1.0000000000E+20
 15
-1.0000000000E+20
 25
-1.0000000000E+20
 35
-1.0000000000E+20
146
0.0
 13
0.0
 23
0.0
 33
0.0
 16
1.0
 26
0.0
 36
0.0
 17
0.0
 27
1.0
 37
0.0
 76
     0
330
1B
  0
LAYOUT
  5
26
102
{ACAD_REACTORS
330
1A
102
}
330
1A
100
AcDbPlotSettings
  1

  2
none_device
  4

  6

 40
0.0
 41
0.0
 42
0.0
 43
0.0
 44
0.0
 45
0.0
 46
0.0
 47
0.0
 48
0.0
 49
0.0
140
0.0
141
0.0
142
1.0
143
1.0
 70
   688
 72
     0
 73
     0
 74
     5
  7

 75
    16
147
1.0
148
0.0
149
0.0
100
AcDbLayout
  1
Layout2
 70
     1
 71
     2
 10
0.0
 20
0.0
 11
0.0
 21
0.0
 12
0.0
 22
0.0
 32
0.0
 14
0.0
 24
0.0
 34
0.0
 15
0.0
 25
0.0
 35
0.0
146
0.0
 13
0.0
 23
0.0
 33
0.0
 16
1.0
 26
0.0
 36
0.0
 17
0.0
 27
1.0
 37
0.0
 76
     0
330
23
  0
LAYOUT
  5
22
102
{ACAD_REACTORS
330
1A
102
}
330
1A
100
AcDbPlotSettings
  1

  2
none_device
  4

  6

 40
0.0
 41
0.0
 42
0.0
 43
0.0
 44
0.0
 45
0.0
 46
0.0
 47
0.0
 48
0.0
 49
0.0
140
0.0
141
0.0
142
1.0
143
1.0
 70
  1712
 72
     0
 73
     0
 74
     0
  7

 75
     0
147
1.0
148
0.0
149
0.0
100
AcDbLayout
  1
Model
 70
     1
 71
     0
 10
0.0
 20
0.0
 11
34.0
 21
22.0
 12
0.0
 22
0.0
 32
0.0
 14
0.0
 24
0.0
 34
0.0
 15
34.0
 25
22.0
 35
0.0
146
0.0
 13
0.0
 23
0.0
 33
0.0
 16
1.0
 26
0.0
 36
0.0
 17
0.0
 27
1.0
 37
0.0
 76
     0
330
1F
331
29
  0
MLINESTYLE
  5
18
102
{ACAD_REACTORS
330
17
102
}
330
17
100
AcDbMlineStyle
  2
Standard
 70
     0
  3

 62
   256
 51
90.0
 52
90.0
 71
     2
 49
0.5
 62
   256
  6
BYLAYER
 49
-0.5
 62
   256
  6
BYLAYER
  0
ACDBPLACEHOLDER
  5
F
102
{ACAD_REACTORS
330
E
102
}
330
E
  0
VISUALSTYLE
  5
2F
102
{ACAD_REACTORS
330
2A
102
}
330
2A
100
AcDbVisualStyle
  2
2dWireframe
 70
     4
 71
     0
 72
     2
 73
     0
 90
        0
 40
-0.6
 41
-30.0
 62
     5
 63
     7
 74
     1
 91
        4
 64
     7
 65
   257
 75
     1
175
     1
 42
1.0
 92
        0
 66
   257
 43
1.0
 76
     1
 77
     6
 78
     2
 67
     7
 79
     5
170
     0
171
     0
290
     0
174
     0
 93
        1
 44
0.0
173
     0
291
     0
 45
0.0
1001
ACAD
1000
AcDbSavedByObjectVersion
1070
     0
  0
VISUALSTYLE
  5
31
102
{ACAD_REACTORS
330
2A
102
}
330
2A
100
AcDbVisualStyle
  2
3D Hidden
 70
     6
 71
     1
 72
     2
 73
     2
 90
        0
 40
-0.6
 41
-30.0
 62
     5
 63
     7
 74
     2
 91
        2
 64
     7
 65
   257
 75
     2
175
     1
 42
40.0
 92
        0
 66
   257
 43
1.0
 76
     1
 77
     6
 78
     2
 67
     7
 79
     3
170
     0
171
     0
290
     0
174
     0
 93
        1
 44
0.0
173
     0
291
     0
 45
0.0
1001
ACAD
1000
AcDbSavedByObjectVersion
1070
     0
  0
VISUALSTYLE
  5
30
102
{ACAD_REACTORS
330
2A
102
}
330
2A
100
AcDbVisualStyle
  2
3dWireframe
 70
     5
 71
     0
 72
     2
 73
     0
 90
        0
 40
-0.6
 41
-30.0
 62
     5
 63
     7
 74
     1
 91
        4
 64
     7
 65
   257
 75
     1
175
     1
 42
1.0
 92
        0
 66
   257
 43
1.0
 76
     1
 77
     6
 78
     2
 67
     7
 79
     5
170
     0
171
     0
290
     0
174
     0
 93
        1
 44
0.0
173
     0
291
     0
 45
0.0
1001
ACAD
1000
AcDbSavedByObjectVersion
1070
     0
  0
VISUALSTYLE
  5
32
102
{ACAD_REACTORS
330
2A
102
}
330
2A
100
AcDbVisualStyle
  2
Basic
 70
     7
 71
     1
 72
     0
 73
     1
 90
        0
 40
-0.6
 41
-30.0
 62
     5
 63
     7
 74
     0
 91
        4
 64
     7
 65
   257
 75
     1
175
     1
 42
1.0
 92
        8
 66
     7
 43
1.0
 76
     1
 77
     6
 78
     2
 67
     7
 79
     5
170
     0
171
     0
290
     0
174
     0
 93
        1
 44
0.0
173
     0
291
     1
 45
0.0
1001
ACAD
1000
AcDbSavedByObjectVersion
1070
     0
  0
VISUALSTYLE
  5
36
102
{ACAD_REACTORS
330
2A
102
}
330
2A
100
AcDbVisualStyle
  2
Brighten
 70
    12
 71
     2
 72
     2
 73
     0
 90
        0
 40
-0.6
 41
-30.0
 62
     5
 63
     7
 74
     1
 91
        4
 64
     7
 65
   257
 75
     1
175
     1
 42
1.0
 92
        8
 66
     7
 43
1.0
 76
     1
 77
     6
 78
     2
 67
     7
 79
     5
170
     0
171
     0
290
     0
174
     0
 93
        1
 44
50.0
173
     0
291
     1
 45
0.0
1001
ACAD
1000
AcDbSavedByObjectVersion
1070
     0
  0
VISUALSTYLE
  5
3A
102
{ACAD_REACTORS
330
2A
102
}
330
2A
100
AcDbVisualStyle
  2
ColorChange
 70
    16
 71
     2
 72
     2
 73
     3
 90
        0
 40
-0.6
 41
-30.0
 62
     5
 63
     8
 74
     1
 91
        4
 64
     7
 65
   257
 75
     1
175
     1
 42
1.0
 92
        8
 66
     8
 43
1.0
 76
     1
 77
     6
 78
     2
 67
     7
 79
     5
170
     0
171
     0
290
     0
174
     0
 93
        1
 44
0.0
173
     0
291
     1
 45
0.0
1001
ACAD
1000
AcDbSavedByObjectVersion
1070
     0
  0
VISUALSTYLE
  5
34
102
{ACAD_REACTORS
330
2A
102
}
330
2A
100
AcDbVisualStyle
  2
Conceptual
 70
     9
 71
     3
 72
     2
 73
     0
 90
        0
 40
-0.6
 41
-30.0
 62
     5
 63
     7
 74
     2
 91
        2
 64
     7
 65
   257
 75
     1
175
     1
 42
40.0
 92
        8
 66
     7
 43
1.0
 76
     1
 77
     6
 78
     2
 67
     7
 79
     3
170
     0
171
     0
290
     0
174
     0
 93
        1
 44
0.0
173
     0
291
     0
 45
0.0
1001
ACAD
1000
AcDbSavedByObjectVersion
1070
     0
  0
VISUALSTYLE
  5
35
102
{ACAD_REACTORS
330
2A
102
}
330
2A
100
AcDbVisualStyle
  2
Dim
 70
    11
 71
     2
 72
     2
 73
     0
 90
        0
 40
-0.6
 41
-30.0
 62
     5
 63
     7
 74
     1
 91
        4
 64
     7
 65
   257
 75
     1
175
     1
 42
1.0
 92
        8
 66
     7
 43
1.0
 76
     1
 77
     6
 78
     2
 67
     7
 79
     5
170
     0
171
     0
290
     0
174
     0
 93
        1
 44
-50.0
173
     0
291
     1
 45
0.0
1001
ACAD
1000
AcDbSavedByObjectVersion
1070
     0
  0
VISUALSTYLE
  5
39
102
{ACAD_REACTORS
330
2A
102
}
330
2A
100
AcDbVisualStyle
  2
Facepattern
 70
    15
 71
     2
 72
     2
 73
     0
 90
        0
 40
-0.6
 41
-30.0
 62
     5
 63
     7
 74
     1
 91
        4
 64
     7
 65
   257
 75
     1
175
     1
 42
1.0
 92
        8
 66
     7
 43
1.0
 76
     1
 77
     6
 78
     2
 67
     7
 79
     5
170
     0
171
     0
290
     0
174
     0
 93
        1
 44
0.0
173
     0
291
     1
 45
0.0
1001
ACAD
1000
AcDbSavedByObjectVersion
1070
     0
  0
VISUALSTYLE
  5
2B
102
{ACAD_REACTORS
330
2A
102
}
330
2A
100
AcDbVisualStyle
  2
Flat
 70
     0
 71
     2
 72
     1
 73
     1
 90
        2
 40
-0.6
 41
30.0
 62
     5
 63
     7
 74
     0
 91
        4
 64
     7
 65
   257
 75
     1
175
     1
 42
1.0
 92
        8
 66
     7
 43
1.0
 76
     1
 77
     6
 78
     2
 67
     7
 79
     5
170
     0
171
     0
290
     0
174
     0
 93
       13
 44
0.0
173
     0
291
     1
 45
0.0
1001
ACAD
1000
AcDbSavedByObjectVersion
1070
     0
  0
VISUALSTYLE
  5
2C
102
{ACAD_REACTORS
330
2A
102
}
330
2A
100
AcDbVisualStyle
  2
FlatWithEdges
 70
     1
 71
     2
 72
     1
 73
     1
 90
        2
 40
-0.6
 41
30.0
 62
     5
 63
     7
 74
     1
 91
        4
 64
     7
 65
   257
 75
     1
175
     1
 42
1.0
 92
        0
 66
   257
 43
1.0
 76
     1
 77
     6
 78
     2
 67
     7
 79
     5
170
     0
171
     0
290
     0
174
     0
 93
       13
 44
0.0
173
     0
291
     1
 45
0.0
1001
ACAD
1000
AcDbSavedByObjectVersion
1070
     0
  0
VISUALSTYLE
  5
2D
102
{ACAD_REACTORS
330
2A
102
}
330
2A
100
AcDbVisualStyle
  2
Gouraud
 70
     2
 71
     2
 72
     2
 73
     1
 90
        2
 40
-0.6
 41
30.0
 62
     5
 63
     7
 74
     0
 91
        4
 64
     7
 65
   257
 75
     1
175
     1
 42
1.0
 92
        0
 66
     7
 43
1.0
 76
     1
 77
     6
 78
     2
 67
     7
 79
     5
170
     0
171
     0
290
     0
174
     0
 93
       13
 44
0.0
173
     0
291
     1
 45
0.0
1001
ACAD
1000
AcDbSavedByObjectVersion
1070
     0
  0
VISUALSTYLE
  5
2E
102
{ACAD_REACTORS
330
2A
102
}
330
2A
100
AcDbVisualStyle
  2
GouraudWithEdges
 70
     3
 71
     2
 72
     2
 73
     1
 90
        2
 40
-0.6
 41
30.0
 62
     5
 63
     7
 74
     1
 91
        4
 64
     7
 65
   257
 75
     1
175
     1
 42
1.0
 92
        0
 66
   257
 43
1.0
 76
     1
 77
     6
 78
     2
 67
     7
 79
     5
170
     0
171
     0
290
     0
174
     0
 93
       13
 44
0.0
173
     0
291
     1
 45
0.0
1001
ACAD
1000
AcDbSavedByObjectVersion
1070
     0
  0
VISUALSTYLE
  5
38
102
{ACAD_REACTORS
330
2A
102
}
330
2A
100
AcDbVisualStyle
  2
Linepattern
 70
    14
 71
     2
 72
     2
 73
     0
 90
        0
 40
-0.6
 41
-30.0
 62
     5
 63
     7
 74
     1
 91
        4
 64
     7
 65
   257
 75
     7
175
     7
 42
1.0
 92
        8
 66
     7
 43
1.0
 76
     1
 77
     6
 78
     2
 67
     7
 79
     5
170
     0
171
     0
290
     0
174
     0
 93
        1
 44
0.0
173
     0
291
     1
 45
0.0
1001
ACAD
1000
AcDbSavedByObjectVersion
1070
     0
  0
VISUALSTYLE
  5
33
102
{ACAD_REACTORS
330
2A
102
}
330
2A
100
AcDbVisualStyle
  2
Realistic
 70
     8
 71
     2
 72
     2
 73
     0
 90
        0
 40
-0.6
 41
-30.0
 62
     5
 63
     7
 74
     1
 91
        0
 64
     7
 65
   257
 75
     1
175
     1
 42
1.0
 92
        8
 66
     8
 43
1.0
 76
     1
 77
     6
 78
     2
 67
     7
 79
     5
170
     0
171
     0
290
     0
174
     0
 93
       13
 44
0.0
173
     0
291
     0
 45
0.0
1001
ACAD
1000
AcDbSavedByObjectVersion
1070
     0
  0
VISUALSTYLE
  5
37
102
{ACAD_REACTORS
330
2A
102
}
330
2A
100
AcDbVisualStyle
  2
Thicken
 70
    13
 71
     2
 72
     2
 73
     0
 90
        0
 40
-0.6
 41
-30.0
 62
     5
 63
     7
 74
     1
 91
        4
 64
     7
 65
   257
 75
     1
175
     1
 42
1.0
 92
       12
 66
     7
 43
1.0
 76
     1
 77
     6
 78
     2
 67
     7
 79
     5
170
     0
171
     0
290
     0
174
     0
 93
        1
 44
0.0
173
     0
291
     1
 45
0.0
1001
ACAD
1000
AcDbSavedByObjectVersion
1070
     0
  0
ENDSEC
  0
EOF
