  0
SECTION
  2
HEADER
  9
$ACADVER
  1
AC1015
  9
$ACADMAINTVER
 70
     6
  9
$DWGCODEPAGE
  3
ANSI_1252
  9
$INSBASE
 10
0.0
 20
0.0
 30
0.0
  9
$EXTMIN
 10
0.0
 20
0.0
 30
0.0
  9
$EXTMAX
 10
22.0
 20
17.0
 30
0.0
  9
$LIMMIN
 10
0.0
 20
0.0
  9
$LIMMAX
 10
22.0
 20
17.0
  9
$ORTHOMODE
 70
     0
  9
$REGENMODE
 70
     1
  9
$FILLMODE
 70
     1
  9
$QTEXTMODE
 70
     0
  9
$MIRRTEXT
 70
     1
  9
$LTSCALE
 40
1.0
  9
$ATTMODE
 70
     1
  9
$TEXTSIZE
 40
0.1377952756
  9
$TRACEWID
 40
0.05
  9
$TEXTSTYLE
  7
Standard
  9
$CLAYER
  8
0
  9
$CELTYPE
  6
ByLayer
  9
$CECOLOR
 62
   256
  9
$CELTSCALE
 40
1.0
  9
$DISPSILH
 70
     0
  9
$DIMSCALE
 40
1.0
  9
$DIMASZ
 40
0.2362204724
  9
$DIMEXO
 40
0.0393700787
  9
$DIMDLI
 40
0.38
  9
$DIMRND
 40
0.0
  9
$DIMDLE
 40
0.0
  9
$DIMEXE
 40
0.0393700787
  9
$DIMTP
 40
0.0
  9
$DIMTM
 40
0.0
  9
$DIMTXT
 40
0.1377952756
  9
$DIMCEN
 40
0.09
  9
$DIMTSZ
 40
0.0
  9
$DIMTOL
 70
     0
  9
$DIMLIM
 70
     0
  9
$DIMTIH
 70
     1
  9
$DIMTOH
 70
     1
  9
$DIMSE1
 70
     0
  9
$DIMSE2
 70
     0
  9
$DIMTAD
 70
     1
  9
$DIMZIN
 70
     1
  9
$DIMBLK
  1

  9
$DIMASO
 70
     1
  9
$DIMSHO
 70
     1
  9
$DIMPOST
  1

  9
$DIMAPOST
  1

  9
$DIMALT
 70
     0
  9
$DIMALTD
 70
     2
  9
$DIMALTF
 40
25.4
  9
$DIMLFAC
 40
6.0
  9
$DIMTOFL
 70
     0
  9
$DIMTVP
 40
0.0
  9
$DIMTIX
 70
     0
  9
$DIMSOXD
 70
     0
  9
$DIMSAH
 70
     0
  9
$DIMBLK1
  1

  9
$DIMBLK2
  1

  9
$DIMSTYLE
  2
Standard
  9
$DIMCLRD
 70
     0
  9
$DIMCLRE
 70
     0
  9
$DIMCLRT
 70
     0
  9
$DIMTFAC
 40
1.0
  9
$DIMGAP
 40
0.06
  9
$DIMJUST
 70
     0
  9
$DIMSD1
 70
     0
  9
$DIMSD2
 70
     0
  9
$DIMTOLJ
 70
     1
  9
$DIMTZIN
 70
     1
  9
$DIMALTZ
 70
     0
  9
$DIMALTTZ
 70
     0
  9
$DIMUPT
 70
     0
  9
$DIMDEC
 70
     4
  9
$DIMTDEC
 70
     4
  9
$DIMALTU
 70
     2
  9
$DIMALTTD
 70
     2
  9
$DIMTXSTY
  7
Standard
  9
$DIMAUNIT
 70
     0
  9
$DIMADEC
 70
     0
  9
$DIMALTRND
 40
0.0
  9
$DIMAZIN
 70
     0
  9
$DIMDSEP
 70
    46
  9
$DIMATFIT
 70
     3
  9
$DIMFRAC
 70
     0
  9
$DIMLDRBLK
  1

  9
$DIMLUNIT
 70
     2
  9
$DIMLWD
 70
    -2
  9
$DIMLWE
 70
    -2
  9
$DIMTMOVE
 70
     0
  9
$LUNITS
 70
     2
  9
$LUPREC
 70
     4
  9
$SKETCHINC
 40
0.1
  9
$FILLETRAD
 40
0.5
  9
$AUNITS
 70
     0
  9
$AUPREC
 70
     0
  9
$MENU
  1
.
  9
$ELEVATION
 40
0.0
  9
$PELEVATION
 40
0.0
  9
$THICKNESS
 40
0.0
  9
$LIMCHECK
 70
     0
  9
$CHAMFERA
 40
0.5
  9
$CHAMFERB
 40
0.5
  9
$CHAMFERC
 40
1.0
  9
$CHAMFERD
 40
0.0
  9
$SKPOLY
 70
     0
  9
$TDCREATE
 40
2454440.909187569
  9
$TDUCREATE
 40
2454441.242520903
  9
$TDUPDATE
 40
2454440.909187581
  9
$TDUUPDATE
 40
2454441.242520914
  9
$TDINDWG
 40
0.0000000116
  9
$TDUSRTIMER
 40
0.0000000116
  9
$USRTIMER
 70
     1
  9
$ANGBASE
 50
0.0
  9
$ANGDIR
 70
     0
  9
$PDMODE
 70
     0
  9
$PDSIZE
 40
-1.0
  9
$PLINEWID
 40
0.0
  9
$SPLFRAME
 70
     0
  9
$SPLINETYPE
 70
     6
  9
$SPLINESEGS
 70
     8
  9
$HANDSEED
  5
203
  9
$SURFTAB1
 70
     6
  9
$SURFTAB2
 70
     6
  9
$SURFTYPE
 70
     6
  9
$SURFU
 70
     6
  9
$SURFV
 70
     6
  9
$UCSBASE
  2

  9
$UCSNAME
  2

  9
$UCSORG
 10
0.0
 20
0.0
 30
0.0
  9
$UCSXDIR
 10
1.0
 20
0.0
 30
0.0
  9
$UCSYDIR
 10
0.0
 20
1.0
 30
0.0
  9
$UCSORTHOREF
  2

  9
$UCSORTHOVIEW
 70
     0
  9
$UCSORGTOP
 10
0.0
 20
0.0
 30
0.0
  9
$UCSORGBOTTOM
 10
0.0
 20
0.0
 30
0.0
  9
$UCSORGLEFT
 10
0.0
 20
0.0
 30
0.0
  9
$UCSORGRIGHT
 10
0.0
 20
0.0
 30
0.0
  9
$UCSORGFRONT
 10
0.0
 20
0.0
 30
0.0
  9
$UCSORGBACK
 10
0.0
 20
0.0
 30
0.0
  9
$PUCSBASE
  2

  9
$PUCSNAME
  2

  9
$PUCSORG
 10
0.0
 20
0.0
 30
0.0
  9
$PUCSXDIR
 10
1.0
 20
0.0
 30
0.0
  9
$PUCSYDIR
 10
0.0
 20
1.0
 30
0.0
  9
$PUCSORTHOREF
  2

  9
$PUCSORTHOVIEW
 70
     0
  9
$PUCSORGTOP
 10
0.0
 20
0.0
 30
0.0
  9
$PUCSORGBOTTOM
 10
0.0
 20
0.0
 30
0.0
  9
$PUCSORGLEFT
 10
0.0
 20
0.0
 30
0.0
  9
$PUCSORGRIGHT
 10
0.0
 20
0.0
 30
0.0
  9
$PUCSORGFRONT
 10
0.0
 20
0.0
 30
0.0
  9
$PUCSORGBACK
 10
0.0
 20
0.0
 30
0.0
  9
$USERI1
 70
     0
  9
$USERI2
 70
     0
  9
$USERI3
 70
     0
  9
$USERI4
 70
     0
  9
$USERI5
 70
     0
  9
$USERR1
 40
0.0
  9
$USERR2
 40
0.0
  9
$USERR3
 40
0.0
  9
$USERR4
 40
0.0
  9
$USERR5
 40
0.0
  9
$WORLDVIEW
 70
     1
  9
$SHADEDGE
 70
     3
  9
$SHADEDIF
 70
    70
  9
$TILEMODE
 70
     1
  9
$MAXACTVP
 70
    64
  9
$PINSBASE
 10
0.0
 20
0.0
 30
0.0
  9
$PLIMCHECK
 70
     0
  9
$PEXTMIN
 10
1.0000000000E+20
 20
1.0000000000E+20
 30
1.0000000000E+20
  9
$PEXTMAX
 10
-1.0000000000E+20
 20
-1.0000000000E+20
 30
-1.0000000000E+20
  9
$PLIMMIN
 10
0.0
 20
0.0
  9
$PLIMMAX
 10
12.0
 20
9.0
  9
$UNITMODE
 70
     0
  9
$VISRETAIN
 70
     1
  9
$PLINEGEN
 70
     0
  9
$PSLTSCALE
 70
     1
  9
$TREEDEPTH
 70
  3020
  9
$CMLSTYLE
  2
Standard
  9
$CMLJUST
 70
     0
  9
$CMLSCALE
 40
1.0
  9
$PROXYGRAPHICS
 70
     1
  9
$MEASUREMENT
 70
     0
  9
$CELWEIGHT
370
    -1
  9
$ENDCAPS
280
     0
  9
$JOINSTYLE
280
     0
  9
$LWDISPLAY
290
     1
  9
$INSUNITS
 70
     1
  9
$HYPERLINKBASE
  1

  9
$STYLESHEET
  1

  9
$XEDIT
290
     1
  9
$CEPSNTYPE
380
     0
  9
$PSTYLEMODE
290
     1
  9
$FINGERPRINTGUID
  2
{78AB7AA6-57A9-44E2-B4A3-E40896204B43}
  9
$VERSIONGUID
  2
{FAEB1C32-E019-11D5-929B-00C0DF256EC4}
  9
$EXTNAMES
290
     1
  9
$PSVPSCALE
 40
0.0
  9
$OLESTARTUP
290
     0
  0
ENDSEC
  0
SECTION
  2
CLASSES
  0
CLASS
  1
ACDBDICTIONARYWDFLT
  2
AcDbDictionaryWithDefault
  3
ObjectDBX Classes
 90
        0
280
     0
281
     0
  0
CLASS
  1
VISUALSTYLE
  2
AcDbVisualStyle
  3
ObjectDBX Classes
 90
     4095
280
     0
281
     0
  0
CLASS
  1
ACDBPLACEHOLDER
  2
AcDbPlaceHolder
  3
ObjectDBX Classes
 90
        0
280
     0
281
     0
  0
CLASS
  1
LAYOUT
  2
AcDbLayout
  3
ObjectDBX Classes
 90
        0
280
     0
281
     0
  0
ENDSEC
  0
SECTION
  2
TABLES
  0
TABLE
  2
VPORT
  5
8
330
0
100
AcDbSymbolTable
 70
     1
  0
VPORT
  5
29
330
8
100
AcDbSymbolTableRecord
100
AcDbViewportTableRecord
  2
*Active
 70
     0
 10
0.0
 20
0.0
 11
1.0
 21
1.0
 12
11.0
 22
8.5
 13
0.0
 23
0.0
 14
0.5
 24
0.5
 15
0.5
 25
0.5
 16
0.0
 26
0.0
 36
1.0
 17
0.0
 27
0.0
 37
0.0
 40
17.0
 41
1.2941176471
 42
50.0
 43
0.0
 44
0.0
 50
0.0
 51
0.0
 71
     0
 72
  2000
 73
     1
 74
     3
 75
     0
 76
     0
 77
     0
 78
     0
281
     0
 65
     1
110
0.0
120
0.0
130
0.0
111
1.0
121
0.0
131
0.0
112
0.0
122
1.0
132
0.0
 79
     0
146
0.0
  0
ENDTAB
  0
TABLE
  2
LTYPE
  5
5
330
0
100
AcDbSymbolTable
 70
     6
  0
LTYPE
  5
14
330
5
100
AcDbSymbolTableRecord
100
AcDbLinetypeTableRecord
  2
ByBlock
 70
     0
  3

 72
    65
 73
     0
 40
0.0
  0
LTYPE
  5
15
330
5
100
AcDbSymbolTableRecord
100
AcDbLinetypeTableRecord
  2
ByLayer
 70
     0
  3

 72
    65
 73
     0
 40
0.0
  0
LTYPE
  5
16
330
5
100
AcDbSymbolTableRecord
100
AcDbLinetypeTableRecord
  2
Continuous
 70
     0
  3
Solid line
 72
    65
 73
     0
 40
0.0
  0
LTYPE
  5
3B
330
5
100
AcDbSymbolTableRecord
100
AcDbLinetypeTableRecord
  2
HIDDEN
 70
     0
  3
Hidden __ __ __ __ __ __ __ __ __ __ __ __ __ __
 72
    65
 73
     2
 40
0.075
 49
0.05
 74
     0
 49
-0.025
 74
     0
  0
LTYPE
  5
3C
330
5
100
AcDbSymbolTableRecord
100
AcDbLinetypeTableRecord
  2
PHANTOM
 70
     0
  3
Phantom ______  __  __  ______  __  __  ______
 72
    65
 73
     6
 40
0.5
 49
0.25
 74
     0
 49
-0.05
 74
     0
 49
0.05
 74
     0
 49
-0.05
 74
     0
 49
0.05
 74
     0
 49
-0.05
 74
     0
  0
LTYPE
  5
3D
330
5
100
AcDbSymbolTableRecord
100
AcDbLinetypeTableRecord
  2
CENTER
 70
     0
  3
Center ____ _ ____ _ ____ _ ____ _ ____ _ ____
 72
    65
 73
     4
 40
0.4
 49
0.25
 74
     0
 49
-0.05
 74
     0
 49
0.05
 74
     0
 49
-0.05
 74
     0
  0
LTYPE
  5
3E
330
5
100
AcDbSymbolTableRecord
100
AcDbLinetypeTableRecord
  2
CENTERX2
 70
     0
  3
Center (2x) ________  __  ________  __  _____
 72
    65
 73
     4
 40
0.8
 49
0.5
 74
     0
 49
-0.1
 74
     0
 49
0.1
 74
     0
 49
-0.1
 74
     0
  0
LTYPE
  5
3F
330
5
100
AcDbSymbolTableRecord
100
AcDbLinetypeTableRecord
  2
DOT2
 70
     0
  3
Dot (.5x) ........................................
 72
    65
 73
     2
 40
0.025
 49
0.0
 74
     0
 49
-0.025
 74
     0
  0
ENDTAB
  0
TABLE
  2
LAYER
  5
2
330
0
100
AcDbSymbolTable
 70
    13
  0
LAYER
  5
10
330
2
100
AcDbSymbolTableRecord
100
AcDbLayerTableRecord
  2
0
 70
     0
 62
     7
  6
Continuous
370
    -3
390
F
  0
LAYER
  5
40
330
2
100
AcDbSymbolTableRecord
100
AcDbLayerTableRecord
  2
SLD-0
 70
     0
 62
   179
  6
Continuous
370
    -3
390
F
  0
LAYER
  5
41
330
2
100
AcDbSymbolTableRecord
100
AcDbLayerTableRecord
  2
2
 70
     0
 62
     2
  6
Continuous
370
    -3
390
F
  0
LAYER
  5
42
330
2
100
AcDbSymbolTableRecord
100
AcDbLayerTableRecord
  2
3
 70
     0
 62
     3
  6
HIDDEN
370
    -3
390
F
  0
LAYER
  5
43
330
2
100
AcDbSymbolTableRecord
100
AcDbLayerTableRecord
  2
4
 70
     0
 62
     4
  6
Continuous
370
    -3
390
F
  0
LAYER
  5
44
330
2
100
AcDbSymbolTableRecord
100
AcDbLayerTableRecord
  2
TRMODEL1
 70
     0
 62
   179
  6
Continuous
370
    -3
390
F
  0
LAYER
  5
45
330
2
100
AcDbSymbolTableRecord
100
AcDbLayerTableRecord
  2
TRMODEL2
 70
     0
 62
     3
  6
Continuous
370
    -3
390
F
  0
LAYER
  5
46
330
2
100
AcDbSymbolTableRecord
100
AcDbLayerTableRecord
  2
TRMODEL3
 70
     0
 62
     1
  6
HIDDEN
370
    -3
390
F
  0
LAYER
  5
47
330
2
100
AcDbSymbolTableRecord
100
AcDbLayerTableRecord
  2
TRDIM
 70
     0
 62
     3
  6
Continuous
370
    -3
390
F
  0
LAYER
  5
48
330
2
100
AcDbSymbolTableRecord
100
AcDbLayerTableRecord
  2
TRDETAIL1
 70
     0
 62
     1
  6
Continuous
370
    -3
390
F
  0
LAYER
  5
49
330
2
100
AcDbSymbolTableRecord
100
AcDbLayerTableRecord
  2
TRDETAIL2
 70
     0
 62
     6
  6
HIDDEN
370
    -3
390
F
  0
LAYER
  5
4A
330
2
100
AcDbSymbolTableRecord
100
AcDbLayerTableRecord
  2
TRDETAIL3
 70
     0
 62
     4
  6
CENTERX2
370
    -3
390
F
  0
LAYER
  5
4B
330
2
100
AcDbSymbolTableRecord
100
AcDbLayerTableRecord
  2
TRTEXT
 70
     0
 62
   179
  6
Continuous
370
    -3
390
F
  0
ENDTAB
  0
TABLE
  2
STYLE
  5
3
330
0
100
AcDbSymbolTable
 70
     2
  0
STYLE
  5
11
330
3
100
AcDbSymbolTableRecord
100
AcDbTextStyleTableRecord
  2
Standard
 70
     0
 40
0.0
 41
1.0
 50
0.0
 71
     0
 42
0.2
  3
txt
  4

  0
STYLE
  5
1F1
330
3
100
AcDbSymbolTableRecord
100
AcDbTextStyleTableRecord
  2
SLDTEXTSTYLE0
 70
     0
 40
0.0
 41
0.7
 50
0.0
 71
     0
 42
0.2
  3
TXT
  4

  0
ENDTAB
  0
TABLE
  2
VIEW
  5
6
330
0
100
AcDbSymbolTable
 70
     0
  0
ENDTAB
  0
TABLE
  2
UCS
  5
7
330
0
100
AcDbSymbolTable
 70
     0
  0
ENDTAB
  0
TABLE
  2
APPID
  5
9
330
0
100
AcDbSymbolTable
 70
     1
  0
APPID
  5
12
330
9
100
AcDbSymbolTableRecord
100
AcDbRegAppTableRecord
  2
ACAD
 70
     0
  0
ENDTAB
  0
TABLE
  2
DIMSTYLE
  5
A
330
0
100
AcDbSymbolTable
 70
     1
100
AcDbDimStyleTable
  0
DIMSTYLE
105
27
330
A
100
AcDbSymbolTableRecord
100
AcDbDimStyleTableRecord
  2
Standard
 70
     0
340
11
  0
ENDTAB
  0
TABLE
  2
BLOCK_RECORD
  5
1
330
0
100
AcDbSymbolTable
 70
     1
  0
BLOCK_RECORD
  5
1F
330
1
100
AcDbSymbolTableRecord
100
AcDbBlockTableRecord
  2
*Model_Space
340
22
  0
BLOCK_RECORD
  5
1B
330
1
100
AcDbSymbolTableRecord
100
AcDbBlockTableRecord
  2
*Paper_Space
340
1E
  0
BLOCK_RECORD
  5
23
330
1
100
AcDbSymbolTableRecord
100
AcDbBlockTableRecord
  2
*Paper_Space0
340
26
  0
ENDTAB
  0
ENDSEC
  0
SECTION
  2
BLOCKS
  0
BLOCK
  5
20
330
1F
100
AcDbEntity
  8
0
100
AcDbBlockBegin
  2
*Model_Space
 70
     0
 71
     0
 10
0.0
 20
0.0
 30
0.0
  3
*Model_Space
  1

  0
ENDBLK
  5
21
330
1F
100
AcDbEntity
  8
0
100
AcDbBlockEnd
  0
BLOCK
  5
1C
330
1B
100
AcDbEntity
 67
     1
  8
0
100
AcDbBlockBegin
  2
*Paper_Space
 70
     0
 71
     0
 10
0.0
 20
0.0
 30
0.0
  3
*Paper_Space
  1

  0
ENDBLK
  5
1D
330
1B
100
AcDbEntity
 67
     1
  8
0
100
AcDbBlockEnd
  0
BLOCK
  5
24
330
23
100
AcDbEntity
  8
0
100
AcDbBlockBegin
  2
*Paper_Space0
 70
     0
 71
     0
 10
0.0
 20
0.0
 30
0.0
  3
*Paper_Space0
  1

  0
ENDBLK
  5
25
330
23
100
AcDbEntity
  8
0
100
AcDbBlockEnd
  0
ENDSEC
  0
SECTION
  2
ENTITIES
  0
LINE
  5
4C
330
1F
100
AcDbEntity
  8
TRMODEL1
  6
Continuous
 62
     4
100
AcDbLine
 10
11.6942541978
 20
23.8988892759
 30
0.0
 11
11.6942541978
 21
8.6716819444
 31
0.0
  0
LINE
  5
4D
330
1F
100
AcDbEntity
  8
TRMODEL1
  6
Continuous
 62
     4
100
AcDbLine
 10
9.5692541553
 20
8.6716819444
 30
0.0
 11
9.5692541553
 21
23.9439207564
 31
0.0
  0
LINE
  5
4E
330
1F
100
AcDbEntity
  8
TRDETAIL2
  6
HIDDEN
 62
     3
100
AcDbLine
 10
9.756754159
 20
8.6716819444
 30
0.0
 11
9.756754159
 21
24.0409462663
 31
0.0
  0
LINE
  5
4F
330
1F
100
AcDbEntity
  8
TRDETAIL2
  6
HIDDEN
 62
     3
100
AcDbLine
 10
11.506754194
 20
23.767067798
 30
0.0
 11
11.506754194
 21
8.6716819444
 31
0.0
  0
LINE
  5
50
330
1F
100
AcDbEntity
  8
TRMODEL1
  6
Continuous
 62
     2
100
AcDbLine
 10
9.3206619275
 20
23.4586571537
 30
0.0
 11
8.2917643061
 21
24.4875547752
 31
0.0
  0
LINE
  5
51
330
1F
100
AcDbEntity
  8
TRMODEL1
  6
Continuous
 62
     2
100
AcDbLine
 10
8.2917643061
 20
24.4875547752
 30
0.0
 11
4.9823073548
 21
24.4875547752
 31
0.0
  0
LINE
  5
52
330
1F
100
AcDbEntity
  8
TRMODEL1
  6
Continuous
 62
     2
100
AcDbLine
 10
9.3620939655
 20
23.5000891917
 30
0.0
 11
9.5692541553
 21
23.210064926
 31
0.0
  0
LINE
  5
53
330
1F
100
AcDbEntity
  8
TRMODEL1
  6
Continuous
 62
     2
100
AcDbLine
 10
9.5692541553
 20
23.210064926
 30
0.0
 11
9.2792298896
 21
23.4172251158
 31
0.0
  0
LINE
  5
54
330
1F
100
AcDbEntity
  8
TRMODEL1
  6
Continuous
 62
     2
100
AcDbLine
 10
9.2792298896
 20
23.4172251158
 30
0.0
 11
9.3620939655
 21
23.5000891917
 31
0.0
  0
LINE
  5
55
330
1F
100
AcDbEntity
  8
TRMODEL1
  6
Continuous
 62
     2
100
AcDbLine
 10
12.1571440063
 20
20.9928738068
 30
0.0
 11
15.4188592297
 21
24.2545890302
 31
0.0
  0
LINE
  5
56
330
1F
100
AcDbEntity
  8
TRMODEL1
  6
Continuous
 62
     2
100
AcDbLine
 10
15.4188592297
 20
24.2545890302
 30
0.0
 11
16.7187054796
 21
24.2545890302
 31
0.0
  0
LINE
  5
57
330
1F
100
AcDbEntity
  8
TRMODEL1
  6
Continuous
 62
     2
100
AcDbLine
 10
12.1985760443
 20
20.9514417689
 30
0.0
 11
11.9085517785
 21
20.7442815791
 31
0.0
  0
LINE
  5
58
330
1F
100
AcDbEntity
  8
TRMODEL1
  6
Continuous
 62
     2
100
AcDbLine
 10
11.9085517785
 20
20.7442815791
 30
0.0
 11
12.1157119683
 21
21.0343058448
 31
0.0
  0
LINE
  5
59
330
1F
100
AcDbEntity
  8
TRMODEL1
  6
Continuous
 62
     2
100
AcDbLine
 10
12.1157119683
 20
21.0343058448
 30
0.0
 11
12.1985760443
 21
20.9514417689
 31
0.0
  0
LINE
  5
5A
330
1F
100
AcDbEntity
  8
TRMODEL1
  6
Continuous
 62
     2
100
AcDbLine
 10
12.1933714196
 20
20.5648554071
 30
0.0
 11
12.024927433
 21
20.7332993937
 31
0.0
  0
LINE
  5
5B
330
1F
100
AcDbEntity
  8
TRMODEL1
  6
Continuous
 62
     2
100
AcDbLine
 10
11.9722679521
 20
20.6091821794
 30
0.0
 11
11.8472679496
 21
20.7341821819
 31
0.0
  0
LINE
  5
5C
330
1F
100
AcDbEntity
  8
TRMODEL1
  6
Continuous
 62
     2
100
AcDbLine
 10
12.1942542078
 20
20.3871959237
 30
0.0
 11
12.0692542053
 21
20.5121959262
 31
0.0
  0
LINE
  5
5D
330
1F
100
AcDbEntity
  8
TRMODEL1
  6
Continuous
 62
     2
100
AcDbLine
 10
11.7954912568
 20
20.6091821794
 30
0.0
 11
11.6942541978
 21
20.7104192384
 31
0.0
  0
LINE
  5
5E
330
1F
100
AcDbEntity
  8
TRMODEL1
  6
Continuous
 62
     2
100
AcDbLine
 10
12.1942542078
 20
20.2104192284
 30
0.0
 11
12.0692542053
 21
20.3354192309
 31
0.0
  0
LINE
  5
5F
330
1F
100
AcDbEntity
  8
TRMODEL1
  6
Continuous
 62
     2
100
AcDbLine
 10
12.1942542078
 20
20.0336425331
 30
0.0
 11
12.0692542053
 21
20.1586425356
 31
0.0
  0
LINE
  5
60
330
1F
100
AcDbEntity
  8
TRMODEL1
  6
Continuous
 62
     2
100
AcDbLine
 10
12.185634566
 20
19.8654854796
 30
0.0
 11
12.0692542053
 21
19.9818658403
 31
0.0
  0
LINE
  5
61
330
1F
100
AcDbEntity
  8
TRMODEL1
  6
Continuous
 62
     2
100
AcDbLine
 10
12.1095021935
 20
19.7648411568
 30
0.0
 11
12.0146592521
 21
19.8596840982
 31
0.0
  0
LINE
  5
62
330
1F
100
AcDbEntity
  8
TRMODEL1
  6
Continuous
 62
     2
100
AcDbLine
 10
11.9633844931
 20
19.7341821619
 30
0.0
 11
11.8633217846
 21
19.8342448704
 31
0.0
  0
LINE
  5
63
330
1F
100
AcDbEntity
  8
TRMODEL1
  6
Continuous
 62
     2
100
AcDbLine
 10
11.8942542018
 20
19.6265357579
 30
0.0
 11
11.7817650461
 21
19.7390249136
 31
0.0
  0
LINE
  5
64
330
1F
100
AcDbEntity
  8
TRMODEL1
  6
Continuous
 62
     2
100
AcDbLine
 10
11.8942542018
 20
19.4497590626
 30
0.0
 11
11.7692541993
 21
19.5747590651
 31
0.0
  0
LINE
  5
65
330
1F
100
AcDbEntity
  8
TRMODEL1
  6
Continuous
 62
     4
100
AcDbLine
 10
11.6942541978
 20
20.6091821794
 30
0.0
 11
12.006754204
 21
20.6091821794
 31
0.0
  0
LINE
  5
66
330
1F
100
AcDbEntity
  8
TRMODEL1
  6
Continuous
 62
     4
100
AcDbLine
 10
11.6942541978
 20
20.7341821819
 30
0.0
 11
12.006754204
 21
20.7341821819
 31
0.0
  0
LINE
  5
67
330
1F
100
AcDbEntity
  8
TRMODEL1
  6
Continuous
 62
     4
100
AcDbLine
 10
11.6942541978
 20
20.6091821794
 30
0.0
 11
11.6942541978
 21
20.7341821819
 31
0.0
  0
LINE
  5
68
330
1F
100
AcDbEntity
  8
TRMODEL1
  6
Continuous
 62
     4
100
AcDbLine
 10
12.006754204
 20
19.8591821644
 30
0.0
 11
11.956754203
 21
19.8591821644
 31
0.0
  0
LINE
  5
69
330
1F
100
AcDbEntity
  8
TRMODEL1
  6
Continuous
 62
     4
100
AcDbLine
 10
12.0692542053
 20
20.5466821781
 30
0.0
 11
12.0692542053
 21
19.9216821656
 31
0.0
  0
LINE
  5
6A
330
1F
100
AcDbEntity
  8
TRMODEL1
  6
Continuous
 62
     4
100
AcDbLine
 10
12.1942542078
 20
20.5466821781
 30
0.0
 11
12.1942542078
 21
19.9216821656
 31
0.0
  0
LINE
  5
6B
330
1F
100
AcDbEntity
  8
TRMODEL1
  6
Continuous
 62
     4
100
AcDbLine
 10
11.7692541993
 20
19.6716821606
 30
0.0
 11
11.7692541993
 21
17.7966821231
 31
0.0
  0
LINE
  5
6C
330
1F
100
AcDbEntity
  8
TRMODEL1
  6
Continuous
 62
     4
100
AcDbLine
 10
11.8942542018
 20
19.6716821606
 30
0.0
 11
11.8942542018
 21
17.7966821231
 31
0.0
  0
LINE
  5
6D
330
1F
100
AcDbEntity
  8
TRMODEL1
  6
Continuous
 62
     4
100
AcDbLine
 10
12.006754204
 20
19.7341821619
 30
0.0
 11
11.956754203
 21
19.7341821619
 31
0.0
  0
LINE
  5
6E
330
1F
100
AcDbEntity
  8
TRDETAIL2
  6
HIDDEN
 62
     3
100
AcDbLine
 10
9.756754159
 20
13.031812262
 30
0.0
 11
11.506754194
 21
14.781812297
 31
0.0
  0
LINE
  5
6F
330
1F
100
AcDbEntity
  8
TRDETAIL2
  6
HIDDEN
 62
     3
100
AcDbLine
 10
9.756754159
 20
13.2085889573
 30
0.0
 11
11.506754194
 21
14.9585889923
 31
0.0
  0
LINE
  5
70
330
1F
100
AcDbEntity
  8
TRDETAIL2
  6
HIDDEN
 62
     3
100
AcDbLine
 10
9.756754159
 20
13.3853656526
 30
0.0
 11
11.506754194
 21
15.1353656876
 31
0.0
  0
LINE
  5
71
330
1F
100
AcDbEntity
  8
TRDETAIL2
  6
HIDDEN
 62
     3
100
AcDbLine
 10
9.756754159
 20
13.5621423479
 30
0.0
 11
11.506754194
 21
15.3121423829
 31
0.0
  0
LINE
  5
72
330
1F
100
AcDbEntity
  8
TRDETAIL2
  6
HIDDEN
 62
     3
100
AcDbLine
 10
9.756754159
 20
13.7389190432
 30
0.0
 11
11.506754194
 21
15.4889190782
 31
0.0
  0
LINE
  5
73
330
1F
100
AcDbEntity
  8
TRDETAIL2
  6
HIDDEN
 62
     3
100
AcDbLine
 10
9.756754159
 20
13.9156957385
 30
0.0
 11
11.506754194
 21
15.6656957735
 31
0.0
  0
LINE
  5
74
330
1F
100
AcDbEntity
  8
TRDETAIL2
  6
HIDDEN
 62
     3
100
AcDbLine
 10
9.756754159
 20
14.0924724338
 30
0.0
 11
11.506754194
 21
15.8424724688
 31
0.0
  0
LINE
  5
75
330
1F
100
AcDbEntity
  8
TRDETAIL2
  6
HIDDEN
 62
     3
100
AcDbLine
 10
9.756754159
 20
14.2692491291
 30
0.0
 11
11.506754194
 21
16.0192491641
 31
0.0
  0
LINE
  5
76
330
1F
100
AcDbEntity
  8
TRDETAIL2
  6
HIDDEN
 62
     3
100
AcDbLine
 10
9.756754159
 20
14.4460258244
 30
0.0
 11
11.506754194
 21
16.1960258594
 31
0.0
  0
LINE
  5
77
330
1F
100
AcDbEntity
  8
TRMODEL1
  6
Continuous
 62
     2
100
AcDbLine
 10
13.6702092282
 20
14.6091820669
 30
0.0
 11
13.2952091982
 21
14.9841820969
 31
0.0
  0
LINE
  5
78
330
1F
100
AcDbEntity
  8
TRMODEL1
  6
Continuous
 62
     2
100
AcDbLine
 10
13.4930789795
 20
14.6091820669
 30
0.0
 11
13.1180789495
 21
14.9841820969
 31
0.0
  0
LINE
  5
79
330
1F
100
AcDbEntity
  8
TRMODEL1
  6
Continuous
 62
     2
100
AcDbLine
 10
13.3159487308
 20
14.6091820669
 30
0.0
 11
12.9409487008
 21
14.9841820969
 31
0.0
  0
LINE
  5
7A
330
1F
100
AcDbEntity
  8
TRMODEL1
  6
Continuous
 62
     2
100
AcDbLine
 10
13.1388184821
 20
14.6091820669
 30
0.0
 11
12.7638184521
 21
14.9841820969
 31
0.0
  0
LINE
  5
7B
330
1F
100
AcDbEntity
  8
TRMODEL1
  6
Continuous
 62
     2
100
AcDbLine
 10
12.9616882334
 20
14.6091820669
 30
0.0
 11
12.5866882034
 21
14.9841820969
 31
0.0
  0
LINE
  5
7C
330
1F
100
AcDbEntity
  8
TRMODEL1
  6
Continuous
 62
     2
100
AcDbLine
 10
12.7845579847
 20
14.6091820669
 30
0.0
 11
12.4095579547
 21
14.9841820969
 31
0.0
  0
LINE
  5
7D
330
1F
100
AcDbEntity
  8
TRMODEL1
  6
Continuous
 62
     2
100
AcDbLine
 10
12.607427736
 20
14.6091820669
 30
0.0
 11
12.232427706
 21
14.9841820969
 31
0.0
  0
LINE
  5
7E
330
1F
100
AcDbEntity
  8
TRMODEL1
  6
Continuous
 62
     2
100
AcDbLine
 10
12.4302974874
 20
14.6091820669
 30
0.0
 11
12.0552974574
 21
14.9841820969
 31
0.0
  0
LINE
  5
7F
330
1F
100
AcDbEntity
  8
TRMODEL1
  6
Continuous
 62
     2
100
AcDbLine
 10
12.2531672387
 20
14.6091820669
 30
0.0
 11
11.8781672087
 21
14.9841820969
 31
0.0
  0
LINE
  5
80
330
1F
100
AcDbEntity
  8
TRMODEL1
  6
Continuous
 62
     2
100
AcDbLine
 10
12.07603699
 20
14.6091820669
 30
0.0
 11
11.8367077044
 21
14.8485113525
 31
0.0
  0
LINE
  5
81
330
1F
100
AcDbEntity
  8
TRMODEL1
  6
Continuous
 62
     4
100
AcDbLine
 10
11.8367077044
 20
7.2591820669
 30
0.0
 11
11.8367077044
 21
6.9841820669
 31
0.0
  0
LINE
  5
82
330
1F
100
AcDbEntity
  8
TRMODEL1
  6
Continuous
 62
     4
100
AcDbLine
 10
11.8367077044
 20
6.9841820669
 30
0.0
 11
19.8367077044
 21
6.9841820669
 31
0.0
  0
LINE
  5
83
330
1F
100
AcDbEntity
  8
TRMODEL1
  6
Continuous
 62
     4
100
AcDbLine
 10
19.8367077044
 20
6.9841820669
 30
0.0
 11
19.8367077044
 21
7.2591820669
 31
0.0
  0
LINE
  5
84
330
1F
100
AcDbEntity
  8
TRMODEL1
  6
Continuous
 62
     4
100
AcDbLine
 10
19.7367077044
 20
7.3591820669
 30
0.0
 11
16.1242077044
 21
7.3591820669
 31
0.0
  0
LINE
  5
85
330
1F
100
AcDbEntity
  8
TRMODEL1
  6
Continuous
 62
     4
100
AcDbLine
 10
16.0242077044
 20
7.4591820669
 30
0.0
 11
16.0242077044
 21
14.5091820669
 31
0.0
  0
LINE
  5
86
330
1F
100
AcDbEntity
  8
TRMODEL1
  6
Continuous
 62
     4
100
AcDbLine
 10
16.1242077044
 20
14.6091820669
 30
0.0
 11
19.7367077044
 21
14.6091820669
 31
0.0
  0
LINE
  5
87
330
1F
100
AcDbEntity
  8
TRMODEL1
  6
Continuous
 62
     4
100
AcDbLine
 10
19.8367077044
 20
14.7091820669
 30
0.0
 11
19.8367077044
 21
14.9841820669
 31
0.0
  0
LINE
  5
88
330
1F
100
AcDbEntity
  8
TRMODEL1
  6
Continuous
 62
     4
100
AcDbLine
 10
19.8367077044
 20
14.9841820669
 30
0.0
 11
11.8367077044
 21
14.9841820669
 31
0.0
  0
LINE
  5
89
330
1F
100
AcDbEntity
  8
TRMODEL1
  6
Continuous
 62
     4
100
AcDbLine
 10
11.8367077044
 20
14.9841820669
 30
0.0
 11
11.8367077044
 21
14.7091820669
 31
0.0
  0
LINE
  5
8A
330
1F
100
AcDbEntity
  8
TRMODEL1
  6
Continuous
 62
     4
100
AcDbLine
 10
11.9367077044
 20
14.6091820669
 30
0.0
 11
15.5492077044
 21
14.6091820669
 31
0.0
  0
LINE
  5
8B
330
1F
100
AcDbEntity
  8
TRMODEL1
  6
Continuous
 62
     4
100
AcDbLine
 10
15.6492077044
 20
14.5091820669
 30
0.0
 11
15.6492077044
 21
7.4591820669
 31
0.0
  0
LINE
  5
8C
330
1F
100
AcDbEntity
  8
TRMODEL1
  6
Continuous
 62
     4
100
AcDbLine
 10
15.5492077044
 20
7.3591820669
 30
0.0
 11
11.9367077044
 21
7.3591820669
 31
0.0
  0
LINE
  5
8D
330
1F
100
AcDbEntity
  8
TRDETAIL2
  6
HIDDEN
 62
     3
100
AcDbLine
 10
11.0534780909
 20
8.6716819444
 30
0.0
 11
11.506754194
 21
9.1249580475
 31
0.0
  0
LINE
  5
8E
330
1F
100
AcDbEntity
  8
TRDETAIL2
  6
HIDDEN
 62
     3
100
AcDbLine
 10
10.8767013956
 20
8.6716819444
 30
0.0
 11
11.506754194
 21
9.3017347428
 31
0.0
  0
LINE
  5
8F
330
1F
100
AcDbEntity
  8
TRDETAIL2
  6
HIDDEN
 62
     3
100
AcDbLine
 10
10.6999247003
 20
8.6716819444
 30
0.0
 11
11.506754194
 21
9.4785114381
 31
0.0
  0
LINE
  5
90
330
1F
100
AcDbEntity
  8
TRDETAIL2
  6
HIDDEN
 62
     3
100
AcDbLine
 10
10.523148005
 20
8.6716819444
 30
0.0
 11
11.506754194
 21
9.6552881334
 31
0.0
  0
LINE
  5
91
330
1F
100
AcDbEntity
  8
TRDETAIL2
  6
HIDDEN
 62
     3
100
AcDbLine
 10
10.3463713097
 20
8.6716819444
 30
0.0
 11
11.506754194
 21
9.8320648287
 31
0.0
  0
LINE
  5
92
330
1F
100
AcDbEntity
  8
TRDETAIL2
  6
HIDDEN
 62
     3
100
AcDbLine
 10
10.1695946144
 20
8.6716819444
 30
0.0
 11
11.506754194
 21
10.008841524
 31
0.0
  0
LINE
  5
93
330
1F
100
AcDbEntity
  8
TRDETAIL2
  6
HIDDEN
 62
     3
100
AcDbLine
 10
9.9928179191
 20
8.6716819444
 30
0.0
 11
11.506754194
 21
10.1856182193
 31
0.0
  0
LINE
  5
94
330
1F
100
AcDbEntity
  8
TRDETAIL2
  6
HIDDEN
 62
     3
100
AcDbLine
 10
9.8160412238
 20
8.6716819444
 30
0.0
 11
11.506754194
 21
10.3623949146
 31
0.0
  0
LINE
  5
95
330
1F
100
AcDbEntity
  8
TRDETAIL2
  6
HIDDEN
 62
     3
100
AcDbLine
 10
9.756754159
 20
8.7891715749
 30
0.0
 11
11.506754194
 21
10.5391716099
 31
0.0
  0
LINE
  5
96
330
1F
100
AcDbEntity
  8
TRDETAIL2
  6
HIDDEN
 62
     3
100
AcDbLine
 10
9.756754159
 20
8.9659482702
 30
0.0
 11
11.506754194
 21
10.7159483052
 31
0.0
  0
LINE
  5
97
330
1F
100
AcDbEntity
  8
TRDETAIL2
  6
HIDDEN
 62
     3
100
AcDbLine
 10
9.756754159
 20
9.1427249655
 30
0.0
 11
11.506754194
 21
10.8927250005
 31
0.0
  0
LINE
  5
98
330
1F
100
AcDbEntity
  8
TRDETAIL2
  6
HIDDEN
 62
     3
100
AcDbLine
 10
9.756754159
 20
9.3195016608
 30
0.0
 11
11.506754194
 21
11.0695016958
 31
0.0
  0
LINE
  5
99
330
1F
100
AcDbEntity
  8
TRDETAIL2
  6
HIDDEN
 62
     3
100
AcDbLine
 10
9.756754159
 20
9.4962783561
 30
0.0
 11
11.506754194
 21
11.2462783911
 31
0.0
  0
LINE
  5
9A
330
1F
100
AcDbEntity
  8
TRDETAIL2
  6
HIDDEN
 62
     3
100
AcDbLine
 10
9.756754159
 20
9.6730550514
 30
0.0
 11
11.506754194
 21
11.4230550864
 31
0.0
  0
LINE
  5
9B
330
1F
100
AcDbEntity
  8
TRDETAIL2
  6
HIDDEN
 62
     3
100
AcDbLine
 10
9.756754159
 20
9.8498317466
 30
0.0
 11
11.506754194
 21
11.5998317816
 31
0.0
  0
LINE
  5
9C
330
1F
100
AcDbEntity
  8
TRDETAIL2
  6
HIDDEN
 62
     3
100
AcDbLine
 10
9.756754159
 20
10.0266084419
 30
0.0
 11
11.506754194
 21
11.7766084769
 31
0.0
  0
LINE
  5
9D
330
1F
100
AcDbEntity
  8
TRDETAIL2
  6
HIDDEN
 62
     3
100
AcDbLine
 10
9.756754159
 20
10.2033851372
 30
0.0
 11
11.506754194
 21
11.9533851722
 31
0.0
  0
LINE
  5
9E
330
1F
100
AcDbEntity
  8
TRDETAIL2
  6
HIDDEN
 62
     3
100
AcDbLine
 10
9.756754159
 20
10.3801618325
 30
0.0
 11
11.506754194
 21
12.1301618675
 31
0.0
  0
LINE
  5
9F
330
1F
100
AcDbEntity
  8
TRDETAIL2
  6
HIDDEN
 62
     3
100
AcDbLine
 10
9.756754159
 20
10.5569385278
 30
0.0
 11
11.506754194
 21
12.3069385628
 31
0.0
  0
LINE
  5
A0
330
1F
100
AcDbEntity
  8
TRDETAIL2
  6
HIDDEN
 62
     3
100
AcDbLine
 10
9.756754159
 20
10.7337152231
 30
0.0
 11
11.506754194
 21
12.4837152581
 31
0.0
  0
LINE
  5
A1
330
1F
100
AcDbEntity
  8
TRDETAIL2
  6
HIDDEN
 62
     3
100
AcDbLine
 10
9.756754159
 20
10.9104919184
 30
0.0
 11
11.506754194
 21
12.6604919534
 31
0.0
  0
LINE
  5
A2
330
1F
100
AcDbEntity
  8
TRDETAIL2
  6
HIDDEN
 62
     3
100
AcDbLine
 10
9.756754159
 20
11.0872686137
 30
0.0
 11
11.506754194
 21
12.8372686487
 31
0.0
  0
LINE
  5
A3
330
1F
100
AcDbEntity
  8
TRDETAIL2
  6
HIDDEN
 62
     3
100
AcDbLine
 10
9.756754159
 20
11.264045309
 30
0.0
 11
11.506754194
 21
13.014045344
 31
0.0
  0
LINE
  5
A4
330
1F
100
AcDbEntity
  8
TRDETAIL2
  6
HIDDEN
 62
     3
100
AcDbLine
 10
9.756754159
 20
11.4408220043
 30
0.0
 11
11.506754194
 21
13.1908220393
 31
0.0
  0
LINE
  5
A5
330
1F
100
AcDbEntity
  8
TRDETAIL2
  6
HIDDEN
 62
     3
100
AcDbLine
 10
9.756754159
 20
11.6175986996
 30
0.0
 11
11.506754194
 21
13.3675987346
 31
0.0
  0
LINE
  5
A6
330
1F
100
AcDbEntity
  8
TRDETAIL2
  6
HIDDEN
 62
     3
100
AcDbLine
 10
9.756754159
 20
11.7943753949
 30
0.0
 11
11.506754194
 21
13.5443754299
 31
0.0
  0
LINE
  5
A7
330
1F
100
AcDbEntity
  8
TRDETAIL2
  6
HIDDEN
 62
     3
100
AcDbLine
 10
9.756754159
 20
11.9711520902
 30
0.0
 11
11.506754194
 21
13.7211521252
 31
0.0
  0
LINE
  5
A8
330
1F
100
AcDbEntity
  8
TRDETAIL2
  6
HIDDEN
 62
     3
100
AcDbLine
 10
9.756754159
 20
12.1479287855
 30
0.0
 11
11.506754194
 21
13.8979288205
 31
0.0
  0
LINE
  5
A9
330
1F
100
AcDbEntity
  8
TRDETAIL2
  6
HIDDEN
 62
     3
100
AcDbLine
 10
9.756754159
 20
12.3247054808
 30
0.0
 11
11.506754194
 21
14.0747055158
 31
0.0
  0
LINE
  5
AA
330
1F
100
AcDbEntity
  8
TRDETAIL2
  6
HIDDEN
 62
     3
100
AcDbLine
 10
9.756754159
 20
12.5014821761
 30
0.0
 11
11.506754194
 21
14.2514822111
 31
0.0
  0
LINE
  5
AB
330
1F
100
AcDbEntity
  8
TRDETAIL2
  6
HIDDEN
 62
     3
100
AcDbLine
 10
9.756754159
 20
12.6782588714
 30
0.0
 11
11.506754194
 21
14.4282589064
 31
0.0
  0
LINE
  5
AC
330
1F
100
AcDbEntity
  8
TRDETAIL2
  6
HIDDEN
 62
     3
100
AcDbLine
 10
9.756754159
 20
12.8550355667
 30
0.0
 11
11.506754194
 21
14.6050356017
 31
0.0
  0
LINE
  5
AD
330
1F
100
AcDbEntity
  8
TRMODEL1
  6
Continuous
 62
     4
100
AcDbLine
 10
11.6942541978
 20
8.6716819444
 30
0.0
 11
9.5692541553
 21
8.6716819444
 31
0.0
  0
LINE
  5
AE
330
1F
100
AcDbEntity
  8
TRMODEL1
  6
Continuous
 62
     2
100
AcDbLine
 10
8.8705785932
 20
9.8173611738
 30
0.0
 11
7.2059757378
 21
8.1527583185
 31
0.0
  0
LINE
  5
AF
330
1F
100
AcDbEntity
  8
TRMODEL1
  6
Continuous
 62
     2
100
AcDbLine
 10
7.2059757378
 20
8.1527583185
 30
0.0
 11
5.730723761
 21
8.1527583185
 31
0.0
  0
LINE
  5
B0
330
1F
100
AcDbEntity
  8
TRMODEL1
  6
Continuous
 62
     2
100
AcDbLine
 10
9.0427791447
 20
12.8748070285
 30
0.0
 11
9.4480041529
 21
12.8748070285
 31
0.0
  0
LINE
  5
B1
330
1F
100
AcDbEntity
  8
TRMODEL1
  6
Continuous
 62
     2
100
AcDbLine
 10
9.0427791447
 20
13.1481570339
 30
0.0
 11
9.4480041529
 21
13.1481570339
 31
0.0
  0
LINE
  5
B2
330
1F
100
AcDbEntity
  8
TRMODEL1
  6
Continuous
 62
     2
100
AcDbLine
 10
9.0427791448
 20
13.9685570503
 30
0.0
 11
9.4480041529
 21
13.9685570503
 31
0.0
  0
LINE
  5
B3
330
1F
100
AcDbEntity
  8
TRMODEL1
  6
Continuous
 62
     2
100
AcDbLine
 10
9.0427791447
 20
13.6952070449
 30
0.0
 11
9.4480041529
 21
13.6952070449
 31
0.0
  0
LINE
  5
B4
330
1F
100
AcDbEntity
  8
TRMODEL1
  6
Continuous
 62
     2
100
AcDbLine
 10
9.0427791447
 20
9.6248069635
 30
0.0
 11
9.4480041529
 21
9.6248069635
 31
0.0
  0
LINE
  5
B5
330
1F
100
AcDbEntity
  8
TRMODEL1
  6
Continuous
 62
     2
100
AcDbLine
 10
9.0427791447
 20
9.8981569689
 30
0.0
 11
9.4480041529
 21
9.8981569689
 31
0.0
  0
LINE
  5
B6
330
1F
100
AcDbEntity
  8
TRMODEL1
  6
Continuous
 62
     2
100
AcDbLine
 10
9.0427791448
 20
10.7185569853
 30
0.0
 11
9.4480041529
 21
10.7185569853
 31
0.0
  0
LINE
  5
B7
330
1F
100
AcDbEntity
  8
TRMODEL1
  6
Continuous
 62
     2
100
AcDbLine
 10
9.0427791447
 20
10.4452069799
 30
0.0
 11
9.4480041529
 21
10.4452069799
 31
0.0
  0
LINE
  5
B8
330
1F
100
AcDbEntity
  8
TRMODEL1
  6
Continuous
 62
     2
100
AcDbLine
 10
8.8291465552
 20
9.8587932118
 30
0.0
 11
9.119170821
 21
10.0659534016
 31
0.0
  0
LINE
  5
B9
330
1F
100
AcDbEntity
  8
TRMODEL1
  6
Continuous
 62
     2
100
AcDbLine
 10
9.119170821
 20
10.0659534016
 30
0.0
 11
8.9120106312
 21
9.7759291359
 31
0.0
  0
LINE
  5
BA
330
1F
100
AcDbEntity
  8
TRMODEL1
  6
Continuous
 62
     2
100
AcDbLine
 10
8.9120106312
 20
9.7759291359
 30
0.0
 11
8.8291465552
 21
9.8587932118
 31
0.0
  0
LINE
  5
BB
330
1F
100
AcDbEntity
  8
TRMODEL1
  6
Continuous
 62
     2
100
AcDbLine
 10
8.9792541435
 20
13.8358718228
 30
0.0
 11
8.9792541435
 21
13.007492256
 31
0.0
  0
LINE
  5
BC
330
1F
100
AcDbEntity
  8
TRMODEL1
  6
Continuous
 62
     2
100
AcDbLine
 10
8.9792541435
 20
10.5858717578
 30
0.0
 11
8.9792541435
 21
9.757492191
 31
0.0
  0
LINE
  5
BD
330
1F
100
AcDbEntity
  8
TRMODEL1
  6
Continuous
 62
     2
100
AcDbLine
 10
9.4636291532
 20
14.0857445527
 30
0.0
 11
9.553629155
 21
14.0857445527
 31
0.0
  0
LINE
  5
BE
330
1F
100
AcDbEntity
  8
TRMODEL1
  6
Continuous
 62
     2
100
AcDbLine
 10
9.4636291532
 20
12.7576195261
 30
0.0
 11
9.553629155
 21
12.7576195261
 31
0.0
  0
LINE
  5
BF
330
1F
100
AcDbEntity
  8
TRMODEL1
  6
Continuous
 62
     2
100
AcDbLine
 10
9.5692541553
 20
12.7732445264
 30
0.0
 11
9.5692541553
 21
14.0701195524
 31
0.0
  0
LINE
  5
C0
330
1F
100
AcDbEntity
  8
TRMODEL1
  6
Continuous
 62
     2
100
AcDbLine
 10
9.4480041529
 20
12.7732445264
 30
0.0
 11
9.4480041529
 21
14.0701195524
 31
0.0
  0
LINE
  5
C1
330
1F
100
AcDbEntity
  8
TRMODEL1
  6
Continuous
 62
     2
100
AcDbLine
 10
9.4636291532
 20
10.8357444877
 30
0.0
 11
9.553629155
 21
10.8357444877
 31
0.0
  0
LINE
  5
C2
330
1F
100
AcDbEntity
  8
TRMODEL1
  6
Continuous
 62
     2
100
AcDbLine
 10
9.4636291532
 20
9.5076194611
 30
0.0
 11
9.553629155
 21
9.5076194611
 31
0.0
  0
LINE
  5
C3
330
1F
100
AcDbEntity
  8
TRMODEL1
  6
Continuous
 62
     2
100
AcDbLine
 10
9.5692541553
 20
9.5232444614
 30
0.0
 11
9.5692541553
 21
10.8201194874
 31
0.0
  0
LINE
  5
C4
330
1F
100
AcDbEntity
  8
TRMODEL1
  6
Continuous
 62
     2
100
AcDbLine
 10
9.4480041529
 20
9.5232444614
 30
0.0
 11
9.4480041529
 21
10.8201194874
 31
0.0
  0
LINE
  5
C5
330
1F
100
AcDbEntity
  8
TRMODEL1
  6
Continuous
 62
     4
100
AcDbLine
 10
15.6419101395
 20
9.1091819531
 30
0.0
 11
11.6942541978
 21
9.1091819531
 31
0.0
  0
LINE
  5
C6
330
1F
100
AcDbEntity
  8
TRDETAIL2
  6
HIDDEN
 62
     3
100
AcDbLine
 10
15.6492077044
 20
9.2966819569
 30
0.0
 11
11.6942541978
 21
9.2966819569
 31
0.0
  0
LINE
  5
C7
330
1F
100
AcDbEntity
  8
TRMODEL1
  6
Continuous
 62
     4
100
AcDbLine
 10
15.6492077044
 20
12.3591820181
 30
0.0
 11
11.6942541978
 21
12.3591820181
 31
0.0
  0
LINE
  5
C8
330
1F
100
AcDbEntity
  8
TRDETAIL2
  6
HIDDEN
 62
     3
100
AcDbLine
 10
15.6492077044
 20
12.5466820219
 30
0.0
 11
11.6942541978
 21
12.5466820219
 31
0.0
  0
LINE
  5
C9
330
1F
100
AcDbEntity
  8
TRMODEL1
  6
Continuous
 62
     4
100
AcDbLine
 10
11.6942541978
 20
11.2341819956
 30
0.0
 11
15.6492077044
 21
11.2341819956
 31
0.0
  0
LINE
  5
CA
330
1F
100
AcDbEntity
  8
TRDETAIL2
  6
HIDDEN
 62
     3
100
AcDbLine
 10
11.6942541978
 20
11.0466819919
 30
0.0
 11
15.6492077044
 21
11.0466819919
 31
0.0
  0
LINE
  5
CB
330
1F
100
AcDbEntity
  8
TRDETAIL2
  6
HIDDEN
 62
     3
100
AcDbLine
 10
11.6942541978
 20
14.2966820569
 30
0.0
 11
15.6492077044
 21
14.2966820569
 31
0.0
  0
LINE
  5
CC
330
1F
100
AcDbEntity
  8
TRMODEL1
  6
Continuous
 62
     4
100
AcDbLine
 10
11.6942541978
 20
14.4841820606
 30
0.0
 11
15.641910188
 21
14.4841820606
 31
0.0
  0
LINE
  5
CD
330
1F
100
AcDbEntity
  8
TRMODEL1
  6
Continuous
 62
     2
100
AcDbLine
 10
13.3243480372
 20
6.9841820669
 30
0.0
 11
12.9493480372
 21
7.3591820669
 31
0.0
  0
LINE
  5
CE
330
1F
100
AcDbEntity
  8
TRMODEL1
  6
Continuous
 62
     2
100
AcDbLine
 10
13.1472177886
 20
6.9841820669
 30
0.0
 11
12.7722177886
 21
7.3591820669
 31
0.0
  0
LINE
  5
CF
330
1F
100
AcDbEntity
  8
TRMODEL1
  6
Continuous
 62
     2
100
AcDbLine
 10
12.9700875399
 20
6.9841820669
 30
0.0
 11
12.5950875399
 21
7.3591820669
 31
0.0
  0
LINE
  5
D0
330
1F
100
AcDbEntity
  8
TRMODEL1
  6
Continuous
 62
     2
100
AcDbLine
 10
12.7929572912
 20
6.9841820669
 30
0.0
 11
12.4179572912
 21
7.3591820669
 31
0.0
  0
LINE
  5
D1
330
1F
100
AcDbEntity
  8
TRMODEL1
  6
Continuous
 62
     2
100
AcDbLine
 10
12.6158270425
 20
6.9841820669
 30
0.0
 11
12.2408270425
 21
7.3591820669
 31
0.0
  0
LINE
  5
D2
330
1F
100
AcDbEntity
  8
TRMODEL1
  6
Continuous
 62
     2
100
AcDbLine
 10
12.4386967938
 20
6.9841820669
 30
0.0
 11
12.0636967938
 21
7.3591820669
 31
0.0
  0
LINE
  5
D3
330
1F
100
AcDbEntity
  8
TRMODEL1
  6
Continuous
 62
     2
100
AcDbLine
 10
12.2615665451
 20
6.9841820669
 30
0.0
 11
11.8954667084
 21
7.3502819036
 31
0.0
  0
LINE
  5
D4
330
1F
100
AcDbEntity
  8
TRMODEL1
  6
Continuous
 62
     2
100
AcDbLine
 10
12.0844362964
 20
6.9841820669
 30
0.0
 11
11.8367077044
 21
7.2319106589
 31
0.0
  0
LINE
  5
D5
330
1F
100
AcDbEntity
  8
TRMODEL1
  6
Continuous
 62
     2
100
AcDbLine
 10
11.9073060477
 20
6.9841820669
 30
0.0
 11
11.8367077044
 21
7.0547804103
 31
0.0
  0
LINE
  5
D6
330
1F
100
AcDbEntity
  8
TRMODEL1
  6
Continuous
 62
     2
100
AcDbLine
 10
13.6786085346
 20
6.9841820669
 30
0.0
 11
13.3036085346
 21
7.3591820669
 31
0.0
  0
LINE
  5
D7
330
1F
100
AcDbEntity
  8
TRMODEL1
  6
Continuous
 62
     2
100
AcDbLine
 10
13.5014782859
 20
6.9841820669
 30
0.0
 11
13.1264782859
 21
7.3591820669
 31
0.0
  0
LINE
  5
D8
330
1F
100
AcDbEntity
  8
TRDETAIL2
  6
HIDDEN
 62
     3
100
AcDbLine
 10
11.4070314815
 20
8.6716819444
 30
0.0
 11
11.506754194
 21
8.7714046569
 31
0.0
  0
LINE
  5
D9
330
1F
100
AcDbEntity
  8
TRDETAIL2
  6
HIDDEN
 62
     3
100
AcDbLine
 10
11.2302547862
 20
8.6716819444
 30
0.0
 11
11.506754194
 21
8.9481813522
 31
0.0
  0
LINE
  5
DA
330
1F
100
AcDbEntity
  8
TRMODEL1
  6
Continuous
 62
     2
100
AcDbLine
 10
19.984086197
 20
14.9841820669
 30
0.0
 11
11.8367077044
 21
14.9841820669
 31
0.0
  0
LINE
  5
DB
330
1F
100
AcDbEntity
  8
TRMODEL1
  6
Continuous
 62
     2
100
AcDbLine
 10
19.8749114561
 20
15.1216820969
 30
0.0
 11
11.8367077044
 21
15.1216820969
 31
0.0
  0
LINE
  5
DC
330
1F
100
AcDbEntity
  8
TRMODEL1
  6
Continuous
 62
     2
100
AcDbLine
 10
19.8497550249
 20
15.1716820969
 30
0.0
 11
11.8367077044
 21
15.1716820969
 31
0.0
  0
LINE
  5
DD
330
1F
100
AcDbEntity
  8
TRMODEL1
  6
Continuous
 62
     2
100
AcDbLine
 10
19.8303948944
 20
15.2216820969
 30
0.0
 11
11.8367077044
 21
15.2216820969
 31
0.0
  0
LINE
  5
DE
330
1F
100
AcDbEntity
  8
TRMODEL1
  6
Continuous
 62
     2
100
AcDbLine
 10
20.0715797509
 20
16.2591820969
 30
0.0
 11
11.8367077044
 21
16.2591820969
 31
0.0
  0
LINE
  5
DF
330
1F
100
AcDbEntity
  8
TRMODEL1
  6
Continuous
 62
     2
100
AcDbLine
 10
11.8367077044
 20
16.4841820669
 30
0.0
 11
20.0021516081
 21
16.4841820669
 31
0.0
  0
LINE
  5
E0
330
1F
100
AcDbEntity
  8
TRDETAIL2
  6
HIDDEN
 62
     3
100
AcDbLine
 10
9.756754159
 20
14.6228025197
 30
0.0
 11
11.506754194
 21
16.3728025547
 31
0.0
  0
LINE
  5
E1
330
1F
100
AcDbEntity
  8
TRDETAIL2
  6
HIDDEN
 62
     3
100
AcDbLine
 10
9.756754159
 20
14.799579215
 30
0.0
 11
11.506754194
 21
16.54957925
 31
0.0
  0
LINE
  5
E2
330
1F
100
AcDbEntity
  8
TRDETAIL2
  6
HIDDEN
 62
     3
100
AcDbLine
 10
9.756754159
 20
14.9763559103
 30
0.0
 11
11.506754194
 21
16.7263559453
 31
0.0
  0
LINE
  5
E3
330
1F
100
AcDbEntity
  8
TRDETAIL2
  6
HIDDEN
 62
     3
100
AcDbLine
 10
9.756754159
 20
15.1531326055
 30
0.0
 11
11.506754194
 21
16.9031326405
 31
0.0
  0
LINE
  5
E4
330
1F
100
AcDbEntity
  8
TRDETAIL2
  6
HIDDEN
 62
     3
100
AcDbLine
 10
9.756754159
 20
15.3299093008
 30
0.0
 11
11.506754194
 21
17.0799093358
 31
0.0
  0
LINE
  5
E5
330
1F
100
AcDbEntity
  8
TRDETAIL2
  6
HIDDEN
 62
     3
100
AcDbLine
 10
9.756754159
 20
15.5066859961
 30
0.0
 11
11.506754194
 21
17.2566860311
 31
0.0
  0
LINE
  5
E6
330
1F
100
AcDbEntity
  8
TRDETAIL2
  6
HIDDEN
 62
     3
100
AcDbLine
 10
9.756754159
 20
15.6834626914
 30
0.0
 11
11.506754194
 21
17.4334627264
 31
0.0
  0
LINE
  5
E7
330
1F
100
AcDbEntity
  8
TRDETAIL2
  6
HIDDEN
 62
     3
100
AcDbLine
 10
9.756754159
 20
15.8602393867
 30
0.0
 11
11.506754194
 21
17.6102394217
 31
0.0
  0
LINE
  5
E8
330
1F
100
AcDbEntity
  8
TRDETAIL2
  6
HIDDEN
 62
     3
100
AcDbLine
 10
9.756754159
 20
16.037016082
 30
0.0
 11
11.506754194
 21
17.787016117
 31
0.0
  0
LINE
  5
E9
330
1F
100
AcDbEntity
  8
TRDETAIL2
  6
HIDDEN
 62
     3
100
AcDbLine
 10
9.756754159
 20
16.2137927773
 30
0.0
 11
11.506754194
 21
17.9637928123
 31
0.0
  0
LINE
  5
EA
330
1F
100
AcDbEntity
  8
TRDETAIL2
  6
HIDDEN
 62
     3
100
AcDbLine
 10
9.756754159
 20
16.3905694726
 30
0.0
 11
11.506754194
 21
18.1405695076
 31
0.0
  0
LINE
  5
EB
330
1F
100
AcDbEntity
  8
TRDETAIL2
  6
HIDDEN
 62
     3
100
AcDbLine
 10
9.756754159
 20
16.5673461679
 30
0.0
 11
11.506754194
 21
18.3173462029
 31
0.0
  0
LINE
  5
EC
330
1F
100
AcDbEntity
  8
TRDETAIL2
  6
HIDDEN
 62
     3
100
AcDbLine
 10
9.756754159
 20
16.7441228632
 30
0.0
 11
11.506754194
 21
18.4941228982
 31
0.0
  0
LINE
  5
ED
330
1F
100
AcDbEntity
  8
TRDETAIL2
  6
HIDDEN
 62
     3
100
AcDbLine
 10
9.756754159
 20
16.9208995585
 30
0.0
 11
11.506754194
 21
18.6708995935
 31
0.0
  0
LINE
  5
EE
330
1F
100
AcDbEntity
  8
TRDETAIL2
  6
HIDDEN
 62
     3
100
AcDbLine
 10
9.756754159
 20
17.0976762538
 30
0.0
 11
11.3307598498
 21
18.6716819446
 31
0.0
  0
LINE
  5
EF
330
1F
100
AcDbEntity
  8
TRDETAIL2
  6
HIDDEN
 62
     3
100
AcDbLine
 10
11.506754194
 20
18.6716819446
 30
0.0
 11
9.756754159
 21
18.6716819446
 31
0.0
  0
LINE
  5
F0
330
1F
100
AcDbEntity
  8
TRMODEL1
  6
Continuous
 62
     2
100
AcDbLine
 10
9.7425982536
 20
17.6331156898
 30
0.0
 11
7.935393985
 21
17.6331156898
 31
0.0
  0
LINE
  5
F1
330
1F
100
AcDbEntity
  8
TRMODEL1
  6
Continuous
 62
     2
100
AcDbLine
 10
9.7425982536
 20
17.6917094398
 30
0.0
 11
10.0941607536
 21
17.6331156898
 31
0.0
  0
LINE
  5
F2
330
1F
100
AcDbEntity
  8
TRMODEL1
  6
Continuous
 62
     2
100
AcDbLine
 10
10.0941607536
 20
17.6331156898
 30
0.0
 11
9.7425982536
 21
17.5745219398
 31
0.0
  0
LINE
  5
F3
330
1F
100
AcDbEntity
  8
TRMODEL1
  6
Continuous
 62
     2
100
AcDbLine
 10
9.7425982536
 20
17.5745219398
 30
0.0
 11
9.7425982536
 21
17.6917094398
 31
0.0
  0
LINE
  5
F4
330
1F
100
AcDbEntity
  8
TRDETAIL2
  6
HIDDEN
 62
     3
100
AcDbLine
 10
9.756754159
 20
17.2744529491
 30
0.0
 11
11.1539831545
 21
18.6716819446
 31
0.0
  0
LINE
  5
F5
330
1F
100
AcDbEntity
  8
TRDETAIL2
  6
HIDDEN
 62
     3
100
AcDbLine
 10
9.756754159
 20
17.4512296444
 30
0.0
 11
10.9772064592
 21
18.6716819446
 31
0.0
  0
LINE
  5
F6
330
1F
100
AcDbEntity
  8
TRDETAIL2
  6
HIDDEN
 62
     3
100
AcDbLine
 10
9.756754159
 20
17.6280063397
 30
0.0
 11
10.8004297639
 21
18.6716819446
 31
0.0
  0
LINE
  5
F7
330
1F
100
AcDbEntity
  8
TRDETAIL2
  6
HIDDEN
 62
     3
100
AcDbLine
 10
9.756754159
 20
17.804783035
 30
0.0
 11
10.6236530686
 21
18.6716819446
 31
0.0
  0
LINE
  5
F8
330
1F
100
AcDbEntity
  8
TRDETAIL2
  6
HIDDEN
 62
     3
100
AcDbLine
 10
9.756754159
 20
17.9815597303
 30
0.0
 11
10.4468763733
 21
18.6716819446
 31
0.0
  0
LINE
  5
F9
330
1F
100
AcDbEntity
  8
TRDETAIL2
  6
HIDDEN
 62
     3
100
AcDbLine
 10
9.756754159
 20
18.1583364256
 30
0.0
 11
10.270099678
 21
18.6716819446
 31
0.0
  0
LINE
  5
FA
330
1F
100
AcDbEntity
  8
TRDETAIL2
  6
HIDDEN
 62
     3
100
AcDbLine
 10
9.756754159
 20
18.3351131209
 30
0.0
 11
10.0933229827
 21
18.6716819446
 31
0.0
  0
LINE
  5
FB
330
1F
100
AcDbEntity
  8
TRDETAIL2
  6
HIDDEN
 62
     3
100
AcDbLine
 10
9.756754159
 20
18.5118898162
 30
0.0
 11
9.9165462874
 21
18.6716819446
 31
0.0
  0
LINE
  5
FC
330
1F
100
AcDbEntity
  8
TRMODEL1
  6
Continuous
 62
     4
100
AcDbLine
 10
11.8367077044
 20
14.9841820669
 30
0.0
 11
16.9840861696
 21
14.9841820669
 31
0.0
  0
LINE
  5
FD
330
1F
100
AcDbEntity
  8
TRMODEL1
  6
Continuous
 62
     2
100
AcDbLine
 10
12.9951020671
 20
15.3687667655
 30
0.0
 11
13.1696622494
 21
15.5433269478
 31
0.0
  0
LINE
  5
FE
330
1F
100
AcDbEntity
  8
TRMODEL1
  6
Continuous
 62
     2
100
AcDbLine
 10
12.8466473111
 20
15.3970887048
 30
0.0
 11
13.2515177462
 21
15.8019591399
 31
0.0
  0
LINE
  5
FF
330
1F
100
AcDbEntity
  8
TRMODEL1
  6
Continuous
 62
     2
100
AcDbLine
 10
12.8466473111
 20
15.5738654001
 30
0.0
 11
13.2356426625
 21
15.9628607515
 31
0.0
  0
LINE
  5
100
330
1F
100
AcDbEntity
  8
TRMODEL1
  6
Continuous
 62
     2
100
AcDbLine
 10
12.8068894346
 20
15.7108842189
 30
0.0
 11
13.1564526583
 21
16.0604474426
 31
0.0
  0
LINE
  5
101
330
1F
100
AcDbEntity
  8
TRMODEL1
  6
Continuous
 62
     2
100
AcDbLine
 10
12.758916018
 20
15.8396874976
 30
0.0
 11
13.0276493795
 21
16.1084208591
 31
0.0
  0
LINE
  5
102
330
1F
100
AcDbEntity
  8
TRMODEL1
  6
Continuous
 62
     2
100
AcDbLine
 10
13.1696622494
 20
15.3687667655
 30
0.0
 11
12.8466473111
 21
15.3687667655
 31
0.0
  0
LINE
  5
103
330
1F
100
AcDbEntity
  8
TRMODEL1
  6
Continuous
 62
     2
100
AcDbLine
 10
11.8942542018
 20
19.2729823673
 30
0.0
 11
11.7692541993
 21
19.3979823698
 31
0.0
  0
LINE
  5
104
330
1F
100
AcDbEntity
  8
TRMODEL1
  6
Continuous
 62
     2
100
AcDbLine
 10
11.8942542018
 20
19.096205672
 30
0.0
 11
11.7692541993
 21
19.2212056745
 31
0.0
  0
LINE
  5
105
330
1F
100
AcDbEntity
  8
TRMODEL1
  6
Continuous
 62
     2
100
AcDbLine
 10
11.8942542018
 20
18.9194289767
 30
0.0
 11
11.7692541993
 21
19.0444289792
 31
0.0
  0
LINE
  5
106
330
1F
100
AcDbEntity
  8
TRMODEL1
  6
Continuous
 62
     2
100
AcDbLine
 10
11.8942542018
 20
18.7426522814
 30
0.0
 11
11.7692541993
 21
18.8676522839
 31
0.0
  0
LINE
  5
107
330
1F
100
AcDbEntity
  8
TRMODEL1
  6
Continuous
 62
     2
100
AcDbLine
 10
11.8942542018
 20
18.5658755861
 30
0.0
 11
11.7692541993
 21
18.6908755886
 31
0.0
  0
LINE
  5
108
330
1F
100
AcDbEntity
  8
TRMODEL1
  6
Continuous
 62
     2
100
AcDbLine
 10
11.8942542018
 20
18.3890988908
 30
0.0
 11
11.7692541993
 21
18.5140988933
 31
0.0
  0
LINE
  5
109
330
1F
100
AcDbEntity
  8
TRMODEL1
  6
Continuous
 62
     2
100
AcDbLine
 10
11.8942542018
 20
18.2123221955
 30
0.0
 11
11.7692541993
 21
18.337322198
 31
0.0
  0
LINE
  5
10A
330
1F
100
AcDbEntity
  8
TRMODEL1
  6
Continuous
 62
     2
100
AcDbLine
 10
11.8942542018
 20
18.0355455002
 30
0.0
 11
11.7692541993
 21
18.1605455027
 31
0.0
  0
LINE
  5
10B
330
1F
100
AcDbEntity
  8
TRMODEL1
  6
Continuous
 62
     2
100
AcDbLine
 10
11.8942542018
 20
17.8587688049
 30
0.0
 11
11.7692541993
 21
17.9837688074
 31
0.0
  0
LINE
  5
10C
330
1F
100
AcDbEntity
  8
TRMODEL1
  6
Continuous
 62
     2
100
AcDbLine
 10
12.1938368042
 20
17.5591862025
 30
0.0
 11
12.0192582884
 21
17.7337647183
 31
0.0
  0
LINE
  5
10D
330
1F
100
AcDbEntity
  8
TRMODEL1
  6
Continuous
 62
     2
100
AcDbLine
 10
11.967064192
 20
17.6091821194
 30
0.0
 11
11.7692541993
 21
17.8069921121
 31
0.0
  0
LINE
  5
10E
330
1F
100
AcDbEntity
  8
TRMODEL1
  6
Continuous
 62
     2
100
AcDbLine
 10
12.1942542078
 20
17.3819921036
 30
0.0
 11
12.0692542053
 21
17.5069921061
 31
0.0
  0
LINE
  5
10F
330
1F
100
AcDbEntity
  8
TRMODEL1
  6
Continuous
 62
     2
100
AcDbLine
 10
12.1942542078
 20
17.2052154083
 30
0.0
 11
12.0692542053
 21
17.3302154108
 31
0.0
  0
LINE
  5
110
330
1F
100
AcDbEntity
  8
TRMODEL1
  6
Continuous
 62
     2
100
AcDbLine
 10
12.1942542078
 20
17.028438713
 30
0.0
 11
12.0692542053
 21
17.1534387155
 31
0.0
  0
LINE
  5
111
330
1F
100
AcDbEntity
  8
TRMODEL1
  6
Continuous
 62
     2
100
AcDbLine
 10
12.1843543447
 20
16.8615618808
 30
0.0
 11
12.0692542053
 21
16.9766620202
 31
0.0
  0
LINE
  5
112
330
1F
100
AcDbEntity
  8
TRMODEL1
  6
Continuous
 62
     2
100
AcDbLine
 10
12.1063308068
 20
16.7628087234
 30
0.0
 11
12.0098792497
 21
16.8592602806
 31
0.0
  0
LINE
  5
113
330
1F
100
AcDbEntity
  8
TRMODEL1
  6
Continuous
 62
     2
100
AcDbLine
 10
11.958180733
 20
16.7341821019
 30
0.0
 11
11.8331807305
 21
16.8591821044
 31
0.0
  0
LINE
  5
114
330
1F
100
AcDbEntity
  8
TRMODEL1
  6
Continuous
 62
     2
100
AcDbLine
 10
11.7814040377
 20
16.7341821019
 30
0.0
 11
11.6942541978
 21
16.8213319419
 31
0.0
  0
LINE
  5
115
330
1F
100
AcDbEntity
  8
TRMODEL1
  6
Continuous
 62
     2
100
AcDbLine
 10
11.883704507
 20
14.6243843012
 30
0.0
 11
11.8519099387
 21
14.6561788695
 31
0.0
  0
LINE
  5
116
330
1F
100
AcDbEntity
  8
TRMODEL1
  6
Continuous
 62
     4
100
AcDbLine
 10
12.006754204
 20
16.8591821044
 30
0.0
 11
11.6942541978
 21
16.8591821044
 31
0.0
  0
LINE
  5
117
330
1F
100
AcDbEntity
  8
TRMODEL1
  6
Continuous
 62
     4
100
AcDbLine
 10
12.006754204
 20
16.7341821019
 30
0.0
 11
11.6942541978
 21
16.7341821019
 31
0.0
  0
LINE
  5
118
330
1F
100
AcDbEntity
  8
TRMODEL1
  6
Continuous
 62
     4
100
AcDbLine
 10
11.6942541978
 20
16.7341821019
 30
0.0
 11
11.6942541978
 21
16.8591821044
 31
0.0
  0
LINE
  5
119
330
1F
100
AcDbEntity
  8
TRMODEL1
  6
Continuous
 62
     4
100
AcDbLine
 10
11.956754203
 20
17.6091821194
 30
0.0
 11
12.006754204
 21
17.6091821194
 31
0.0
  0
LINE
  5
11A
330
1F
100
AcDbEntity
  8
TRMODEL1
  6
Continuous
 62
     4
100
AcDbLine
 10
11.956754203
 20
17.7341821219
 30
0.0
 11
12.006754204
 21
17.7341821219
 31
0.0
  0
LINE
  5
11B
330
1F
100
AcDbEntity
  8
TRMODEL1
  6
Continuous
 62
     4
100
AcDbLine
 10
12.0692542053
 20
17.5466821181
 30
0.0
 11
12.0692542053
 21
16.9216821056
 31
0.0
  0
LINE
  5
11C
330
1F
100
AcDbEntity
  8
TRMODEL1
  6
Continuous
 62
     4
100
AcDbLine
 10
12.1942542078
 20
17.5466821181
 30
0.0
 11
12.1942542078
 21
16.9216821056
 31
0.0
  0
LINE
  5
11D
330
1F
100
AcDbEntity
  8
TRMODEL1
  6
Continuous
 62
     2
100
AcDbLine
 10
12.8466473111
 20
15.5942375987
 30
0.0
 11
12.8778661332
 21
15.6458165222
 31
0.0
  0
LINE
  5
11E
330
1F
100
AcDbEntity
  8
TRMODEL1
  6
Continuous
 62
     2
100
AcDbLine
 10
12.8466473111
 20
15.3687667655
 30
0.0
 11
12.8466473111
 21
15.5942375987
 31
0.0
  0
LINE
  5
11F
330
1F
100
AcDbEntity
  8
TRMODEL1
  6
Continuous
 62
     2
100
AcDbLine
 10
11.8367077044
 20
14.9841820669
 30
0.0
 11
11.8367077044
 21
16.4841820669
 31
0.0
  0
LINE
  5
120
330
1F
100
AcDbEntity
  8
TRMODEL1
  6
Continuous
 62
     2
100
AcDbLine
 10
13.1696622494
 20
15.5942375987
 30
0.0
 11
13.1696622494
 21
15.3687667655
 31
0.0
  0
LINE
  5
121
330
1F
100
AcDbEntity
  8
TRMODEL1
  6
Continuous
 62
     2
100
AcDbLine
 10
13.1384434273
 20
15.6458165222
 30
0.0
 11
13.1696622494
 21
15.5942375987
 31
0.0
  0
LINE
  5
122
330
1F
100
AcDbEntity
  8
TRMODEL1
  6
Continuous
 62
     2
100
AcDbLine
 10
19.6926376835
 20
14.6091820669
 30
0.0
 11
19.3176376535
 21
14.9841820969
 31
0.0
  0
LINE
  5
123
330
1F
100
AcDbEntity
  8
TRMODEL1
  6
Continuous
 62
     2
100
AcDbLine
 10
19.5155074348
 20
14.6091820669
 30
0.0
 11
19.1405074048
 21
14.9841820969
 31
0.0
  0
LINE
  5
124
330
1F
100
AcDbEntity
  8
TRMODEL1
  6
Continuous
 62
     2
100
AcDbLine
 10
19.3383771862
 20
14.6091820669
 30
0.0
 11
18.9633771562
 21
14.9841820969
 31
0.0
  0
LINE
  5
125
330
1F
100
AcDbEntity
  8
TRMODEL1
  6
Continuous
 62
     2
100
AcDbLine
 10
19.1612469375
 20
14.6091820669
 30
0.0
 11
18.7862469075
 21
14.9841820969
 31
0.0
  0
LINE
  5
126
330
1F
100
AcDbEntity
  8
TRMODEL1
  6
Continuous
 62
     2
100
AcDbLine
 10
18.9841166888
 20
14.6091820669
 30
0.0
 11
18.6091166588
 21
14.9841820969
 31
0.0
  0
LINE
  5
127
330
1F
100
AcDbEntity
  8
TRMODEL1
  6
Continuous
 62
     2
100
AcDbLine
 10
18.8069864401
 20
14.6091820669
 30
0.0
 11
18.4319864101
 21
14.9841820969
 31
0.0
  0
LINE
  5
128
330
1F
100
AcDbEntity
  8
TRMODEL1
  6
Continuous
 62
     2
100
AcDbLine
 10
18.6298561914
 20
14.6091820669
 30
0.0
 11
18.2548561614
 21
14.9841820969
 31
0.0
  0
LINE
  5
129
330
1F
100
AcDbEntity
  8
TRMODEL1
  6
Continuous
 62
     2
100
AcDbLine
 10
18.4527259427
 20
14.6091820669
 30
0.0
 11
18.0777259127
 21
14.9841820969
 31
0.0
  0
LINE
  5
12A
330
1F
100
AcDbEntity
  8
TRMODEL1
  6
Continuous
 62
     2
100
AcDbLine
 10
18.275595694
 20
14.6091820669
 30
0.0
 11
17.900595664
 21
14.9841820969
 31
0.0
  0
LINE
  5
12B
330
1F
100
AcDbEntity
  8
TRMODEL1
  6
Continuous
 62
     2
100
AcDbLine
 10
18.0984654453
 20
14.6091820669
 30
0.0
 11
17.7234654153
 21
14.9841820969
 31
0.0
  0
LINE
  5
12C
330
1F
100
AcDbEntity
  8
TRMODEL1
  6
Continuous
 62
     2
100
AcDbLine
 10
17.9213351967
 20
14.6091820669
 30
0.0
 11
17.5463351667
 21
14.9841820969
 31
0.0
  0
LINE
  5
12D
330
1F
100
AcDbEntity
  8
TRMODEL1
  6
Continuous
 62
     2
100
AcDbLine
 10
17.744204948
 20
14.6091820669
 30
0.0
 11
17.369204918
 21
14.9841820969
 31
0.0
  0
LINE
  5
12E
330
1F
100
AcDbEntity
  8
TRMODEL1
  6
Continuous
 62
     2
100
AcDbLine
 10
17.5670746993
 20
14.6091820669
 30
0.0
 11
17.1920746693
 21
14.9841820969
 31
0.0
  0
LINE
  5
12F
330
1F
100
AcDbEntity
  8
TRMODEL1
  6
Continuous
 62
     2
100
AcDbLine
 10
17.3899444506
 20
14.6091820669
 30
0.0
 11
17.0149444206
 21
14.9841820969
 31
0.0
  0
LINE
  5
130
330
1F
100
AcDbEntity
  8
TRMODEL1
  6
Continuous
 62
     2
100
AcDbLine
 10
17.2128142019
 20
14.6091820669
 30
0.0
 11
16.8378141719
 21
14.9841820969
 31
0.0
  0
LINE
  5
131
330
1F
100
AcDbEntity
  8
TRMODEL1
  6
Continuous
 62
     2
100
AcDbLine
 10
19.0055097071
 20
15.3687667655
 30
0.0
 11
19.1696622494
 21
15.5329193077
 31
0.0
  0
LINE
  5
132
330
1F
100
AcDbEntity
  8
TRMODEL1
  6
Continuous
 62
     2
100
AcDbLine
 10
18.8466473111
 20
15.3866810647
 30
0.0
 11
19.2477393191
 21
15.7877730728
 31
0.0
  0
LINE
  5
133
330
1F
100
AcDbEntity
  8
TRMODEL1
  6
Continuous
 62
     2
100
AcDbLine
 10
18.8466473111
 20
15.56345776
 30
0.0
 11
19.2388066582
 21
15.9556171071
 31
0.0
  0
LINE
  5
134
330
1F
100
AcDbEntity
  8
TRMODEL1
  6
Continuous
 62
     2
100
AcDbLine
 10
18.8113836551
 20
15.7049707993
 30
0.0
 11
19.1623660778
 21
16.0559532221
 31
0.0
  0
LINE
  5
135
330
1F
100
AcDbEntity
  8
TRMODEL1
  6
Continuous
 62
     2
100
AcDbLine
 10
18.759839945
 20
15.8302037845
 30
0.0
 11
19.0371330926
 21
16.1074969322
 31
0.0
  0
LINE
  5
136
330
1F
100
AcDbEntity
  8
TRMODEL1
  6
Continuous
 62
     2
100
AcDbLine
 10
19.8367077044
 20
14.8193725434
 30
0.0
 11
19.6718981509
 21
14.9841820969
 31
0.0
  0
LINE
  5
137
330
1F
100
AcDbEntity
  8
TRMODEL1
  6
Continuous
 62
     2
100
AcDbLine
 10
19.8219892207
 20
14.6569607784
 30
0.0
 11
19.4947679022
 21
14.9841820969
 31
0.0
  0
LINE
  5
138
330
1F
100
AcDbEntity
  8
TRMODEL1
  6
Continuous
 62
     2
100
AcDbLine
 10
18.8466473111
 20
15.5942375987
 30
0.0
 11
18.8778661332
 21
15.6458165222
 31
0.0
  0
LINE
  5
139
330
1F
100
AcDbEntity
  8
TRMODEL1
  6
Continuous
 62
     2
100
AcDbLine
 10
19.1384434273
 20
15.6458165222
 30
0.0
 11
19.1696622494
 21
15.5942375987
 31
0.0
  0
LINE
  5
13A
330
1F
100
AcDbEntity
  8
TRMODEL1
  6
Continuous
 62
     2
100
AcDbLine
 10
19.1696622494
 20
15.5942375987
 30
0.0
 11
19.1696622494
 21
15.3687667655
 31
0.0
  0
LINE
  5
13B
330
1F
100
AcDbEntity
  8
TRMODEL1
  6
Continuous
 62
     2
100
AcDbLine
 10
19.1696622494
 20
15.3687667655
 30
0.0
 11
18.8466473111
 21
15.3687667655
 31
0.0
  0
LINE
  5
13C
330
1F
100
AcDbEntity
  8
TRMODEL1
  6
Continuous
 62
     2
100
AcDbLine
 10
18.8466473111
 20
15.3687667655
 30
0.0
 11
18.8466473111
 21
15.5942375987
 31
0.0
  0
LINE
  5
13D
330
1F
100
AcDbEntity
  8
TRMODEL1
  6
Continuous
 62
     2
100
AcDbLine
 10
17.0356839532
 20
14.6091820669
 30
0.0
 11
16.6606839232
 21
14.9841820969
 31
0.0
  0
LINE
  5
13E
330
1F
100
AcDbEntity
  8
TRMODEL1
  6
Continuous
 62
     2
100
AcDbLine
 10
16.8585537045
 20
14.6091820669
 30
0.0
 11
16.4835536745
 21
14.9841820969
 31
0.0
  0
LINE
  5
13F
330
1F
100
AcDbEntity
  8
TRMODEL1
  6
Continuous
 62
     2
100
AcDbLine
 10
16.6814234558
 20
14.6091820669
 30
0.0
 11
16.3064234258
 21
14.9841820969
 31
0.0
  0
LINE
  5
140
330
1F
100
AcDbEntity
  8
TRMODEL1
  6
Continuous
 62
     2
100
AcDbLine
 10
16.5042932072
 20
14.6091820669
 30
0.0
 11
16.1292931772
 21
14.9841820969
 31
0.0
  0
LINE
  5
141
330
1F
100
AcDbEntity
  8
TRMODEL1
  6
Continuous
 62
     2
100
AcDbLine
 10
16.3271629585
 20
14.6091820669
 30
0.0
 11
15.9521629285
 21
14.9841820969
 31
0.0
  0
LINE
  5
142
330
1F
100
AcDbEntity
  8
TRMODEL1
  6
Continuous
 62
     2
100
AcDbLine
 10
16.1500327098
 20
14.6091820669
 30
0.0
 11
15.7750326798
 21
14.9841820969
 31
0.0
  0
LINE
  5
143
330
1F
100
AcDbEntity
  8
TRMODEL1
  6
Continuous
 62
     2
100
AcDbLine
 10
16.0326616612
 20
14.5494228668
 30
0.0
 11
15.5979024311
 21
14.9841820969
 31
0.0
  0
LINE
  5
144
330
1F
100
AcDbEntity
  8
TRMODEL1
  6
Continuous
 62
     2
100
AcDbLine
 10
16.0242077044
 20
14.3807465749
 30
0.0
 11
15.4207721824
 21
14.9841820969
 31
0.0
  0
LINE
  5
145
330
1F
100
AcDbEntity
  8
TRMODEL1
  6
Continuous
 62
     2
100
AcDbLine
 10
16.0242077044
 20
14.2036163262
 30
0.0
 11
15.2436419337
 21
14.9841820969
 31
0.0
  0
LINE
  5
146
330
1F
100
AcDbEntity
  8
TRMODEL1
  6
Continuous
 62
     2
100
AcDbLine
 10
15.441511715
 20
14.6091820669
 30
0.0
 11
15.066511685
 21
14.9841820969
 31
0.0
  0
LINE
  5
147
330
1F
100
AcDbEntity
  8
TRMODEL1
  6
Continuous
 62
     2
100
AcDbLine
 10
15.2643814663
 20
14.6091820669
 30
0.0
 11
14.8893814364
 21
14.9841820969
 31
0.0
  0
LINE
  5
148
330
1F
100
AcDbEntity
  8
TRMODEL1
  6
Continuous
 62
     2
100
AcDbLine
 10
15.0872512177
 20
14.6091820669
 30
0.0
 11
14.7122511877
 21
14.9841820969
 31
0.0
  0
LINE
  5
149
330
1F
100
AcDbEntity
  8
TRMODEL1
  6
Continuous
 62
     2
100
AcDbLine
 10
14.910120969
 20
14.6091820669
 30
0.0
 11
14.535120939
 21
14.9841820969
 31
0.0
  0
LINE
  5
14A
330
1F
100
AcDbEntity
  8
TRMODEL1
  6
Continuous
 62
     2
100
AcDbLine
 10
14.7329907203
 20
14.6091820669
 30
0.0
 11
14.3579906903
 21
14.9841820969
 31
0.0
  0
LINE
  5
14B
330
1F
100
AcDbEntity
  8
TRMODEL1
  6
Continuous
 62
     2
100
AcDbLine
 10
14.5558604716
 20
14.6091820669
 30
0.0
 11
14.1808604416
 21
14.9841820969
 31
0.0
  0
LINE
  5
14C
330
1F
100
AcDbEntity
  8
TRMODEL1
  6
Continuous
 62
     2
100
AcDbLine
 10
14.3787302229
 20
14.6091820669
 30
0.0
 11
14.0037301929
 21
14.9841820969
 31
0.0
  0
LINE
  5
14D
330
1F
100
AcDbEntity
  8
TRMODEL1
  6
Continuous
 62
     2
100
AcDbLine
 10
14.2015999742
 20
14.6091820669
 30
0.0
 11
13.8265999442
 21
14.9841820969
 31
0.0
  0
LINE
  5
14E
330
1F
100
AcDbEntity
  8
TRMODEL1
  6
Continuous
 62
     2
100
AcDbLine
 10
14.0244697255
 20
14.6091820669
 30
0.0
 11
13.6494696955
 21
14.9841820969
 31
0.0
  0
LINE
  5
14F
330
1F
100
AcDbEntity
  8
TRMODEL1
  6
Continuous
 62
     2
100
AcDbLine
 10
13.8473394769
 20
14.6091820669
 30
0.0
 11
13.4723394469
 21
14.9841820969
 31
0.0
  0
LINE
  5
150
330
1F
100
AcDbEntity
  8
TRMODEL1
  6
Continuous
 62
     2
100
AcDbLine
 10
16.6288077165
 20
10.4452069799
 30
0.0
 11
16.1454577068
 21
10.4452069799
 31
0.0
  0
LINE
  5
151
330
1F
100
AcDbEntity
  8
TRMODEL1
  6
Continuous
 62
     2
100
AcDbLine
 10
16.6288077164
 20
10.7185569853
 30
0.0
 11
16.1454577068
 21
10.7185569853
 31
0.0
  0
LINE
  5
152
330
1F
100
AcDbEntity
  8
TRMODEL1
  6
Continuous
 62
     2
100
AcDbLine
 10
16.6288077165
 20
9.8981569689
 30
0.0
 11
16.1454577068
 21
9.8981569689
 31
0.0
  0
LINE
  5
153
330
1F
100
AcDbEntity
  8
TRMODEL1
  6
Continuous
 62
     2
100
AcDbLine
 10
16.6288077165
 20
9.6248069635
 30
0.0
 11
16.1454577068
 21
9.6248069635
 31
0.0
  0
LINE
  5
154
330
1F
100
AcDbEntity
  8
TRMODEL1
  6
Continuous
 62
     2
100
AcDbLine
 10
16.6288077165
 20
13.6952070449
 30
0.0
 11
16.1454577068
 21
13.6952070449
 31
0.0
  0
LINE
  5
155
330
1F
100
AcDbEntity
  8
TRMODEL1
  6
Continuous
 62
     2
100
AcDbLine
 10
16.6288077164
 20
13.9685570503
 30
0.0
 11
16.1454577068
 21
13.9685570503
 31
0.0
  0
LINE
  5
156
330
1F
100
AcDbEntity
  8
TRMODEL1
  6
Continuous
 62
     2
100
AcDbLine
 10
16.6288077165
 20
13.1481570339
 30
0.0
 11
16.1454577068
 21
13.1481570339
 31
0.0
  0
LINE
  5
157
330
1F
100
AcDbEntity
  8
TRMODEL1
  6
Continuous
 62
     2
100
AcDbLine
 10
16.6288077165
 20
12.8748070285
 30
0.0
 11
16.1454577068
 21
12.8748070285
 31
0.0
  0
LINE
  5
158
330
1F
100
AcDbEntity
  8
TRMODEL1
  6
Continuous
 62
     2
100
AcDbLine
 10
16.1298327065
 20
10.8357444877
 30
0.0
 11
16.0398327047
 21
10.8357444877
 31
0.0
  0
LINE
  5
159
330
1F
100
AcDbEntity
  8
TRMODEL1
  6
Continuous
 62
     2
100
AcDbLine
 10
16.1298327065
 20
9.5076194611
 30
0.0
 11
16.0398327047
 21
9.5076194611
 31
0.0
  0
LINE
  5
15A
330
1F
100
AcDbEntity
  8
TRMODEL1
  6
Continuous
 62
     2
100
AcDbLine
 10
16.0242077044
 20
9.5232444614
 30
0.0
 11
16.0242077044
 21
10.8201194874
 31
0.0
  0
LINE
  5
15B
330
1F
100
AcDbEntity
  8
TRMODEL1
  6
Continuous
 62
     2
100
AcDbLine
 10
16.1454577068
 20
9.5232444614
 30
0.0
 11
16.1454577068
 21
10.8201194874
 31
0.0
  0
LINE
  5
15C
330
1F
100
AcDbEntity
  8
TRMODEL1
  6
Continuous
 62
     2
100
AcDbLine
 10
16.1298327065
 20
14.0857445527
 30
0.0
 11
16.0398327047
 21
14.0857445527
 31
0.0
  0
LINE
  5
15D
330
1F
100
AcDbEntity
  8
TRMODEL1
  6
Continuous
 62
     2
100
AcDbLine
 10
16.1298327065
 20
12.7576195261
 30
0.0
 11
16.0398327047
 21
12.7576195261
 31
0.0
  0
LINE
  5
15E
330
1F
100
AcDbEntity
  8
TRMODEL1
  6
Continuous
 62
     2
100
AcDbLine
 10
16.0242077044
 20
12.7732445264
 30
0.0
 11
16.0242077044
 21
14.0701195524
 31
0.0
  0
LINE
  5
15F
330
1F
100
AcDbEntity
  8
TRMODEL1
  6
Continuous
 62
     2
100
AcDbLine
 10
16.1454577068
 20
12.7732445264
 30
0.0
 11
16.1454577068
 21
14.0701195524
 31
0.0
  0
LINE
  5
160
330
1F
100
AcDbEntity
  8
TRMODEL1
  6
Continuous
 62
     2
100
AcDbLine
 10
16.0242077044
 20
14.0264860776
 30
0.0
 11
15.6492077044
 21
14.4014860776
 31
0.0
  0
LINE
  5
161
330
1F
100
AcDbEntity
  8
TRMODEL1
  6
Continuous
 62
     2
100
AcDbLine
 10
16.0242077044
 20
13.8493558289
 30
0.0
 11
15.6492077044
 21
14.2243558289
 31
0.0
  0
LINE
  5
162
330
1F
100
AcDbEntity
  8
TRMODEL1
  6
Continuous
 62
     2
100
AcDbLine
 10
16.0242077044
 20
13.6722255802
 30
0.0
 11
15.6492077044
 21
14.0472255802
 31
0.0
  0
LINE
  5
163
330
1F
100
AcDbEntity
  8
TRMODEL1
  6
Continuous
 62
     2
100
AcDbLine
 10
16.0242077044
 20
13.4950953315
 30
0.0
 11
15.6492077044
 21
13.8700953315
 31
0.0
  0
LINE
  5
164
330
1F
100
AcDbEntity
  8
TRMODEL1
  6
Continuous
 62
     2
100
AcDbLine
 10
16.0242077044
 20
13.3179650828
 30
0.0
 11
15.6492077044
 21
13.6929650828
 31
0.0
  0
LINE
  5
165
330
1F
100
AcDbEntity
  8
TRMODEL1
  6
Continuous
 62
     2
100
AcDbLine
 10
16.0242077044
 20
13.1408348341
 30
0.0
 11
15.6492077044
 21
13.5158348341
 31
0.0
  0
LINE
  5
166
330
1F
100
AcDbEntity
  8
TRMODEL1
  6
Continuous
 62
     2
100
AcDbLine
 10
16.0242077044
 20
12.9637045854
 30
0.0
 11
15.6492077044
 21
13.3387045854
 31
0.0
  0
LINE
  5
167
330
1F
100
AcDbEntity
  8
TRMODEL1
  6
Continuous
 62
     2
100
AcDbLine
 10
16.0242077044
 20
12.7865743367
 30
0.0
 11
15.6492077044
 21
13.1615743367
 31
0.0
  0
LINE
  5
168
330
1F
100
AcDbEntity
  8
TRMODEL1
  6
Continuous
 62
     2
100
AcDbLine
 10
16.0242077044
 20
12.6094440881
 30
0.0
 11
15.6492077044
 21
12.9844440881
 31
0.0
  0
LINE
  5
169
330
1F
100
AcDbEntity
  8
TRMODEL1
  6
Continuous
 62
     2
100
AcDbLine
 10
16.0242077044
 20
12.4323138394
 30
0.0
 11
15.6492077044
 21
12.8073138394
 31
0.0
  0
LINE
  5
16A
330
1F
100
AcDbEntity
  8
TRMODEL1
  6
Continuous
 62
     2
100
AcDbLine
 10
16.0242077044
 20
12.2551835907
 30
0.0
 11
15.6492077044
 21
12.6301835907
 31
0.0
  0
LINE
  5
16B
330
1F
100
AcDbEntity
  8
TRMODEL1
  6
Continuous
 62
     2
100
AcDbLine
 10
16.0242077044
 20
12.078053342
 30
0.0
 11
15.6492077044
 21
12.453053342
 31
0.0
  0
LINE
  5
16C
330
1F
100
AcDbEntity
  8
TRMODEL1
  6
Continuous
 62
     2
100
AcDbLine
 10
16.0242077044
 20
11.9009230933
 30
0.0
 11
15.6492077044
 21
12.2759230933
 31
0.0
  0
LINE
  5
16D
330
1F
100
AcDbEntity
  8
TRMODEL1
  6
Continuous
 62
     2
100
AcDbLine
 10
16.0242077044
 20
11.7237928446
 30
0.0
 11
15.6492077044
 21
12.0987928446
 31
0.0
  0
LINE
  5
16E
330
1F
100
AcDbEntity
  8
TRMODEL1
  6
Continuous
 62
     2
100
AcDbLine
 10
16.0242077044
 20
11.5466625959
 30
0.0
 11
15.6492077044
 21
11.9216625959
 31
0.0
  0
LINE
  5
16F
330
1F
100
AcDbEntity
  8
TRMODEL1
  6
Continuous
 62
     2
100
AcDbLine
 10
16.0242077044
 20
11.3695323472
 30
0.0
 11
15.6492077044
 21
11.7445323472
 31
0.0
  0
LINE
  5
170
330
1F
100
AcDbEntity
  8
TRMODEL1
  6
Continuous
 62
     2
100
AcDbLine
 10
16.0242077044
 20
11.1924020986
 30
0.0
 11
15.6492077044
 21
11.5674020986
 31
0.0
  0
LINE
  5
171
330
1F
100
AcDbEntity
  8
TRMODEL1
  6
Continuous
 62
     2
100
AcDbLine
 10
16.0242077044
 20
11.0152718499
 30
0.0
 11
15.6492077044
 21
11.3902718499
 31
0.0
  0
LINE
  5
172
330
1F
100
AcDbEntity
  8
TRMODEL1
  6
Continuous
 62
     2
100
AcDbLine
 10
16.0242077044
 20
10.8381416012
 30
0.0
 11
15.6492077044
 21
11.2131416012
 31
0.0
  0
LINE
  5
173
330
1F
100
AcDbEntity
  8
TRMODEL1
  6
Continuous
 62
     2
100
AcDbLine
 10
16.0242077044
 20
10.6610113525
 30
0.0
 11
15.6492077044
 21
11.0360113525
 31
0.0
  0
LINE
  5
174
330
1F
100
AcDbEntity
  8
TRMODEL1
  6
Continuous
 62
     2
100
AcDbLine
 10
16.0242077044
 20
10.4838811038
 30
0.0
 11
15.6492077044
 21
10.8588811038
 31
0.0
  0
LINE
  5
175
330
1F
100
AcDbEntity
  8
TRMODEL1
  6
Continuous
 62
     2
100
AcDbLine
 10
16.0242077044
 20
10.3067508551
 30
0.0
 11
15.6492077044
 21
10.6817508551
 31
0.0
  0
LINE
  5
176
330
1F
100
AcDbEntity
  8
TRMODEL1
  6
Continuous
 62
     2
100
AcDbLine
 10
16.0242077044
 20
10.1296206064
 30
0.0
 11
15.6492077044
 21
10.5046206064
 31
0.0
  0
LINE
  5
177
330
1F
100
AcDbEntity
  8
TRMODEL1
  6
Continuous
 62
     2
100
AcDbLine
 10
16.0242077044
 20
9.9524903577
 30
0.0
 11
15.6492077044
 21
10.3274903577
 31
0.0
  0
LINE
  5
178
330
1F
100
AcDbEntity
  8
TRMODEL1
  6
Continuous
 62
     2
100
AcDbLine
 10
16.0242077044
 20
9.7753601091
 30
0.0
 11
15.6492077044
 21
10.1503601091
 31
0.0
  0
LINE
  5
179
330
1F
100
AcDbEntity
  8
TRMODEL1
  6
Continuous
 62
     2
100
AcDbLine
 10
16.0242077044
 20
9.5982298604
 30
0.0
 11
15.6492077044
 21
9.9732298604
 31
0.0
  0
LINE
  5
17A
330
1F
100
AcDbEntity
  8
TRMODEL1
  6
Continuous
 62
     2
100
AcDbLine
 10
16.0242077044
 20
9.4210996117
 30
0.0
 11
15.6492077044
 21
9.7960996117
 31
0.0
  0
LINE
  5
17B
330
1F
100
AcDbEntity
  8
TRMODEL1
  6
Continuous
 62
     2
100
AcDbLine
 10
16.0242077044
 20
9.243969363
 30
0.0
 11
15.6492077044
 21
9.618969363
 31
0.0
  0
LINE
  5
17C
330
1F
100
AcDbEntity
  8
TRMODEL1
  6
Continuous
 62
     2
100
AcDbLine
 10
16.6923327177
 20
10.5858717578
 30
0.0
 11
16.6923327177
 21
9.757492191
 31
0.0
  0
LINE
  5
17D
330
1F
100
AcDbEntity
  8
TRMODEL1
  6
Continuous
 62
     2
100
AcDbLine
 10
16.942166654
 20
9.8461716108
 30
0.0
 11
17.0090827241
 21
9.9933049584
 31
0.0
  0
LINE
  5
17E
330
1F
100
AcDbEntity
  8
TRMODEL1
  6
Continuous
 62
     2
100
AcDbLine
 10
16.942166654
 20
10.4971923379
 30
0.0
 11
17.0090827241
 21
10.3500589904
 31
0.0
  0
LINE
  5
17F
330
1F
100
AcDbEntity
  8
TRMODEL1
  6
Continuous
 62
     2
100
AcDbLine
 10
17.0090827241
 20
9.9933049584
 30
0.0
 11
17.0090827241
 21
10.3500589904
 31
0.0
  0
LINE
  5
180
330
1F
100
AcDbEntity
  8
TRMODEL1
  6
Continuous
 62
     2
100
AcDbLine
 10
16.942166654
 20
9.8461716108
 30
0.0
 11
16.6923327177
 21
9.8461716108
 31
0.0
  0
LINE
  5
181
330
1F
100
AcDbEntity
  8
TRMODEL1
  6
Continuous
 62
     2
100
AcDbLine
 10
16.942166654
 20
10.4971923379
 30
0.0
 11
16.6923327177
 21
10.4971923379
 31
0.0
  0
LINE
  5
182
330
1F
100
AcDbEntity
  8
TRMODEL1
  6
Continuous
 62
     2
100
AcDbLine
 10
16.6923327177
 20
13.8358718228
 30
0.0
 11
16.6923327177
 21
13.007492256
 31
0.0
  0
LINE
  5
183
330
1F
100
AcDbEntity
  8
TRMODEL1
  6
Continuous
 62
     2
100
AcDbLine
 10
16.942166654
 20
13.0961716758
 30
0.0
 11
17.0090827241
 21
13.2433050234
 31
0.0
  0
LINE
  5
184
330
1F
100
AcDbEntity
  8
TRMODEL1
  6
Continuous
 62
     2
100
AcDbLine
 10
16.942166654
 20
13.7471924029
 30
0.0
 11
17.0090827241
 21
13.6000590554
 31
0.0
  0
LINE
  5
185
330
1F
100
AcDbEntity
  8
TRMODEL1
  6
Continuous
 62
     2
100
AcDbLine
 10
17.0090827241
 20
13.2433050234
 30
0.0
 11
17.0090827241
 21
13.6000590554
 31
0.0
  0
LINE
  5
186
330
1F
100
AcDbEntity
  8
TRMODEL1
  6
Continuous
 62
     2
100
AcDbLine
 10
16.942166654
 20
13.0961716758
 30
0.0
 11
16.6923327177
 21
13.0961716758
 31
0.0
  0
LINE
  5
187
330
1F
100
AcDbEntity
  8
TRMODEL1
  6
Continuous
 62
     2
100
AcDbLine
 10
16.942166654
 20
13.7471924029
 30
0.0
 11
16.6923327177
 21
13.7471924029
 31
0.0
  0
LINE
  5
188
330
1F
100
AcDbEntity
  8
TRMODEL1
  6
Continuous
 62
     2
100
AcDbLine
 10
18.6382554979
 20
6.9841820669
 30
0.0
 11
18.2632554979
 21
7.3591820669
 31
0.0
  0
LINE
  5
189
330
1F
100
AcDbEntity
  8
TRMODEL1
  6
Continuous
 62
     2
100
AcDbLine
 10
18.4611252492
 20
6.9841820669
 30
0.0
 11
18.0861252492
 21
7.3591820669
 31
0.0
  0
LINE
  5
18A
330
1F
100
AcDbEntity
  8
TRMODEL1
  6
Continuous
 62
     2
100
AcDbLine
 10
16.0242077044
 20
8.0040576222
 30
0.0
 11
15.6492077044
 21
8.3790576222
 31
0.0
  0
LINE
  5
18B
330
1F
100
AcDbEntity
  8
TRMODEL1
  6
Continuous
 62
     2
100
AcDbLine
 10
16.0242077044
 20
7.8269273735
 30
0.0
 11
15.6492077044
 21
8.2019273735
 31
0.0
  0
LINE
  5
18C
330
1F
100
AcDbEntity
  8
TRMODEL1
  6
Continuous
 62
     2
100
AcDbLine
 10
16.866953011
 20
6.9841820669
 30
0.0
 11
16.491953011
 21
7.3591820669
 31
0.0
  0
LINE
  5
18D
330
1F
100
AcDbEntity
  8
TRMODEL1
  6
Continuous
 62
     2
100
AcDbLine
 10
16.6898227623
 20
6.9841820669
 30
0.0
 11
16.3148227623
 21
7.3591820669
 31
0.0
  0
LINE
  5
18E
330
1F
100
AcDbEntity
  8
TRMODEL1
  6
Continuous
 62
     2
100
AcDbLine
 10
16.0242077044
 20
7.6497971248
 30
0.0
 11
15.6492077044
 21
8.0247971248
 31
0.0
  0
LINE
  5
18F
330
1F
100
AcDbEntity
  8
TRMODEL1
  6
Continuous
 62
     2
100
AcDbLine
 10
16.0242077044
 20
7.4726668761
 30
0.0
 11
15.6492077044
 21
7.8476668761
 31
0.0
  0
LINE
  5
190
330
1F
100
AcDbEntity
  8
TRMODEL1
  6
Continuous
 62
     2
100
AcDbLine
 10
16.5126925136
 20
6.9841820669
 30
0.0
 11
16.1376925136
 21
7.3591820669
 31
0.0
  0
LINE
  5
191
330
1F
100
AcDbEntity
  8
TRMODEL1
  6
Continuous
 62
     2
100
AcDbLine
 10
16.3355622649
 20
6.9841820669
 30
0.0
 11
15.6492077044
 21
7.6705366274
 31
0.0
  0
LINE
  5
192
330
1F
100
AcDbEntity
  8
TRMODEL1
  6
Continuous
 62
     2
100
AcDbLine
 10
16.1584320162
 20
6.9841820669
 30
0.0
 11
15.6492077044
 21
7.4934063788
 31
0.0
  0
LINE
  5
193
330
1F
100
AcDbEntity
  8
TRMODEL1
  6
Continuous
 62
     2
100
AcDbLine
 10
15.9813017675
 20
6.9841820669
 30
0.0
 11
15.5951325524
 21
7.3703512821
 31
0.0
  0
LINE
  5
194
330
1F
100
AcDbEntity
  8
TRMODEL1
  6
Continuous
 62
     2
100
AcDbLine
 10
15.8041715189
 20
6.9841820669
 30
0.0
 11
15.4291715189
 21
7.3591820669
 31
0.0
  0
LINE
  5
195
330
1F
100
AcDbEntity
  8
TRMODEL1
  6
Continuous
 62
     2
100
AcDbLine
 10
18.2839950005
 20
6.9841820669
 30
0.0
 11
17.9089950005
 21
7.3591820669
 31
0.0
  0
LINE
  5
196
330
1F
100
AcDbEntity
  8
TRMODEL1
  6
Continuous
 62
     2
100
AcDbLine
 10
18.1068647518
 20
6.9841820669
 30
0.0
 11
17.7318647518
 21
7.3591820669
 31
0.0
  0
LINE
  5
197
330
1F
100
AcDbEntity
  8
TRMODEL1
  6
Continuous
 62
     2
100
AcDbLine
 10
17.9297345031
 20
6.9841820669
 30
0.0
 11
17.5547345031
 21
7.3591820669
 31
0.0
  0
LINE
  5
198
330
1F
100
AcDbEntity
  8
TRMODEL1
  6
Continuous
 62
     2
100
AcDbLine
 10
17.7526042544
 20
6.9841820669
 30
0.0
 11
17.3776042544
 21
7.3591820669
 31
0.0
  0
LINE
  5
199
330
1F
100
AcDbEntity
  8
TRMODEL1
  6
Continuous
 62
     2
100
AcDbLine
 10
17.5754740057
 20
6.9841820669
 30
0.0
 11
17.2004740057
 21
7.3591820669
 31
0.0
  0
LINE
  5
19A
330
1F
100
AcDbEntity
  8
TRMODEL1
  6
Continuous
 62
     2
100
AcDbLine
 10
17.398343757
 20
6.9841820669
 30
0.0
 11
17.023343757
 21
7.3591820669
 31
0.0
  0
LINE
  5
19B
330
1F
100
AcDbEntity
  8
TRMODEL1
  6
Continuous
 62
     2
100
AcDbLine
 10
17.2212135084
 20
6.9841820669
 30
0.0
 11
16.8462135084
 21
7.3591820669
 31
0.0
  0
LINE
  5
19C
330
1F
100
AcDbEntity
  8
TRMODEL1
  6
Continuous
 62
     2
100
AcDbLine
 10
17.0440832597
 20
6.9841820669
 30
0.0
 11
16.6690832597
 21
7.3591820669
 31
0.0
  0
LINE
  5
19D
330
1F
100
AcDbEntity
  8
TRMODEL1
  6
Continuous
 62
     2
100
AcDbLine
 10
16.0242077044
 20
9.0668391143
 30
0.0
 11
15.6492077044
 21
9.4418391143
 31
0.0
  0
LINE
  5
19E
330
1F
100
AcDbEntity
  8
TRMODEL1
  6
Continuous
 62
     2
100
AcDbLine
 10
16.0242077044
 20
8.8897088656
 30
0.0
 11
15.6492077044
 21
9.2647088656
 31
0.0
  0
LINE
  5
19F
330
1F
100
AcDbEntity
  8
TRMODEL1
  6
Continuous
 62
     2
100
AcDbLine
 10
16.0242077044
 20
8.7125786169
 30
0.0
 11
15.6492077044
 21
9.0875786169
 31
0.0
  0
LINE
  5
1A0
330
1F
100
AcDbEntity
  8
TRMODEL1
  6
Continuous
 62
     2
100
AcDbLine
 10
16.0242077044
 20
8.5354483683
 30
0.0
 11
15.6492077044
 21
8.9104483683
 31
0.0
  0
LINE
  5
1A1
330
1F
100
AcDbEntity
  8
TRMODEL1
  6
Continuous
 62
     2
100
AcDbLine
 10
16.0242077044
 20
8.3583181196
 30
0.0
 11
15.6492077044
 21
8.7333181196
 31
0.0
  0
LINE
  5
1A2
330
1F
100
AcDbEntity
  8
TRMODEL1
  6
Continuous
 62
     2
100
AcDbLine
 10
16.0242077044
 20
8.1811878709
 30
0.0
 11
15.6492077044
 21
8.5561878709
 31
0.0
  0
LINE
  5
1A3
330
1F
100
AcDbEntity
  8
TRMODEL1
  6
Continuous
 62
     2
100
AcDbLine
 10
19.3467764926
 20
6.9841820669
 30
0.0
 11
18.9717764926
 21
7.3591820669
 31
0.0
  0
LINE
  5
1A4
330
1F
100
AcDbEntity
  8
TRMODEL1
  6
Continuous
 62
     2
100
AcDbLine
 10
19.1696462439
 20
6.9841820669
 30
0.0
 11
18.7946462439
 21
7.3591820669
 31
0.0
  0
LINE
  5
1A5
330
1F
100
AcDbEntity
  8
TRMODEL1
  6
Continuous
 62
     2
100
AcDbLine
 10
18.9925159952
 20
6.9841820669
 30
0.0
 11
18.6175159952
 21
7.3591820669
 31
0.0
  0
LINE
  5
1A6
330
1F
100
AcDbEntity
  8
TRMODEL1
  6
Continuous
 62
     2
100
AcDbLine
 10
18.8153857465
 20
6.9841820669
 30
0.0
 11
18.4403857465
 21
7.3591820669
 31
0.0
  0
LINE
  5
1A7
330
1F
100
AcDbEntity
  8
TRMODEL1
  6
Continuous
 62
     2
100
AcDbLine
 10
14.5465503746
 20
7.0715025261
 30
0.0
 11
17.4135656296
 21
4.2044872711
 31
0.0
  0
LINE
  5
1A8
330
1F
100
AcDbEntity
  8
TRMODEL1
  6
Continuous
 62
     2
100
AcDbLine
 10
17.4135656296
 20
4.2044872711
 30
0.0
 11
18.7134118795
 21
4.2044872711
 31
0.0
  0
LINE
  5
1A9
330
1F
100
AcDbEntity
  8
TRMODEL1
  6
Continuous
 62
     2
100
AcDbLine
 10
15.0956505241
 20
6.9841820669
 30
0.0
 11
14.7206505241
 21
7.3591820669
 31
0.0
  0
LINE
  5
1AA
330
1F
100
AcDbEntity
  8
TRMODEL1
  6
Continuous
 62
     2
100
AcDbLine
 10
14.9185202754
 20
6.9841820669
 30
0.0
 11
14.5435202754
 21
7.3591820669
 31
0.0
  0
LINE
  5
1AB
330
1F
100
AcDbEntity
  8
TRMODEL1
  6
Continuous
 62
     2
100
AcDbLine
 10
14.5051183366
 20
7.0300704881
 30
0.0
 11
14.2979581468
 21
7.3200947538
 31
0.0
  0
LINE
  5
1AC
330
1F
100
AcDbEntity
  8
TRMODEL1
  6
Continuous
 62
     2
100
AcDbLine
 10
14.2979581468
 20
7.3200947538
 30
0.0
 11
14.5879824125
 21
7.112934564
 31
0.0
  0
LINE
  5
1AD
330
1F
100
AcDbEntity
  8
TRMODEL1
  6
Continuous
 62
     2
100
AcDbLine
 10
14.5879824125
 20
7.112934564
 30
0.0
 11
14.5051183366
 21
7.0300704881
 31
0.0
  0
LINE
  5
1AE
330
1F
100
AcDbEntity
  8
TRMODEL1
  6
Continuous
 62
     2
100
AcDbLine
 10
14.7413900267
 20
6.9841820669
 30
0.0
 11
14.3663900267
 21
7.3591820669
 31
0.0
  0
LINE
  5
1AF
330
1F
100
AcDbEntity
  8
TRMODEL1
  6
Continuous
 62
     2
100
AcDbLine
 10
14.564259778
 20
6.9841820669
 30
0.0
 11
14.189259778
 21
7.3591820669
 31
0.0
  0
LINE
  5
1B0
330
1F
100
AcDbEntity
  8
TRMODEL1
  6
Continuous
 62
     2
100
AcDbLine
 10
14.3871295294
 20
6.9841820669
 30
0.0
 11
14.0121295294
 21
7.3591820669
 31
0.0
  0
LINE
  5
1B1
330
1F
100
AcDbEntity
  8
TRMODEL1
  6
Continuous
 62
     2
100
AcDbLine
 10
14.2099992807
 20
6.9841820669
 30
0.0
 11
13.8349992807
 21
7.3591820669
 31
0.0
  0
LINE
  5
1B2
330
1F
100
AcDbEntity
  8
TRMODEL1
  6
Continuous
 62
     2
100
AcDbLine
 10
14.032869032
 20
6.9841820669
 30
0.0
 11
13.657869032
 21
7.3591820669
 31
0.0
  0
LINE
  5
1B3
330
1F
100
AcDbEntity
  8
TRMODEL1
  6
Continuous
 62
     2
100
AcDbLine
 10
13.8557387833
 20
6.9841820669
 30
0.0
 11
13.4807387833
 21
7.3591820669
 31
0.0
  0
LINE
  5
1B4
330
1F
100
AcDbEntity
  8
TRMODEL1
  6
Continuous
 62
     2
100
AcDbLine
 10
15.6270412702
 20
6.9841820669
 30
0.0
 11
15.2520412702
 21
7.3591820669
 31
0.0
  0
LINE
  5
1B5
330
1F
100
AcDbEntity
  8
TRMODEL1
  6
Continuous
 62
     2
100
AcDbLine
 10
15.4499110215
 20
6.9841820669
 30
0.0
 11
15.0749110215
 21
7.3591820669
 31
0.0
  0
LINE
  5
1B6
330
1F
100
AcDbEntity
  8
TRMODEL1
  6
Continuous
 62
     2
100
AcDbLine
 10
15.2727807728
 20
6.9841820669
 30
0.0
 11
14.8977807728
 21
7.3591820669
 31
0.0
  0
LINE
  5
1B7
330
1F
100
AcDbEntity
  8
TRMODEL1
  6
Continuous
 62
     2
100
AcDbLine
 10
19.8367077044
 20
7.2027718499
 30
0.0
 11
19.6802974874
 21
7.3591820669
 31
0.0
  0
LINE
  5
1B8
330
1F
100
AcDbEntity
  8
TRMODEL1
  6
Continuous
 62
     2
100
AcDbLine
 10
19.8367077044
 20
7.0256416012
 30
0.0
 11
19.5031672387
 21
7.3591820669
 31
0.0
  0
LINE
  5
1B9
330
1F
100
AcDbEntity
  8
TRMODEL1
  6
Continuous
 62
     2
100
AcDbLine
 10
19.70103699
 20
6.9841820669
 30
0.0
 11
19.32603699
 21
7.3591820669
 31
0.0
  0
LINE
  5
1BA
330
1F
100
AcDbEntity
  8
TRMODEL1
  6
Continuous
 62
     2
100
AcDbLine
 10
19.5239067413
 20
6.9841820669
 30
0.0
 11
19.1489067413
 21
7.3591820669
 31
0.0
  0
ARC
  5
1BB
330
1F
100
AcDbEntity
  8
TRMODEL1
  6
Continuous
 62
     4
100
AcDbCircle
 10
11.1566112404
 20
24.4643622247
 30
0.0
 40
0.7802689314976777
100
AcDbArc
 50
228.7044955225
 51
313.5548183308
  0
ARC
  5
1BC
330
1F
100
AcDbEntity
  8
TRMODEL1
  6
Continuous
 62
     4
100
AcDbCircle
 10
10.063037536
 20
23.219376404
 30
0.0
 40
0.876804736336657
100
AcDbArc
 50
48.7044955225
 51
124.2747759095
  0
ARC
  5
1BD
330
1F
100
AcDbEntity
  8
TRMODEL1
  6
Continuous
 62
     4
100
AcDbCircle
 10
12.006754204
 20
20.5466821781
 30
0.0
 40
0.0625000012500081
100
AcDbArc
 50
0.0
 51
90.0
  0
ARC
  5
1BE
330
1F
100
AcDbEntity
  8
TRMODEL1
  6
Continuous
 62
     4
100
AcDbCircle
 10
12.006754204
 20
20.5466821781
 30
0.0
 40
0.1875000037500172
100
AcDbArc
 50
0.0
 51
90.0
  0
ARC
  5
1BF
330
1F
100
AcDbEntity
  8
TRMODEL1
  6
Continuous
 62
     4
100
AcDbCircle
 10
12.006754204
 20
19.9216821656
 30
0.0
 40
0.0625000012500081
100
AcDbArc
 50
270.0
 51
0.0
  0
ARC
  5
1C0
330
1F
100
AcDbEntity
  8
TRMODEL1
  6
Continuous
 62
     4
100
AcDbCircle
 10
11.956754203
 20
19.6716821606
 30
0.0
 40
0.1875000037500705
100
AcDbArc
 50
90.0
 51
180.0
  0
ARC
  5
1C1
330
1F
100
AcDbEntity
  8
TRMODEL1
  6
Continuous
 62
     4
100
AcDbCircle
 10
12.006754204
 20
19.9216821656
 30
0.0
 40
0.187500003750019
100
AcDbArc
 50
270.0
 51
0.0
  0
ARC
  5
1C2
330
1F
100
AcDbEntity
  8
TRMODEL1
  6
Continuous
 62
     4
100
AcDbCircle
 10
11.956754203
 20
19.6716821606
 30
0.0
 40
0.0625000012500436
100
AcDbArc
 50
90.0
 51
180.0
  0
ARC
  5
1C3
330
1F
100
AcDbEntity
  8
TRMODEL1
  6
Continuous
 62
     4
100
AcDbCircle
 10
19.7367077044
 20
7.2591820669
 30
0.0
 40
0.1000000000000227
100
AcDbArc
 50
0.0
 51
90.0
  0
ARC
  5
1C4
330
1F
100
AcDbEntity
  8
TRMODEL1
  6
Continuous
 62
     4
100
AcDbCircle
 10
16.1242077044
 20
7.4591820669
 30
0.0
 40
0.1000000000000236
100
AcDbArc
 50
180.0
 51
270.0
  0
ARC
  5
1C5
330
1F
100
AcDbEntity
  8
TRMODEL1
  6
Continuous
 62
     4
100
AcDbCircle
 10
16.1242077044
 20
14.5091820669
 30
0.0
 40
0.0999999999999943
100
AcDbArc
 50
90.0
 51
180.0
  0
ARC
  5
1C6
330
1F
100
AcDbEntity
  8
TRMODEL1
  6
Continuous
 62
     4
100
AcDbCircle
 10
19.7367077044
 20
14.7091820669
 30
0.0
 40
0.1000000000000263
100
AcDbArc
 50
270.0
 51
360.0
  0
ARC
  5
1C7
330
1F
100
AcDbEntity
  8
TRMODEL1
  6
Continuous
 62
     4
100
AcDbCircle
 10
11.9367077044
 20
14.7091820669
 30
0.0
 40
0.1000000000000227
100
AcDbArc
 50
180.0
 51
270.0
  0
ARC
  5
1C8
330
1F
100
AcDbEntity
  8
TRMODEL1
  6
Continuous
 62
     4
100
AcDbCircle
 10
15.5492077044
 20
14.5091820669
 30
0.0
 40
0.0999999999999943
100
AcDbArc
 50
0.0
 51
90.0
  0
ARC
  5
1C9
330
1F
100
AcDbEntity
  8
TRMODEL1
  6
Continuous
 62
     4
100
AcDbCircle
 10
15.5492077044
 20
7.4591820669
 30
0.0
 40
0.1000000000000236
100
AcDbArc
 50
270.0
 51
0.0
  0
ARC
  5
1CA
330
1F
100
AcDbEntity
  8
TRMODEL1
  6
Continuous
 62
     4
100
AcDbCircle
 10
11.9367077044
 20
7.2591820669
 30
0.0
 40
0.0999999999999934
100
AcDbArc
 50
90.0
 51
180.0
  0
ARC
  5
1CB
330
1F
100
AcDbEntity
  8
TRMODEL1
  6
Continuous
 62
     2
100
AcDbCircle
 10
9.1579205221
 20
13.8318820476
 30
0.0
 40
0.1787109205964803
100
AcDbArc
 50
130.1123448558
 51
229.8876551376
  0
ARC
  5
1CC
330
1F
100
AcDbEntity
  8
TRMODEL1
  6
Continuous
 62
     2
100
AcDbCircle
 10
9.1579205221
 20
13.0114820312
 30
0.0
 40
0.1787109205964049
100
AcDbArc
 50
130.1123448591
 51
229.887655141
  0
ARC
  5
1CD
330
1F
100
AcDbEntity
  8
TRMODEL1
  6
Continuous
 62
     2
100
AcDbCircle
 10
9.5998865939
 20
13.4216820394
 30
0.0
 40
0.6206324504279565
100
AcDbArc
 50
153.8501841796
 51
206.1498158205
  0
ARC
  5
1CE
330
1F
100
AcDbEntity
  8
TRMODEL1
  6
Continuous
 62
     2
100
AcDbCircle
 10
9.1579205221
 20
10.5818819826
 30
0.0
 40
0.1787109205964696
100
AcDbArc
 50
130.1123448558
 51
229.8876551376
  0
ARC
  5
1CF
330
1F
100
AcDbEntity
  8
TRMODEL1
  6
Continuous
 62
     2
100
AcDbCircle
 10
9.1579205221
 20
9.7614819662
 30
0.0
 40
0.1787109205964049
100
AcDbArc
 50
130.1123448591
 51
229.887655141
  0
ARC
  5
1D0
330
1F
100
AcDbEntity
  8
TRMODEL1
  6
Continuous
 62
     2
100
AcDbCircle
 10
9.5998865939
 20
10.1716819744
 30
0.0
 40
0.6206324504279331
100
AcDbArc
 50
153.8501841796
 51
206.1498158205
  0
ARC
  5
1D1
330
1F
100
AcDbEntity
  8
TRMODEL1
  6
Continuous
 62
     2
100
AcDbCircle
 10
9.553629155
 20
14.0701195524
 30
0.0
 40
0.0156250003125002
100
AcDbArc
 50
0.0
 51
90.0
  0
ARC
  5
1D2
330
1F
100
AcDbEntity
  8
TRMODEL1
  6
Continuous
 62
     2
100
AcDbCircle
 10
9.4636291532
 20
14.0701195524
 30
0.0
 40
0.0156250003125269
100
AcDbArc
 50
90.0
 51
180.0
  0
ARC
  5
1D3
330
1F
100
AcDbEntity
  8
TRMODEL1
  6
Continuous
 62
     2
100
AcDbCircle
 10
9.4636291532
 20
12.7732445264
 30
0.0
 40
0.0156250003125002
100
AcDbArc
 50
180.0
 51
270.0
  0
ARC
  5
1D4
330
1F
100
AcDbEntity
  8
TRMODEL1
  6
Continuous
 62
     2
100
AcDbCircle
 10
9.553629155
 20
12.7732445264
 30
0.0
 40
0.015625000312582
100
AcDbArc
 50
270.0
 51
0.0
  0
ARC
  5
1D5
330
1F
100
AcDbEntity
  8
TRMODEL1
  6
Continuous
 62
     2
100
AcDbCircle
 10
9.553629155
 20
10.8201194874
 30
0.0
 40
0.015625000312502
100
AcDbArc
 50
0.0
 51
90.0
  0
ARC
  5
1D6
330
1F
100
AcDbEntity
  8
TRMODEL1
  6
Continuous
 62
     2
100
AcDbCircle
 10
9.4636291532
 20
10.8201194874
 30
0.0
 40
0.0156250003125269
100
AcDbArc
 50
90.0
 51
180.0
  0
ARC
  5
1D7
330
1F
100
AcDbEntity
  8
TRMODEL1
  6
Continuous
 62
     2
100
AcDbCircle
 10
9.4636291532
 20
9.5232444614
 30
0.0
 40
0.0156250003125002
100
AcDbArc
 50
180.0
 51
270.0
  0
ARC
  5
1D8
330
1F
100
AcDbEntity
  8
TRMODEL1
  6
Continuous
 62
     2
100
AcDbCircle
 10
9.553629155
 20
9.5232444614
 30
0.0
 40
0.015625000312582
100
AcDbArc
 50
270.0
 51
0.0
  0
ARC
  5
1D9
330
1F
100
AcDbEntity
  8
TRMODEL1
  6
Continuous
 62
     2
100
AcDbCircle
 10
13.0081547802
 20
15.8591820969
 30
0.0
 40
0.2500000000004878
100
AcDbArc
 50
301.4097308933
 51
238.5902691067
  0
ARC
  5
1DA
330
1F
100
AcDbEntity
  8
TRMODEL1
  6
Continuous
 62
     4
100
AcDbCircle
 10
11.956754203
 20
17.7966821231
 30
0.0
 40
0.1875000037500705
100
AcDbArc
 50
180.0
 51
270.0
  0
ARC
  5
1DB
330
1F
100
AcDbEntity
  8
TRMODEL1
  6
Continuous
 62
     4
100
AcDbCircle
 10
12.006754204
 20
17.5466821181
 30
0.0
 40
0.0625000012500081
100
AcDbArc
 50
0.0
 51
90.0
  0
ARC
  5
1DC
330
1F
100
AcDbEntity
  8
TRMODEL1
  6
Continuous
 62
     4
100
AcDbCircle
 10
12.006754204
 20
17.5466821181
 30
0.0
 40
0.187500003750003
100
AcDbArc
 50
0.0
 51
90.0
  0
ARC
  5
1DD
330
1F
100
AcDbEntity
  8
TRMODEL1
  6
Continuous
 62
     4
100
AcDbCircle
 10
11.956754203
 20
17.7966821231
 30
0.0
 40
0.0625000012500436
100
AcDbArc
 50
180.0
 51
270.0
  0
ARC
  5
1DE
330
1F
100
AcDbEntity
  8
TRMODEL1
  6
Continuous
 62
     4
100
AcDbCircle
 10
12.006754204
 20
16.9216821056
 30
0.0
 40
0.0625000012500401
100
AcDbArc
 50
270.0
 51
0.0
  0
ARC
  5
1DF
330
1F
100
AcDbEntity
  8
TRMODEL1
  6
Continuous
 62
     4
100
AcDbCircle
 10
12.006754204
 20
16.9216821056
 30
0.0
 40
0.1875000037500225
100
AcDbArc
 50
270.0
 51
0.0
  0
ARC
  5
1E0
330
1F
100
AcDbEntity
  8
TRMODEL1
  6
Continuous
 62
     2
100
AcDbCircle
 10
20.3679873343
 20
15.4010911158
 30
0.0
 40
0.5667391272103579
100
AcDbArc
 50
140.9791729101
 51
227.360289782
  0
ARC
  5
1E1
330
1F
100
AcDbEntity
  8
TRMODEL1
  6
Continuous
 62
     2
100
AcDbCircle
 10
19.4092674342
 20
16.1780243754
 30
0.0
 40
0.6672661956003982
100
AcDbArc
 50
320.9791729101
 51
27.3112432114
  0
ARC
  5
1E2
330
1F
100
AcDbEntity
  8
TRMODEL1
  6
Continuous
 62
     2
100
AcDbCircle
 10
19.0081547802
 20
15.8591820969
 30
0.0
 40
0.2500000000005445
100
AcDbArc
 50
301.4097308933
 51
238.5902691068
  0
ARC
  5
1E3
330
1F
100
AcDbEntity
  8
TRMODEL1
  6
Continuous
 62
     2
100
AcDbCircle
 10
16.0398327047
 20
10.8201194874
 30
0.0
 40
0.0156250003125056
100
AcDbArc
 50
90.0
 51
180.0
  0
ARC
  5
1E4
330
1F
100
AcDbEntity
  8
TRMODEL1
  6
Continuous
 62
     2
100
AcDbCircle
 10
16.1298327065
 20
10.8201194874
 30
0.0
 40
0.0156250003125269
100
AcDbArc
 50
0.0
 51
90.0
  0
ARC
  5
1E5
330
1F
100
AcDbEntity
  8
TRMODEL1
  6
Continuous
 62
     2
100
AcDbCircle
 10
16.1298327065
 20
9.5232444614
 30
0.0
 40
0.0156250003125002
100
AcDbArc
 50
270.0
 51
0.0
  0
ARC
  5
1E6
330
1F
100
AcDbEntity
  8
TRMODEL1
  6
Continuous
 62
     2
100
AcDbCircle
 10
16.0398327047
 20
9.5232444614
 30
0.0
 40
0.015625000312582
100
AcDbArc
 50
180.0
 51
270.0
  0
ARC
  5
1E7
330
1F
100
AcDbEntity
  8
TRMODEL1
  6
Continuous
 62
     2
100
AcDbCircle
 10
16.0398327047
 20
14.0701195524
 30
0.0
 40
0.0156250003125002
100
AcDbArc
 50
90.0
 51
180.0
  0
ARC
  5
1E8
330
1F
100
AcDbEntity
  8
TRMODEL1
  6
Continuous
 62
     2
100
AcDbCircle
 10
16.1298327065
 20
14.0701195524
 30
0.0
 40
0.0156250003125269
100
AcDbArc
 50
0.0
 51
90.0
  0
ARC
  5
1E9
330
1F
100
AcDbEntity
  8
TRMODEL1
  6
Continuous
 62
     2
100
AcDbCircle
 10
16.1298327065
 20
12.7732445264
 30
0.0
 40
0.0156250003125002
100
AcDbArc
 50
270.0
 51
0.0
  0
ARC
  5
1EA
330
1F
100
AcDbEntity
  8
TRMODEL1
  6
Continuous
 62
     2
100
AcDbCircle
 10
16.0398327047
 20
12.7732445264
 30
0.0
 40
0.015625000312582
100
AcDbArc
 50
180.0
 51
270.0
  0
ARC
  5
1EB
330
1F
100
AcDbEntity
  8
TRMODEL1
  6
Continuous
 62
     2
100
AcDbCircle
 10
16.0717002673
 20
10.1716819744
 30
0.0
 40
0.6206324504277775
100
AcDbArc
 50
333.8501841795
 51
26.1498158204
  0
ARC
  5
1EC
330
1F
100
AcDbEntity
  8
TRMODEL1
  6
Continuous
 62
     2
100
AcDbCircle
 10
16.5136663392
 20
9.7614819662
 30
0.0
 40
0.1787109205963902
100
AcDbArc
 50
310.112344859
 51
49.8876551409
  0
ARC
  5
1ED
330
1F
100
AcDbEntity
  8
TRMODEL1
  6
Continuous
 62
     2
100
AcDbCircle
 10
16.5136663391
 20
10.5818819826
 30
0.0
 40
0.1787109205966831
100
AcDbArc
 50
310.1123448625
 51
49.8876551442
  0
ARC
  5
1EE
330
1F
100
AcDbEntity
  8
TRMODEL1
  6
Continuous
 62
     2
100
AcDbCircle
 10
16.0717002673
 20
13.4216820394
 30
0.0
 40
0.620632450427779
100
AcDbArc
 50
333.8501841795
 51
26.1498158204
  0
ARC
  5
1EF
330
1F
100
AcDbEntity
  8
TRMODEL1
  6
Continuous
 62
     2
100
AcDbCircle
 10
16.5136663392
 20
13.0114820312
 30
0.0
 40
0.1787109205963889
100
AcDbArc
 50
310.112344859
 51
49.8876551409
  0
ARC
  5
1F0
330
1F
100
AcDbEntity
  8
TRMODEL1
  6
Continuous
 62
     2
100
AcDbCircle
 10
16.5136663391
 20
13.8318820476
 30
0.0
 40
0.1787109205966836
100
AcDbArc
 50
310.1123448625
 51
49.8876551442
  0
MTEXT
  5
1F2
330
1F
100
AcDbEntity
  8
TRMODEL1
 62
     4
100
AcDbMText
 10
0.0543989255
 20
23.8474794667
 30
0.0
 40
0.5625
 41
0.0
 71
     1
 72
     1
  1
SQ. TUBE POST
  7
SLDTEXTSTYLE0
 73
     1
 44
1.0
  0
MTEXT
  5
1F3
330
1F
100
AcDbEntity
  8
TRMODEL1
 62
     4
100
AcDbMText
 10
0.0441991269
 20
24.7966903465
 30
0.0
 40
0.5625
 41
0.0
 71
     1
 72
     1
  1
2 1/8x3/16"
  7
SLDTEXTSTYLE0
 73
     1
 44
1.0
  0
MTEXT
  5
1F4
330
1F
100
AcDbEntity
  8
TRMODEL1
 62
     4
100
AcDbMText
 10
16.9795387849
 20
23.5529476637
 30
0.0
 40
0.5625
 41
0.0
 71
     1
 72
     1
  1
TOE PLATE
  7
SLDTEXTSTYLE0
 73
     1
 44
1.0
  0
MTEXT
  5
1F5
330
1F
100
AcDbEntity
  8
TRMODEL1
 62
     4
100
AcDbMText
 10
16.9160733719
 20
24.5021585435
 30
0.0
 40
0.5625
 41
0.0
 71
     1
 72
     1
  1
"H" SECTION
  7
SLDTEXTSTYLE0
 73
     1
 44
1.0
  0
MTEXT
  5
1F6
330
1F
100
AcDbEntity
  8
TRMODEL1
 62
     4
100
AcDbMText
 10
0.0294660846
 20
16.0981897737
 30
0.0
 40
0.5625
 41
0.0
 71
     1
 72
     1
  1
RESIN STIFFENER
  7
SLDTEXTSTYLE0
 73
     1
 44
1.0
  0
MTEXT
  5
1F7
330
1F
100
AcDbEntity
  8
TRMODEL1
 62
     4
100
AcDbMText
 10
0.0
 20
17.0458895723
 30
0.0
 40
0.5625
 41
0.0
 71
     1
 72
     1
  1
10" OF POST WITH
  7
SLDTEXTSTYLE0
 73
     1
 44
1.0
  0
MTEXT
  5
1F8
330
1F
100
AcDbEntity
  8
TRMODEL1
 62
     4
100
AcDbMText
 10
0.0543989255
 20
17.995100452
 30
0.0
 40
0.5625
 41
0.0
 71
     1
 72
     1
  1
SHOP FILL BOTTOM
  7
SLDTEXTSTYLE0
 73
     1
 44
1.0
  0
MTEXT
  5
1F9
330
1F
100
AcDbEntity
  8
TRMODEL1
 62
     4
100
AcDbMText
 10
0.0294660846
 20
7.4841554517
 30
0.0
 40
0.5625
 41
0.0
 71
     1
 72
     1
  1
BOLT ASSEMBLY
  7
SLDTEXTSTYLE0
 73
     1
 44
1.0
  0
MTEXT
  5
1FA
330
1F
100
AcDbEntity
  8
TRMODEL1
 62
     4
100
AcDbMText
 10
2.3334872398
 20
8.4333663315
 30
0.0
 40
0.5625
 41
0.0
 71
     1
 72
     1
  1
 x 8" Lg.
  7
SLDTEXTSTYLE0
 73
     1
 44
1.0
  0
MTEXT
  5
1FB
330
1F
100
AcDbEntity
  8
TRMODEL1
 62
     4
100
AcDbMText
 10
0.0343770987
 20
8.4333663315
 30
0.0
 40
0.5625
 41
0.0
 71
     1
 72
     1
  1
5/8"
  7
SLDTEXTSTYLE0
 73
     1
 44
1.0
  0
MTEXT
  5
1FC
330
1F
100
AcDbEntity
  8
TRMODEL1
 62
     4
100
AcDbMText
 10
1.7245214909
 20
8.4333663315
 30
0.0
 40
0.5625
 41
0.0
 71
     1
 72
     1
  1
%%c
  7
SLDTEXTSTYLE0
 73
     1
 44
1.0
  0
MTEXT
  5
1FD
330
1F
100
AcDbEntity
  8
TRMODEL1
 62
     4
100
AcDbMText
 10
18.9236239625
 20
3.6076864614
 30
0.0
 40
0.5625
 41
0.0
 71
     1
 72
     1
  1
SQ. TUBE SPACER
  7
SLDTEXTSTYLE0
 73
     1
 44
1.0
  0
MTEXT
  5
1FE
330
1F
100
AcDbEntity
  8
TRMODEL1
 62
     4
100
AcDbMText
 10
18.9058687577
 20
1.6820652391
 30
0.0
 40
0.5625
 41
0.0
 71
     1
 72
     1
  1
(2) REQUIRED
  7
SLDTEXTSTYLE0
 73
     1
 44
1.0
  0
MTEXT
  5
1FF
330
1F
100
AcDbEntity
  8
TRMODEL1
 62
     4
100
AcDbMText
 10
18.9644231566
 20
0.7328543594
 30
0.0
 40
0.5625
 41
0.0
 71
     1
 72
     1
  1
AS SHOWN
  7
SLDTEXTSTYLE0
 73
     1
 44
1.0
  0
MTEXT
  5
200
330
1F
100
AcDbEntity
  8
TRMODEL1
 62
     4
100
AcDbMText
 10
18.9111575421
 20
2.6448758503
 30
0.0
 40
0.5625
 41
0.0
 71
     1
 72
     1
  1
3 15/16" Lg.
  7
SLDTEXTSTYLE0
 73
     1
 44
1.0
  0
MTEXT
  5
201
330
1F
100
AcDbEntity
  8
TRMODEL1
 62
     4
100
AcDbMText
 10
18.913424164
 20
4.5568973412
 30
0.0
 40
0.5625
 41
0.0
 71
     1
 72
     1
  1
2 1/8x3/16"
  7
SLDTEXTSTYLE0
 73
     1
 44
1.0
  0
ENDSEC
  0
SECTION
  2
OBJECTS
  0
DICTIONARY
  5
C
330
0
100
AcDbDictionary
281
     1
  3
ACAD_GROUP
350
D
  3
ACAD_LAYOUT
350
1A
  3
ACAD_MLINESTYLE
350
17
  3
ACAD_PLOTSETTINGS
350
19
  3
ACAD_PLOTSTYLENAME
350
E
  3
ACAD_TABLESTYLE
350
202
  3
ACAD_VISUALSTYLE
350
2A
  0
DICTIONARY
  5
D
102
{ACAD_REACTORS
330
C
102
}
330
C
100
AcDbDictionary
281
     1
  0
DICTIONARY
  5
1A
102
{ACAD_REACTORS
330
C
102
}
330
C
100
AcDbDictionary
281
     1
  3
Layout1
350
1E
  3
Layout2
350
26
  3
Model
350
22
  0
DICTIONARY
  5
17
102
{ACAD_REACTORS
330
C
102
}
330
C
100
AcDbDictionary
281
     1
  3
Standard
350
18
  0
DICTIONARY
  5
19
102
{ACAD_REACTORS
330
C
102
}
330
C
100
AcDbDictionary
281
     1
  0
ACDBDICTIONARYWDFLT
  5
E
102
{ACAD_REACTORS
330
C
102
}
330
C
100
AcDbDictionary
281
     1
  3
Normal
350
F
100
AcDbDictionaryWithDefault
340
F
  0
DICTIONARY
  5
202
102
{ACAD_REACTORS
330
C
102
}
330
C
100
AcDbDictionary
281
     1
  0
DICTIONARY
  5
2A
102
{ACAD_REACTORS
330
C
102
}
330
C
100
AcDbDictionary
281
     1
  3
2dWireframe
350
2F
  3
3D Hidden
350
31
  3
3dWireframe
350
30
  3
Basic
350
32
  3
Brighten
350
36
  3
ColorChange
350
3A
  3
Conceptual
350
34
  3
Dim
350
35
  3
Facepattern
350
39
  3
Flat
350
2B
  3
FlatWithEdges
350
2C
  3
Gouraud
350
2D
  3
GouraudWithEdges
350
2E
  3
Linepattern
350
38
  3
Realistic
350
33
  3
Thicken
350
37
  0
LAYOUT
  5
1E
102
{ACAD_REACTORS
330
1A
102
}
330
1A
100
AcDbPlotSettings
  1

  2
none_device
  4

  6

 40
0.0
 41
0.0
 42
0.0
 43
0.0
 44
0.0
 45
0.0
 46
0.0
 47
0.0
 48
0.0
 49
0.0
140
0.0
141
0.0
142
1.0
143
1.0
 70
   688
 72
     0
 73
     0
 74
     5
  7

 75
    16
147
1.0
148
0.0
149
0.0
100
AcDbLayout
  1
Layout1
 70
     1
 71
     1
 10
0.0
 20
0.0
 11
12.0
 21
9.0
 12
0.0
 22
0.0
 32
0.0
 14
1.0000000000E+20
 24
1.0000000000E+20
 34
1.0000000000E+20
 15
-1.0000000000E+20
 25
-1.0000000000E+20
 35
-1.0000000000E+20
146
0.0
 13
0.0
 23
0.0
 33
0.0
 16
1.0
 26
0.0
 36
0.0
 17
0.0
 27
1.0
 37
0.0
 76
     0
330
1B
  0
LAYOUT
  5
26
102
{ACAD_REACTORS
330
1A
102
}
330
1A
100
AcDbPlotSettings
  1

  2
none_device
  4

  6

 40
0.0
 41
0.0
 42
0.0
 43
0.0
 44
0.0
 45
0.0
 46
0.0
 47
0.0
 48
0.0
 49
0.0
140
0.0
141
0.0
142
1.0
143
1.0
 70
   688
 72
     0
 73
     0
 74
     5
  7

 75
    16
147
1.0
148
0.0
149
0.0
100
AcDbLayout
  1
Layout2
 70
     1
 71
     2
 10
0.0
 20
0.0
 11
0.0
 21
0.0
 12
0.0
 22
0.0
 32
0.0
 14
0.0
 24
0.0
 34
0.0
 15
0.0
 25
0.0
 35
0.0
146
0.0
 13
0.0
 23
0.0
 33
0.0
 16
1.0
 26
0.0
 36
0.0
 17
0.0
 27
1.0
 37
0.0
 76
     0
330
23
  0
LAYOUT
  5
22
102
{ACAD_REACTORS
330
1A
102
}
330
1A
100
AcDbPlotSettings
  1

  2
none_device
  4

  6

 40
0.0
 41
0.0
 42
0.0
 43
0.0
 44
0.0
 45
0.0
 46
0.0
 47
0.0
 48
0.0
 49
0.0
140
0.0
141
0.0
142
1.0
143
1.0
 70
  1712
 72
     0
 73
     0
 74
     0
  7

 75
     0
147
1.0
148
0.0
149
0.0
100
AcDbLayout
  1
Model
 70
     1
 71
     0
 10
0.0
 20
0.0
 11
22.0
 21
17.0
 12
0.0
 22
0.0
 32
0.0
 14
0.0
 24
0.0
 34
0.0
 15
22.0
 25
17.0
 35
0.0
146
0.0
 13
0.0
 23
0.0
 33
0.0
 16
1.0
 26
0.0
 36
0.0
 17
0.0
 27
1.0
 37
0.0
 76
     0
330
1F
331
29
  0
MLINESTYLE
  5
18
102
{ACAD_REACTORS
330
17
102
}
330
17
100
AcDbMlineStyle
  2
Standard
 70
     0
  3

 62
   256
 51
90.0
 52
90.0
 71
     2
 49
0.5
 62
   256
  6
BYLAYER
 49
-0.5
 62
   256
  6
BYLAYER
  0
ACDBPLACEHOLDER
  5
F
102
{ACAD_REACTORS
330
E
102
}
330
E
  0
VISUALSTYLE
  5
2F
102
{ACAD_REACTORS
330
2A
102
}
330
2A
100
AcDbVisualStyle
  2
2dWireframe
 70
     4
 71
     0
 72
     2
 73
     0
 90
        0
 40
-0.6
 41
-30.0
 62
     5
 63
     7
 74
     1
 91
        4
 64
     7
 65
   257
 75
     1
175
     1
 42
1.0
 92
        0
 66
   257
 43
1.0
 76
     1
 77
     6
 78
     2
 67
     7
 79
     5
170
     0
171
     0
290
     0
174
     0
 93
        1
 44
0.0
173
     0
291
     0
 45
0.0
1001
ACAD
1000
AcDbSavedByObjectVersion
1070
     0
  0
VISUALSTYLE
  5
31
102
{ACAD_REACTORS
330
2A
102
}
330
2A
100
AcDbVisualStyle
  2
3D Hidden
 70
     6
 71
     1
 72
     2
 73
     2
 90
        0
 40
-0.6
 41
-30.0
 62
     5
 63
     7
 74
     2
 91
        2
 64
     7
 65
   257
 75
     2
175
     1
 42
40.0
 92
        0
 66
   257
 43
1.0
 76
     1
 77
     6
 78
     2
 67
     7
 79
     3
170
     0
171
     0
290
     0
174
     0
 93
        1
 44
0.0
173
     0
291
     0
 45
0.0
1001
ACAD
1000
AcDbSavedByObjectVersion
1070
     0
  0
VISUALSTYLE
  5
30
102
{ACAD_REACTORS
330
2A
102
}
330
2A
100
AcDbVisualStyle
  2
3dWireframe
 70
     5
 71
     0
 72
     2
 73
     0
 90
        0
 40
-0.6
 41
-30.0
 62
     5
 63
     7
 74
     1
 91
        4
 64
     7
 65
   257
 75
     1
175
     1
 42
1.0
 92
        0
 66
   257
 43
1.0
 76
     1
 77
     6
 78
     2
 67
     7
 79
     5
170
     0
171
     0
290
     0
174
     0
 93
        1
 44
0.0
173
     0
291
     0
 45
0.0
1001
ACAD
1000
AcDbSavedByObjectVersion
1070
     0
  0
VISUALSTYLE
  5
32
102
{ACAD_REACTORS
330
2A
102
}
330
2A
100
AcDbVisualStyle
  2
Basic
 70
     7
 71
     1
 72
     0
 73
     1
 90
        0
 40
-0.6
 41
-30.0
 62
     5
 63
     7
 74
     0
 91
        4
 64
     7
 65
   257
 75
     1
175
     1
 42
1.0
 92
        8
 66
     7
 43
1.0
 76
     1
 77
     6
 78
     2
 67
     7
 79
     5
170
     0
171
     0
290
     0
174
     0
 93
        1
 44
0.0
173
     0
291
     1
 45
0.0
1001
ACAD
1000
AcDbSavedByObjectVersion
1070
     0
  0
VISUALSTYLE
  5
36
102
{ACAD_REACTORS
330
2A
102
}
330
2A
100
AcDbVisualStyle
  2
Brighten
 70
    12
 71
     2
 72
     2
 73
     0
 90
        0
 40
-0.6
 41
-30.0
 62
     5
 63
     7
 74
     1
 91
        4
 64
     7
 65
   257
 75
     1
175
     1
 42
1.0
 92
        8
 66
     7
 43
1.0
 76
     1
 77
     6
 78
     2
 67
     7
 79
     5
170
     0
171
     0
290
     0
174
     0
 93
        1
 44
50.0
173
     0
291
     1
 45
0.0
1001
ACAD
1000
AcDbSavedByObjectVersion
1070
     0
  0
VISUALSTYLE
  5
3A
102
{ACAD_REACTORS
330
2A
102
}
330
2A
100
AcDbVisualStyle
  2
ColorChange
 70
    16
 71
     2
 72
     2
 73
     3
 90
        0
 40
-0.6
 41
-30.0
 62
     5
 63
     8
 74
     1
 91
        4
 64
     7
 65
   257
 75
     1
175
     1
 42
1.0
 92
        8
 66
     8
 43
1.0
 76
     1
 77
     6
 78
     2
 67
     7
 79
     5
170
     0
171
     0
290
     0
174
     0
 93
        1
 44
0.0
173
     0
291
     1
 45
0.0
1001
ACAD
1000
AcDbSavedByObjectVersion
1070
     0
  0
VISUALSTYLE
  5
34
102
{ACAD_REACTORS
330
2A
102
}
330
2A
100
AcDbVisualStyle
  2
Conceptual
 70
     9
 71
     3
 72
     2
 73
     0
 90
        0
 40
-0.6
 41
-30.0
 62
     5
 63
     7
 74
     2
 91
        2
 64
     7
 65
   257
 75
     1
175
     1
 42
40.0
 92
        8
 66
     7
 43
1.0
 76
     1
 77
     6
 78
     2
 67
     7
 79
     3
170
     0
171
     0
290
     0
174
     0
 93
        1
 44
0.0
173
     0
291
     0
 45
0.0
1001
ACAD
1000
AcDbSavedByObjectVersion
1070
     0
  0
VISUALSTYLE
  5
35
102
{ACAD_REACTORS
330
2A
102
}
330
2A
100
AcDbVisualStyle
  2
Dim
 70
    11
 71
     2
 72
     2
 73
     0
 90
        0
 40
-0.6
 41
-30.0
 62
     5
 63
     7
 74
     1
 91
        4
 64
     7
 65
   257
 75
     1
175
     1
 42
1.0
 92
        8
 66
     7
 43
1.0
 76
     1
 77
     6
 78
     2
 67
     7
 79
     5
170
     0
171
     0
290
     0
174
     0
 93
        1
 44
-50.0
173
     0
291
     1
 45
0.0
1001
ACAD
1000
AcDbSavedByObjectVersion
1070
     0
  0
VISUALSTYLE
  5
39
102
{ACAD_REACTORS
330
2A
102
}
330
2A
100
AcDbVisualStyle
  2
Facepattern
 70
    15
 71
     2
 72
     2
 73
     0
 90
        0
 40
-0.6
 41
-30.0
 62
     5
 63
     7
 74
     1
 91
        4
 64
     7
 65
   257
 75
     1
175
     1
 42
1.0
 92
        8
 66
     7
 43
1.0
 76
     1
 77
     6
 78
     2
 67
     7
 79
     5
170
     0
171
     0
290
     0
174
     0
 93
        1
 44
0.0
173
     0
291
     1
 45
0.0
1001
ACAD
1000
AcDbSavedByObjectVersion
1070
     0
  0
VISUALSTYLE
  5
2B
102
{ACAD_REACTORS
330
2A
102
}
330
2A
100
AcDbVisualStyle
  2
Flat
 70
     0
 71
     2
 72
     1
 73
     1
 90
        2
 40
-0.6
 41
30.0
 62
     5
 63
     7
 74
     0
 91
        4
 64
     7
 65
   257
 75
     1
175
     1
 42
1.0
 92
        8
 66
     7
 43
1.0
 76
     1
 77
     6
 78
     2
 67
     7
 79
     5
170
     0
171
     0
290
     0
174
     0
 93
       13
 44
0.0
173
     0
291
     1
 45
0.0
1001
ACAD
1000
AcDbSavedByObjectVersion
1070
     0
  0
VISUALSTYLE
  5
2C
102
{ACAD_REACTORS
330
2A
102
}
330
2A
100
AcDbVisualStyle
  2
FlatWithEdges
 70
     1
 71
     2
 72
     1
 73
     1
 90
        2
 40
-0.6
 41
30.0
 62
     5
 63
     7
 74
     1
 91
        4
 64
     7
 65
   257
 75
     1
175
     1
 42
1.0
 92
        0
 66
   257
 43
1.0
 76
     1
 77
     6
 78
     2
 67
     7
 79
     5
170
     0
171
     0
290
     0
174
     0
 93
       13
 44
0.0
173
     0
291
     1
 45
0.0
1001
ACAD
1000
AcDbSavedByObjectVersion
1070
     0
  0
VISUALSTYLE
  5
2D
102
{ACAD_REACTORS
330
2A
102
}
330
2A
100
AcDbVisualStyle
  2
Gouraud
 70
     2
 71
     2
 72
     2
 73
     1
 90
        2
 40
-0.6
 41
30.0
 62
     5
 63
     7
 74
     0
 91
        4
 64
     7
 65
   257
 75
     1
175
     1
 42
1.0
 92
        0
 66
     7
 43
1.0
 76
     1
 77
     6
 78
     2
 67
     7
 79
     5
170
     0
171
     0
290
     0
174
     0
 93
       13
 44
0.0
173
     0
291
     1
 45
0.0
1001
ACAD
1000
AcDbSavedByObjectVersion
1070
     0
  0
VISUALSTYLE
  5
2E
102
{ACAD_REACTORS
330
2A
102
}
330
2A
100
AcDbVisualStyle
  2
GouraudWithEdges
 70
     3
 71
     2
 72
     2
 73
     1
 90
        2
 40
-0.6
 41
30.0
 62
     5
 63
     7
 74
     1
 91
        4
 64
     7
 65
   257
 75
     1
175
     1
 42
1.0
 92
        0
 66
   257
 43
1.0
 76
     1
 77
     6
 78
     2
 67
     7
 79
     5
170
     0
171
     0
290
     0
174
     0
 93
       13
 44
0.0
173
     0
291
     1
 45
0.0
1001
ACAD
1000
AcDbSavedByObjectVersion
1070
     0
  0
VISUALSTYLE
  5
38
102
{ACAD_REACTORS
330
2A
102
}
330
2A
100
AcDbVisualStyle
  2
Linepattern
 70
    14
 71
     2
 72
     2
 73
     0
 90
        0
 40
-0.6
 41
-30.0
 62
     5
 63
     7
 74
     1
 91
        4
 64
     7
 65
   257
 75
     7
175
     7
 42
1.0
 92
        8
 66
     7
 43
1.0
 76
     1
 77
     6
 78
     2
 67
     7
 79
     5
170
     0
171
     0
290
     0
174
     0
 93
        1
 44
0.0
173
     0
291
     1
 45
0.0
1001
ACAD
1000
AcDbSavedByObjectVersion
1070
     0
  0
VISUALSTYLE
  5
33
102
{ACAD_REACTORS
330
2A
102
}
330
2A
100
AcDbVisualStyle
  2
Realistic
 70
     8
 71
     2
 72
     2
 73
     0
 90
        0
 40
-0.6
 41
-30.0
 62
     5
 63
     7
 74
     1
 91
        0
 64
     7
 65
   257
 75
     1
175
     1
 42
1.0
 92
        8
 66
     8
 43
1.0
 76
     1
 77
     6
 78
     2
 67
     7
 79
     5
170
     0
171
     0
290
     0
174
     0
 93
       13
 44
0.0
173
     0
291
     0
 45
0.0
1001
ACAD
1000
AcDbSavedByObjectVersion
1070
     0
  0
VISUALSTYLE
  5
37
102
{ACAD_REACTORS
330
2A
102
}
330
2A
100
AcDbVisualStyle
  2
Thicken
 70
    13
 71
     2
 72
     2
 73
     0
 90
        0
 40
-0.6
 41
-30.0
 62
     5
 63
     7
 74
     1
 91
        4
 64
     7
 65
   257
 75
     1
175
     1
 42
1.0
 92
       12
 66
     7
 43
1.0
 76
     1
 77
     6
 78
     2
 67
     7
 79
     5
170
     0
171
     0
290
     0
174
     0
 93
        1
 44
0.0
173
     0
291
     1
 45
0.0
1001
ACAD
1000
AcDbSavedByObjectVersion
1070
     0
  0
ENDSEC
  0
EOF
