  0
SECTION
  2
HEADER
  9
$ACADVER
  1
AC1015
  9
$ACADMAINTVER
 70
     6
  9
$DWGCODEPAGE
  3
ANSI_1252
  9
$INSBASE
 10
0.0
 20
0.0
 30
0.0
  9
$EXTMIN
 10
0.0
 20
0.0
 30
0.0
  9
$EXTMAX
 10
44.0
 20
34.0
 30
0.0
  9
$LIMMIN
 10
0.0
 20
0.0
  9
$LIMMAX
 10
44.0
 20
34.0
  9
$ORTHOMODE
 70
     0
  9
$REGENMODE
 70
     1
  9
$FILLMODE
 70
     1
  9
$QTEXTMODE
 70
     0
  9
$MIRRTEXT
 70
     1
  9
$LTSCALE
 40
1.0
  9
$ATTMODE
 70
     1
  9
$TEXTSIZE
 40
0.1377952756
  9
$TRACEWID
 40
0.05
  9
$TEXTSTYLE
  7
Standard
  9
$CLAYER
  8
0
  9
$CELTYPE
  6
ByLayer
  9
$CECOLOR
 62
   256
  9
$CELTSCALE
 40
1.0
  9
$DISPSILH
 70
     0
  9
$DIMSCALE
 40
1.0
  9
$DIMASZ
 40
0.2362204724
  9
$DIMEXO
 40
0.0393700787
  9
$DIMDLI
 40
0.38
  9
$DIMRND
 40
0.0
  9
$DIMDLE
 40
0.0
  9
$DIMEXE
 40
0.0393700787
  9
$DIMTP
 40
0.0
  9
$DIMTM
 40
0.0
  9
$DIMTXT
 40
0.1377952756
  9
$DIMCEN
 40
0.09
  9
$DIMTSZ
 40
0.0
  9
$DIMTOL
 70
     0
  9
$DIMLIM
 70
     0
  9
$DIMTIH
 70
     1
  9
$DIMTOH
 70
     1
  9
$DIMSE1
 70
     0
  9
$DIMSE2
 70
     0
  9
$DIMTAD
 70
     1
  9
$DIMZIN
 70
     1
  9
$DIMBLK
  1

  9
$DIMASO
 70
     1
  9
$DIMSHO
 70
     1
  9
$DIMPOST
  1

  9
$DIMAPOST
  1

  9
$DIMALT
 70
     0
  9
$DIMALTD
 70
     2
  9
$DIMALTF
 40
25.4
  9
$DIMLFAC
 40
6.0
  9
$DIMTOFL
 70
     0
  9
$DIMTVP
 40
0.0
  9
$DIMTIX
 70
     0
  9
$DIMSOXD
 70
     0
  9
$DIMSAH
 70
     0
  9
$DIMBLK1
  1

  9
$DIMBLK2
  1

  9
$DIMSTYLE
  2
Standard
  9
$DIMCLRD
 70
     0
  9
$DIMCLRE
 70
     0
  9
$DIMCLRT
 70
     0
  9
$DIMTFAC
 40
1.0
  9
$DIMGAP
 40
0.06
  9
$DIMJUST
 70
     0
  9
$DIMSD1
 70
     0
  9
$DIMSD2
 70
     0
  9
$DIMTOLJ
 70
     1
  9
$DIMTZIN
 70
     1
  9
$DIMALTZ
 70
     0
  9
$DIMALTTZ
 70
     0
  9
$DIMUPT
 70
     0
  9
$DIMDEC
 70
     4
  9
$DIMTDEC
 70
     4
  9
$DIMALTU
 70
     2
  9
$DIMALTTD
 70
     2
  9
$DIMTXSTY
  7
Standard
  9
$DIMAUNIT
 70
     0
  9
$DIMADEC
 70
     0
  9
$DIMALTRND
 40
0.0
  9
$DIMAZIN
 70
     0
  9
$DIMDSEP
 70
    46
  9
$DIMATFIT
 70
     3
  9
$DIMFRAC
 70
     0
  9
$DIMLDRBLK
  1

  9
$DIMLUNIT
 70
     2
  9
$DIMLWD
 70
    -2
  9
$DIMLWE
 70
    -2
  9
$DIMTMOVE
 70
     0
  9
$LUNITS
 70
     2
  9
$LUPREC
 70
     4
  9
$SKETCHINC
 40
0.1
  9
$FILLETRAD
 40
0.5
  9
$AUNITS
 70
     0
  9
$AUPREC
 70
     0
  9
$MENU
  1
.
  9
$ELEVATION
 40
0.0
  9
$PELEVATION
 40
0.0
  9
$THICKNESS
 40
0.0
  9
$LIMCHECK
 70
     0
  9
$CHAMFERA
 40
0.5
  9
$CHAMFERB
 40
0.5
  9
$CHAMFERC
 40
1.0
  9
$CHAMFERD
 40
0.0
  9
$SKPOLY
 70
     0
  9
$TDCREATE
 40
2454440.908949456
  9
$TDUCREATE
 40
2454441.242282789
  9
$TDUPDATE
 40
2454440.908949468
  9
$TDUUPDATE
 40
2454441.242282801
  9
$TDINDWG
 40
0.0000000116
  9
$TDUSRTIMER
 40
0.0000000116
  9
$USRTIMER
 70
     1
  9
$ANGBASE
 50
0.0
  9
$ANGDIR
 70
     0
  9
$PDMODE
 70
     0
  9
$PDSIZE
 40
-1.0
  9
$PLINEWID
 40
0.0
  9
$SPLFRAME
 70
     0
  9
$SPLINETYPE
 70
     6
  9
$SPLINESEGS
 70
     8
  9
$HANDSEED
  5
64D
  9
$SURFTAB1
 70
     6
  9
$SURFTAB2
 70
     6
  9
$SURFTYPE
 70
     6
  9
$SURFU
 70
     6
  9
$SURFV
 70
     6
  9
$UCSBASE
  2

  9
$UCSNAME
  2

  9
$UCSORG
 10
0.0
 20
0.0
 30
0.0
  9
$UCSXDIR
 10
1.0
 20
0.0
 30
0.0
  9
$UCSYDIR
 10
0.0
 20
1.0
 30
0.0
  9
$UCSORTHOREF
  2

  9
$UCSORTHOVIEW
 70
     0
  9
$UCSORGTOP
 10
0.0
 20
0.0
 30
0.0
  9
$UCSORGBOTTOM
 10
0.0
 20
0.0
 30
0.0
  9
$UCSORGLEFT
 10
0.0
 20
0.0
 30
0.0
  9
$UCSORGRIGHT
 10
0.0
 20
0.0
 30
0.0
  9
$UCSORGFRONT
 10
0.0
 20
0.0
 30
0.0
  9
$UCSORGBACK
 10
0.0
 20
0.0
 30
0.0
  9
$PUCSBASE
  2

  9
$PUCSNAME
  2

  9
$PUCSORG
 10
0.0
 20
0.0
 30
0.0
  9
$PUCSXDIR
 10
1.0
 20
0.0
 30
0.0
  9
$PUCSYDIR
 10
0.0
 20
1.0
 30
0.0
  9
$PUCSORTHOREF
  2

  9
$PUCSORTHOVIEW
 70
     0
  9
$PUCSORGTOP
 10
0.0
 20
0.0
 30
0.0
  9
$PUCSORGBOTTOM
 10
0.0
 20
0.0
 30
0.0
  9
$PUCSORGLEFT
 10
0.0
 20
0.0
 30
0.0
  9
$PUCSORGRIGHT
 10
0.0
 20
0.0
 30
0.0
  9
$PUCSORGFRONT
 10
0.0
 20
0.0
 30
0.0
  9
$PUCSORGBACK
 10
0.0
 20
0.0
 30
0.0
  9
$USERI1
 70
     0
  9
$USERI2
 70
     0
  9
$USERI3
 70
     0
  9
$USERI4
 70
     0
  9
$USERI5
 70
     0
  9
$USERR1
 40
0.0
  9
$USERR2
 40
0.0
  9
$USERR3
 40
0.0
  9
$USERR4
 40
0.0
  9
$USERR5
 40
0.0
  9
$WORLDVIEW
 70
     1
  9
$SHADEDGE
 70
     3
  9
$SHADEDIF
 70
    70
  9
$TILEMODE
 70
     1
  9
$MAXACTVP
 70
    64
  9
$PINSBASE
 10
0.0
 20
0.0
 30
0.0
  9
$PLIMCHECK
 70
     0
  9
$PEXTMIN
 10
1.0000000000E+20
 20
1.0000000000E+20
 30
1.0000000000E+20
  9
$PEXTMAX
 10
-1.0000000000E+20
 20
-1.0000000000E+20
 30
-1.0000000000E+20
  9
$PLIMMIN
 10
0.0
 20
0.0
  9
$PLIMMAX
 10
12.0
 20
9.0
  9
$UNITMODE
 70
     0
  9
$VISRETAIN
 70
     1
  9
$PLINEGEN
 70
     0
  9
$PSLTSCALE
 70
     1
  9
$TREEDEPTH
 70
  3020
  9
$CMLSTYLE
  2
Standard
  9
$CMLJUST
 70
     0
  9
$CMLSCALE
 40
1.0
  9
$PROXYGRAPHICS
 70
     1
  9
$MEASUREMENT
 70
     0
  9
$CELWEIGHT
370
    -1
  9
$ENDCAPS
280
     0
  9
$JOINSTYLE
280
     0
  9
$LWDISPLAY
290
     1
  9
$INSUNITS
 70
     1
  9
$HYPERLINKBASE
  1

  9
$STYLESHEET
  1

  9
$XEDIT
290
     1
  9
$CEPSNTYPE
380
     0
  9
$PSTYLEMODE
290
     1
  9
$FINGERPRINTGUID
  2
{49281911-1665-489D-892A-6DE5954F04B2}
  9
$VERSIONGUID
  2
{FAEB1C32-E019-11D5-929B-00C0DF256EC4}
  9
$EXTNAMES
290
     1
  9
$PSVPSCALE
 40
0.0
  9
$OLESTARTUP
290
     0
  0
ENDSEC
  0
SECTION
  2
CLASSES
  0
CLASS
  1
ACDBDICTIONARYWDFLT
  2
AcDbDictionaryWithDefault
  3
ObjectDBX Classes
 90
        0
280
     0
281
     0
  0
CLASS
  1
VISUALSTYLE
  2
AcDbVisualStyle
  3
ObjectDBX Classes
 90
     4095
280
     0
281
     0
  0
CLASS
  1
ACDBPLACEHOLDER
  2
AcDbPlaceHolder
  3
ObjectDBX Classes
 90
        0
280
     0
281
     0
  0
CLASS
  1
LAYOUT
  2
AcDbLayout
  3
ObjectDBX Classes
 90
        0
280
     0
281
     0
  0
ENDSEC
  0
SECTION
  2
TABLES
  0
TABLE
  2
VPORT
  5
8
330
0
100
AcDbSymbolTable
 70
     1
  0
VPORT
  5
29
330
8
100
AcDbSymbolTableRecord
100
AcDbViewportTableRecord
  2
*Active
 70
     0
 10
0.0
 20
0.0
 11
1.0
 21
1.0
 12
22.0
 22
17.0
 13
0.0
 23
0.0
 14
0.5
 24
0.5
 15
0.5
 25
0.5
 16
0.0
 26
0.0
 36
1.0
 17
0.0
 27
0.0
 37
0.0
 40
34.0
 41
1.2941176471
 42
50.0
 43
0.0
 44
0.0
 50
0.0
 51
0.0
 71
     0
 72
  2000
 73
     1
 74
     3
 75
     0
 76
     0
 77
     0
 78
     0
281
     0
 65
     1
110
0.0
120
0.0
130
0.0
111
1.0
121
0.0
131
0.0
112
0.0
122
1.0
132
0.0
 79
     0
146
0.0
  0
ENDTAB
  0
TABLE
  2
LTYPE
  5
5
330
0
100
AcDbSymbolTable
 70
     6
  0
LTYPE
  5
14
330
5
100
AcDbSymbolTableRecord
100
AcDbLinetypeTableRecord
  2
ByBlock
 70
     0
  3

 72
    65
 73
     0
 40
0.0
  0
LTYPE
  5
15
330
5
100
AcDbSymbolTableRecord
100
AcDbLinetypeTableRecord
  2
ByLayer
 70
     0
  3

 72
    65
 73
     0
 40
0.0
  0
LTYPE
  5
16
330
5
100
AcDbSymbolTableRecord
100
AcDbLinetypeTableRecord
  2
Continuous
 70
     0
  3
Solid line
 72
    65
 73
     0
 40
0.0
  0
LTYPE
  5
3B
330
5
100
AcDbSymbolTableRecord
100
AcDbLinetypeTableRecord
  2
HIDDEN
 70
     0
  3
Hidden __ __ __ __ __ __ __ __ __ __ __ __ __ __
 72
    65
 73
     2
 40
0.075
 49
0.05
 74
     0
 49
-0.025
 74
     0
  0
LTYPE
  5
3C
330
5
100
AcDbSymbolTableRecord
100
AcDbLinetypeTableRecord
  2
PHANTOM
 70
     0
  3
Phantom ______  __  __  ______  __  __  ______
 72
    65
 73
     6
 40
0.5
 49
0.25
 74
     0
 49
-0.05
 74
     0
 49
0.05
 74
     0
 49
-0.05
 74
     0
 49
0.05
 74
     0
 49
-0.05
 74
     0
  0
LTYPE
  5
3D
330
5
100
AcDbSymbolTableRecord
100
AcDbLinetypeTableRecord
  2
CENTER
 70
     0
  3
Center ____ _ ____ _ ____ _ ____ _ ____ _ ____
 72
    65
 73
     4
 40
0.4
 49
0.25
 74
     0
 49
-0.05
 74
     0
 49
0.05
 74
     0
 49
-0.05
 74
     0
  0
LTYPE
  5
3E
330
5
100
AcDbSymbolTableRecord
100
AcDbLinetypeTableRecord
  2
CENTERX2
 70
     0
  3
Center (2x) ________  __  ________  __  _____
 72
    65
 73
     4
 40
0.8
 49
0.5
 74
     0
 49
-0.1
 74
     0
 49
0.1
 74
     0
 49
-0.1
 74
     0
  0
LTYPE
  5
3F
330
5
100
AcDbSymbolTableRecord
100
AcDbLinetypeTableRecord
  2
DOT2
 70
     0
  3
Dot (.5x) ........................................
 72
    65
 73
     2
 40
0.025
 49
0.0
 74
     0
 49
-0.025
 74
     0
  0
ENDTAB
  0
TABLE
  2
LAYER
  5
2
330
0
100
AcDbSymbolTable
 70
    12
  0
LAYER
  5
10
330
2
100
AcDbSymbolTableRecord
100
AcDbLayerTableRecord
  2
0
 70
     0
 62
     7
  6
Continuous
370
    -3
390
F
  0
LAYER
  5
40
330
2
100
AcDbSymbolTableRecord
100
AcDbLayerTableRecord
  2
SLD-0
 70
     0
 62
   179
  6
Continuous
370
    -3
390
F
  0
LAYER
  5
41
330
2
100
AcDbSymbolTableRecord
100
AcDbLayerTableRecord
  2
2
 70
     0
 62
     2
  6
Continuous
370
    -3
390
F
  0
LAYER
  5
42
330
2
100
AcDbSymbolTableRecord
100
AcDbLayerTableRecord
  2
4
 70
     0
 62
     4
  6
Continuous
370
    -3
390
F
  0
LAYER
  5
43
330
2
100
AcDbSymbolTableRecord
100
AcDbLayerTableRecord
  2
TRMODEL1
 70
     0
 62
   179
  6
Continuous
370
    -3
390
F
  0
LAYER
  5
44
330
2
100
AcDbSymbolTableRecord
100
AcDbLayerTableRecord
  2
TRMODEL2
 70
     0
 62
     3
  6
Continuous
370
    -3
390
F
  0
LAYER
  5
45
330
2
100
AcDbSymbolTableRecord
100
AcDbLayerTableRecord
  2
TRMODEL3
 70
     0
 62
     1
  6
HIDDEN
370
    -3
390
F
  0
LAYER
  5
46
330
2
100
AcDbSymbolTableRecord
100
AcDbLayerTableRecord
  2
TRDIM
 70
     0
 62
     3
  6
Continuous
370
    -3
390
F
  0
LAYER
  5
47
330
2
100
AcDbSymbolTableRecord
100
AcDbLayerTableRecord
  2
TRDETAIL1
 70
     0
 62
     1
  6
Continuous
370
    -3
390
F
  0
LAYER
  5
48
330
2
100
AcDbSymbolTableRecord
100
AcDbLayerTableRecord
  2
TRDETAIL2
 70
     0
 62
     6
  6
HIDDEN
370
    -3
390
F
  0
LAYER
  5
49
330
2
100
AcDbSymbolTableRecord
100
AcDbLayerTableRecord
  2
TRDETAIL3
 70
     0
 62
     4
  6
CENTERX2
370
    -3
390
F
  0
LAYER
  5
4A
330
2
100
AcDbSymbolTableRecord
100
AcDbLayerTableRecord
  2
TRTEXT
 70
     0
 62
   179
  6
Continuous
370
    -3
390
F
  0
ENDTAB
  0
TABLE
  2
STYLE
  5
3
330
0
100
AcDbSymbolTable
 70
     1
  0
STYLE
  5
11
330
3
100
AcDbSymbolTableRecord
100
AcDbTextStyleTableRecord
  2
Standard
 70
     0
 40
0.0
 41
1.0
 50
0.0
 71
     0
 42
0.2
  3
txt
  4

  0
ENDTAB
  0
TABLE
  2
VIEW
  5
6
330
0
100
AcDbSymbolTable
 70
     0
  0
ENDTAB
  0
TABLE
  2
UCS
  5
7
330
0
100
AcDbSymbolTable
 70
     0
  0
ENDTAB
  0
TABLE
  2
APPID
  5
9
330
0
100
AcDbSymbolTable
 70
     1
  0
APPID
  5
12
330
9
100
AcDbSymbolTableRecord
100
AcDbRegAppTableRecord
  2
ACAD
 70
     0
  0
ENDTAB
  0
TABLE
  2
DIMSTYLE
  5
A
330
0
100
AcDbSymbolTable
 70
     1
100
AcDbDimStyleTable
  0
DIMSTYLE
105
27
330
A
100
AcDbSymbolTableRecord
100
AcDbDimStyleTableRecord
  2
Standard
 70
     0
340
11
  0
ENDTAB
  0
TABLE
  2
BLOCK_RECORD
  5
1
330
0
100
AcDbSymbolTable
 70
     1
  0
BLOCK_RECORD
  5
1F
330
1
100
AcDbSymbolTableRecord
100
AcDbBlockTableRecord
  2
*Model_Space
340
22
  0
BLOCK_RECORD
  5
1B
330
1
100
AcDbSymbolTableRecord
100
AcDbBlockTableRecord
  2
*Paper_Space
340
1E
  0
BLOCK_RECORD
  5
23
330
1
100
AcDbSymbolTableRecord
100
AcDbBlockTableRecord
  2
*Paper_Space0
340
26
  0
ENDTAB
  0
ENDSEC
  0
SECTION
  2
BLOCKS
  0
BLOCK
  5
20
330
1F
100
AcDbEntity
  8
0
100
AcDbBlockBegin
  2
*Model_Space
 70
     0
 71
     0
 10
0.0
 20
0.0
 30
0.0
  3
*Model_Space
  1

  0
ENDBLK
  5
21
330
1F
100
AcDbEntity
  8
0
100
AcDbBlockEnd
  0
BLOCK
  5
1C
330
1B
100
AcDbEntity
 67
     1
  8
0
100
AcDbBlockBegin
  2
*Paper_Space
 70
     0
 71
     0
 10
0.0
 20
0.0
 30
0.0
  3
*Paper_Space
  1

  0
ENDBLK
  5
1D
330
1B
100
AcDbEntity
 67
     1
  8
0
100
AcDbBlockEnd
  0
BLOCK
  5
24
330
23
100
AcDbEntity
  8
0
100
AcDbBlockBegin
  2
*Paper_Space0
 70
     0
 71
     0
 10
0.0
 20
0.0
 30
0.0
  3
*Paper_Space0
  1

  0
ENDBLK
  5
25
330
23
100
AcDbEntity
  8
0
100
AcDbBlockEnd
  0
ENDSEC
  0
SECTION
  2
ENTITIES
  0
LINE
  5
4B
330
1F
100
AcDbEntity
  8
TRMODEL1
  6
Continuous
 62
     2
100
AcDbLine
 10
11.8781828408
 20
19.6789651491
 30
0.0
 11
9.8465823981
 21
18.5061471776
 31
0.0
  0
LINE
  5
4C
330
1F
100
AcDbEntity
  8
TRMODEL1
  6
Continuous
 62
     2
100
AcDbLine
 10
9.8465823981
 20
19.201762727
 30
0.0
 11
11.2757294652
 21
20.0267917676
 31
0.0
  0
LINE
  5
4D
330
1F
100
AcDbEntity
  8
TRMODEL1
  6
Continuous
 62
     2
100
AcDbLine
 10
9.8465823981
 20
18.6018602359
 30
0.0
 11
11.7952884099
 21
19.726824271
 31
0.0
  0
LINE
  5
4E
330
1F
100
AcDbEntity
  8
TRMODEL1
  6
Continuous
 62
     2
100
AcDbLine
 10
9.8465823981
 20
18.5268602359
 30
0.0
 11
11.8602438342
 21
19.6893222393
 31
0.0
  0
LINE
  5
4F
330
1F
100
AcDbEntity
  8
TRMODEL1
  6
Continuous
 62
     2
100
AcDbLine
 10
9.8465823981
 20
17.7020064994
 30
0.0
 11
12.574626827
 21
19.2768730262
 31
0.0
  0
LINE
  5
50
330
1F
100
AcDbEntity
  8
TRMODEL1
  6
Continuous
 62
     4
100
AcDbLine
 10
9.8465823981
 20
1.0625000213
 30
0.0
 11
9.8465823981
 21
21.9748172249
 31
0.0
  0
LINE
  5
51
330
1F
100
AcDbEntity
  8
TRMODEL1
  6
Continuous
 62
     4
100
AcDbLine
 10
8.0062783782
 20
0.0
 30
0.0
 11
8.0062783782
 21
20.9123172036
 31
0.0
  0
LINE
  5
52
330
1F
100
AcDbEntity
  8
TRMODEL1
  6
Continuous
 62
     4
100
AcDbLine
 10
6.1659743584
 20
5.4097502562
 30
0.0
 11
6.1659743584
 21
21.9748172249
 31
0.0
  0
LINE
  5
53
330
1F
100
AcDbEntity
  8
TRMODEL1
  6
Continuous
 62
     2
100
AcDbLine
 10
7.4882881386
 20
21.2113790079
 30
0.0
 11
7.5694780219
 21
21.3520040107
 31
0.0
  0
LINE
  5
54
330
1F
100
AcDbEntity
  8
TRMODEL1
  6
Continuous
 62
     4
100
AcDbLine
 10
8.0062783782
 20
22.8498172424
 30
0.0
 11
6.4907338913
 21
21.9748172249
 31
0.0
  0
LINE
  5
55
330
1F
100
AcDbEntity
  8
TRMODEL1
  6
Continuous
 62
     4
100
AcDbLine
 10
8.0062783782
 20
23.0373172461
 30
0.0
 11
6.1659743584
 21
21.9748172249
 31
0.0
  0
LINE
  5
56
330
1F
100
AcDbEntity
  8
TRMODEL1
  6
Continuous
 62
     4
100
AcDbLine
 10
8.0062783782
 20
21.0998172074
 30
0.0
 11
6.4907338913
 21
21.9748172249
 31
0.0
  0
LINE
  5
57
330
1F
100
AcDbEntity
  8
TRMODEL1
  6
Continuous
 62
     4
100
AcDbLine
 10
8.0062783782
 20
20.9123172036
 30
0.0
 11
6.1659743584
 21
21.9748172249
 31
0.0
  0
LINE
  5
58
330
1F
100
AcDbEntity
  8
TRMODEL1
  6
Continuous
 62
     2
100
AcDbLine
 10
7.3800349632
 20
21.2738790079
 30
0.0
 11
7.4612248464
 21
21.4145040107
 31
0.0
  0
LINE
  5
59
330
1F
100
AcDbEntity
  8
TRMODEL1
  6
Continuous
 62
     2
100
AcDbLine
 10
7.2717817877
 20
21.3363790079
 30
0.0
 11
7.3529716709
 21
21.4770040107
 31
0.0
  0
LINE
  5
5A
330
1F
100
AcDbEntity
  8
TRMODEL1
  6
Continuous
 62
     2
100
AcDbLine
 10
7.1635286122
 20
21.3988790079
 30
0.0
 11
7.2447184954
 21
21.5395040107
 31
0.0
  0
LINE
  5
5B
330
1F
100
AcDbEntity
  8
TRMODEL1
  6
Continuous
 62
     2
100
AcDbLine
 10
7.0552754367
 20
21.4613790079
 30
0.0
 11
7.13646532
 21
21.6020040107
 31
0.0
  0
LINE
  5
5C
330
1F
100
AcDbEntity
  8
TRMODEL1
  6
Continuous
 62
     2
100
AcDbLine
 10
6.9470222613
 20
21.5238790079
 30
0.0
 11
7.0282121445
 21
21.6645040107
 31
0.0
  0
LINE
  5
5D
330
1F
100
AcDbEntity
  8
TRMODEL1
  6
Continuous
 62
     2
100
AcDbLine
 10
7.3491840467
 20
22.4704436532
 30
0.0
 11
7.5115638132
 21
22.7516936588
 31
0.0
  0
LINE
  5
5E
330
1F
100
AcDbEntity
  8
TRMODEL1
  6
Continuous
 62
     2
100
AcDbLine
 10
6.8387690858
 20
21.5863790079
 30
0.0
 11
6.919958969
 21
21.7270040107
 31
0.0
  0
LINE
  5
5F
330
1F
100
AcDbEntity
  8
TRMODEL1
  6
Continuous
 62
     2
100
AcDbLine
 10
7.1326776958
 20
22.3454436532
 30
0.0
 11
7.2950574622
 21
22.6266936588
 31
0.0
  0
LINE
  5
60
330
1F
100
AcDbEntity
  8
TRMODEL1
  6
Continuous
 62
     2
100
AcDbLine
 10
6.7305159103
 20
21.6488790079
 30
0.0
 11
6.8117057935
 21
21.7895040107
 31
0.0
  0
LINE
  5
61
330
1F
100
AcDbEntity
  8
TRMODEL1
  6
Continuous
 62
     2
100
AcDbLine
 10
6.9161713448
 20
22.2204436532
 30
0.0
 11
7.0785511113
 21
22.5016936588
 31
0.0
  0
LINE
  5
62
330
1F
100
AcDbEntity
  8
TRMODEL1
  6
Continuous
 62
     2
100
AcDbLine
 10
6.6222627348
 20
21.7113790079
 30
0.0
 11
6.7034526181
 21
21.8520040107
 31
0.0
  0
LINE
  5
63
330
1F
100
AcDbEntity
  8
TRMODEL1
  6
Continuous
 62
     2
100
AcDbLine
 10
6.6996649939
 20
22.0954436532
 30
0.0
 11
6.8620447604
 21
22.3766936588
 31
0.0
  0
LINE
  5
64
330
1F
100
AcDbEntity
  8
TRMODEL1
  6
Continuous
 62
     2
100
AcDbLine
 10
6.5140095594
 20
21.7738790079
 30
0.0
 11
6.5951994426
 21
21.9145040107
 31
0.0
  0
LINE
  5
65
330
1F
100
AcDbEntity
  8
TRMODEL1
  6
Continuous
 62
     2
100
AcDbLine
 10
6.4057563839
 20
21.8363790079
 30
0.0
 11
6.6455384094
 21
22.2516936588
 31
0.0
  0
LINE
  5
66
330
1F
100
AcDbEntity
  8
TRMODEL1
  6
Continuous
 62
     2
100
AcDbLine
 10
6.2975032084
 20
21.8988790079
 30
0.0
 11
6.4290320585
 21
22.1266936588
 31
0.0
  0
LINE
  5
67
330
1F
100
AcDbEntity
  8
TRMODEL1
  6
Continuous
 62
     2
100
AcDbLine
 10
6.1892500329
 20
21.9613790079
 30
0.0
 11
6.2125257075
 21
22.0016936588
 31
0.0
  0
LINE
  5
68
330
1F
100
AcDbEntity
  8
TRMODEL1
  6
Continuous
 62
     2
100
AcDbLine
 10
9.3015288446
 20
22.102004037
 30
0.0
 11
9.3827187278
 21
22.2426290398
 31
0.0
  0
LINE
  5
69
330
1F
100
AcDbEntity
  8
TRMODEL1
  6
Continuous
 62
     4
100
AcDbLine
 10
8.0062783782
 20
22.8498172424
 30
0.0
 11
9.5218228652
 21
21.9748172249
 31
0.0
  0
LINE
  5
6A
330
1F
100
AcDbEntity
  8
TRMODEL1
  6
Continuous
 62
     4
100
AcDbLine
 10
8.0062783782
 20
23.0373172461
 30
0.0
 11
9.8465823981
 21
21.9748172249
 31
0.0
  0
LINE
  5
6B
330
1F
100
AcDbEntity
  8
TRMODEL1
  6
Continuous
 62
     4
100
AcDbLine
 10
8.0062783782
 20
21.0998172074
 30
0.0
 11
9.5218228652
 21
21.9748172249
 31
0.0
  0
LINE
  5
6C
330
1F
100
AcDbEntity
  8
TRMODEL1
  6
Continuous
 62
     4
100
AcDbLine
 10
8.0062783782
 20
20.9123172036
 30
0.0
 11
9.8465823981
 21
21.9748172249
 31
0.0
  0
LINE
  5
6D
330
1F
100
AcDbEntity
  8
TRMODEL1
  6
Continuous
 62
     2
100
AcDbLine
 10
9.1353614085
 20
21.5641935951
 30
0.0
 11
9.2977411749
 21
21.8454436007
 31
0.0
  0
LINE
  5
6E
330
1F
100
AcDbEntity
  8
TRMODEL1
  6
Continuous
 62
     2
100
AcDbLine
 10
8.9188550575
 20
21.4391935951
 30
0.0
 11
9.081234824
 21
21.7204436007
 31
0.0
  0
LINE
  5
6F
330
1F
100
AcDbEntity
  8
TRMODEL1
  6
Continuous
 62
     2
100
AcDbLine
 10
9.1932756691
 20
22.164504037
 30
0.0
 11
9.2744655523
 21
22.3051290398
 31
0.0
  0
LINE
  5
70
330
1F
100
AcDbEntity
  8
TRMODEL1
  6
Continuous
 62
     2
100
AcDbLine
 10
8.7023487066
 20
21.3141935951
 30
0.0
 11
8.864728473
 21
21.5954436007
 31
0.0
  0
LINE
  5
71
330
1F
100
AcDbEntity
  8
TRMODEL1
  6
Continuous
 62
     2
100
AcDbLine
 10
9.0850224936
 20
22.227004037
 30
0.0
 11
9.1662123769
 21
22.3676290398
 31
0.0
  0
LINE
  5
72
330
1F
100
AcDbEntity
  8
TRMODEL1
  6
Continuous
 62
     2
100
AcDbLine
 10
8.4858423556
 20
21.1891935951
 30
0.0
 11
8.6482221221
 21
21.4704436007
 31
0.0
  0
LINE
  5
73
330
1F
100
AcDbEntity
  8
TRMODEL1
  6
Continuous
 62
     2
100
AcDbLine
 10
8.9767693182
 20
22.289504037
 30
0.0
 11
9.0579592014
 21
22.4301290398
 31
0.0
  0
LINE
  5
74
330
1F
100
AcDbEntity
  8
TRMODEL1
  6
Continuous
 62
     2
100
AcDbLine
 10
8.2693360047
 20
21.0641935951
 30
0.0
 11
8.4317157712
 21
21.3454436007
 31
0.0
  0
LINE
  5
75
330
1F
100
AcDbEntity
  8
TRMODEL1
  6
Continuous
 62
     2
100
AcDbLine
 10
8.8685161427
 20
22.352004037
 30
0.0
 11
8.9497060259
 21
22.4926290398
 31
0.0
  0
LINE
  5
76
330
1F
100
AcDbEntity
  8
TRMODEL1
  6
Continuous
 62
     2
100
AcDbLine
 10
8.0528296538
 20
20.9391935951
 30
0.0
 11
8.2152094202
 21
21.2204436007
 31
0.0
  0
LINE
  5
77
330
1F
100
AcDbEntity
  8
TRMODEL1
  6
Continuous
 62
     2
100
AcDbLine
 10
8.7602629672
 20
22.414504037
 30
0.0
 11
8.8414528504
 21
22.5551290398
 31
0.0
  0
LINE
  5
78
330
1F
100
AcDbEntity
  8
TRMODEL1
  6
Continuous
 62
     2
100
AcDbLine
 10
7.9213008405
 20
20.9613790079
 30
0.0
 11
8.0024907237
 21
21.1020040107
 31
0.0
  0
LINE
  5
79
330
1F
100
AcDbEntity
  8
TRMODEL1
  6
Continuous
 62
     2
100
AcDbLine
 10
8.6520097917
 20
22.477004037
 30
0.0
 11
8.733199675
 21
22.6176290398
 31
0.0
  0
LINE
  5
7A
330
1F
100
AcDbEntity
  8
TRMODEL1
  6
Continuous
 62
     2
100
AcDbLine
 10
7.813047665
 20
21.0238790079
 30
0.0
 11
7.8942375483
 21
21.1645040107
 31
0.0
  0
LINE
  5
7B
330
1F
100
AcDbEntity
  8
TRMODEL1
  6
Continuous
 62
     2
100
AcDbLine
 10
8.5437566163
 20
22.539504037
 30
0.0
 11
8.6249464995
 21
22.6801290398
 31
0.0
  0
LINE
  5
7C
330
1F
100
AcDbEntity
  8
TRMODEL1
  6
Continuous
 62
     2
100
AcDbLine
 10
7.7047944896
 20
21.0863790079
 30
0.0
 11
7.7859843728
 21
21.2270040107
 31
0.0
  0
LINE
  5
7D
330
1F
100
AcDbEntity
  8
TRMODEL1
  6
Continuous
 62
     2
100
AcDbLine
 10
8.4355034408
 20
22.602004037
 30
0.0
 11
8.516693324
 21
22.7426290398
 31
0.0
  0
LINE
  5
7E
330
1F
100
AcDbEntity
  8
TRMODEL1
  6
Continuous
 62
     2
100
AcDbLine
 10
7.5965413141
 20
21.1488790079
 30
0.0
 11
7.6777311973
 21
21.2895040107
 31
0.0
  0
LINE
  5
7F
330
1F
100
AcDbEntity
  8
TRMODEL1
  6
Continuous
 62
     2
100
AcDbLine
 10
8.3272502653
 20
22.664504037
 30
0.0
 11
8.4084401486
 21
22.8051290398
 31
0.0
  0
LINE
  5
80
330
1F
100
AcDbEntity
  8
TRMODEL1
  6
Continuous
 62
     2
100
AcDbLine
 10
8.2189970898
 20
22.727004037
 30
0.0
 11
8.3001869731
 21
22.8676290398
 31
0.0
  0
LINE
  5
81
330
1F
100
AcDbEntity
  8
TRMODEL1
  6
Continuous
 62
     2
100
AcDbLine
 10
8.1107439144
 20
22.789504037
 30
0.0
 11
8.1919337976
 21
22.9301290398
 31
0.0
  0
LINE
  5
82
330
1F
100
AcDbEntity
  8
TRMODEL1
  6
Continuous
 62
     2
100
AcDbLine
 10
7.9987030996
 20
22.8454436532
 30
0.0
 11
8.0836806221
 21
22.9926290398
 31
0.0
  0
LINE
  5
83
330
1F
100
AcDbEntity
  8
TRMODEL1
  6
Continuous
 62
     2
100
AcDbLine
 10
7.7821967486
 20
22.7204436532
 30
0.0
 11
7.9445765151
 21
23.0016936588
 31
0.0
  0
LINE
  5
84
330
1F
100
AcDbEntity
  8
TRMODEL1
  6
Continuous
 62
     2
100
AcDbLine
 10
7.5656903977
 20
22.5954436532
 30
0.0
 11
7.7280701641
 21
22.8766936588
 31
0.0
  0
LINE
  5
85
330
1F
100
AcDbEntity
  8
TRMODEL1
  6
Continuous
 62
     4
100
AcDbLine
 10
8.0062783782
 20
22.8498172424
 30
0.0
 11
8.0062783782
 21
21.8459157619
 31
0.0
  0
LINE
  5
86
330
1F
100
AcDbEntity
  8
TRMODEL1
  6
Continuous
 62
     2
100
AcDbLine
 10
9.7848804613
 20
21.9391935951
 30
0.0
 11
9.8157314297
 21
21.9926290398
 31
0.0
  0
LINE
  5
87
330
1F
100
AcDbEntity
  8
TRMODEL1
  6
Continuous
 62
     2
100
AcDbLine
 10
9.5683741104
 20
21.8141935951
 30
0.0
 11
9.7074782542
 21
22.0551290398
 31
0.0
  0
LINE
  5
88
330
1F
100
AcDbEntity
  8
TRMODEL1
  6
Continuous
 62
     2
100
AcDbLine
 10
9.5180351955
 20
21.977004037
 30
0.0
 11
9.5992250788
 21
22.1176290398
 31
0.0
  0
LINE
  5
89
330
1F
100
AcDbEntity
  8
TRMODEL1
  6
Continuous
 62
     2
100
AcDbLine
 10
9.3518677594
 20
21.6891935951
 30
0.0
 11
9.5142475259
 21
21.9704436007
 31
0.0
  0
LINE
  5
8A
330
1F
100
AcDbEntity
  8
TRMODEL1
  6
Continuous
 62
     2
100
AcDbLine
 10
9.4097820201
 20
22.039504037
 30
0.0
 11
9.4909719033
 21
22.1801290398
 31
0.0
  0
LINE
  5
8B
330
1F
100
AcDbEntity
  8
TRMODEL1
  6
Continuous
 62
     2
100
AcDbLine
 10
10.5792854791
 20
20.4288838905
 30
0.0
 11
9.8465823981
 21
20.0059034052
 31
0.0
  0
LINE
  5
8C
330
1F
100
AcDbEntity
  8
TRMODEL1
  6
Continuous
 62
     2
100
AcDbLine
 10
9.8465823981
 20
20.1016164636
 30
0.0
 11
10.4963910482
 21
20.4767430125
 31
0.0
  0
LINE
  5
8D
330
1F
100
AcDbEntity
  8
TRMODEL1
  6
Continuous
 62
     2
100
AcDbLine
 10
9.8465823981
 20
20.0266164636
 30
0.0
 11
10.5613464725
 21
20.4392409808
 31
0.0
  0
LINE
  5
8E
330
1F
100
AcDbEntity
  8
TRMODEL1
  6
Continuous
 62
     2
100
AcDbLine
 10
9.8465823981
 20
20.7015189546
 30
0.0
 11
9.9768321035
 21
20.7767105091
 31
0.0
  0
LINE
  5
8F
330
1F
100
AcDbEntity
  8
TRMODEL1
  6
Continuous
 62
     2
100
AcDbLine
 10
10.4962502947
 20
20.4766617572
 30
0.0
 11
10.4962502947
 21
20.4016617572
 31
0.0
  0
LINE
  5
90
330
1F
100
AcDbEntity
  8
TRMODEL1
  6
Continuous
 62
     2
100
AcDbLine
 10
10.2905804028
 20
20.2622179975
 30
0.0
 11
10.2905804028
 21
19.4580773193
 31
0.0
  0
LINE
  5
91
330
1F
100
AcDbEntity
  8
TRMODEL1
  6
Continuous
 62
     2
100
AcDbLine
 10
10.4962502947
 20
20.4016617572
 30
0.0
 11
10.495418318
 21
20.392387531
 31
0.0
  0
LINE
  5
92
330
1F
100
AcDbEntity
  8
TRMODEL1
  6
Continuous
 62
     2
100
AcDbLine
 10
10.495418318
 20
20.392387531
 30
0.0
 11
10.4929543603
 21
20.384430288
 31
0.0
  0
LINE
  5
93
330
1F
100
AcDbEntity
  8
TRMODEL1
  6
Continuous
 62
     2
100
AcDbLine
 10
10.4929543603
 20
20.384430288
 30
0.0
 11
10.4889531102
 21
20.3780958205
 31
0.0
  0
LINE
  5
94
330
1F
100
AcDbEntity
  8
TRMODEL1
  6
Continuous
 62
     2
100
AcDbLine
 10
10.4889531102
 20
20.3780958205
 30
0.0
 11
10.4835683333
 21
20.3736275586
 31
0.0
  0
LINE
  5
95
330
1F
100
AcDbEntity
  8
TRMODEL1
  6
Continuous
 62
     2
100
AcDbLine
 10
10.4835683333
 20
20.3736275586
 30
0.0
 11
10.4835656142
 21
20.3736265515
 31
0.0
  0
LINE
  5
96
330
1F
100
AcDbEntity
  8
TRMODEL1
  6
Continuous
 62
     2
100
AcDbLine
 10
9.9766631993
 20
20.7766130027
 30
0.0
 11
10.4962502947
 21
20.4766617572
 31
0.0
  0
LINE
  5
97
330
1F
100
AcDbEntity
  8
TRMODEL1
  6
Continuous
 62
     2
100
AcDbLine
 10
12.5745986763
 20
19.2768567751
 30
0.0
 11
13.0941857716
 21
18.9769055296
 31
0.0
  0
LINE
  5
98
330
1F
100
AcDbEntity
  8
TRMODEL1
  6
Continuous
 62
     2
100
AcDbLine
 10
11.5895481413
 20
19.5123398837
 30
0.0
 11
11.5895481413
 21
18.7081992055
 31
0.0
  0
LINE
  5
99
330
1F
100
AcDbEntity
  8
TRMODEL1
  6
Continuous
 62
     2
100
AcDbLine
 10
11.7952180332
 20
19.7267836434
 30
0.0
 11
11.7952180332
 21
19.6517836434
 31
0.0
  0
LINE
  5
9A
330
1F
100
AcDbEntity
  8
TRMODEL1
  6
Continuous
 62
     2
100
AcDbLine
 10
11.2756309378
 20
20.0267348889
 30
0.0
 11
11.7952180332
 21
19.7267836434
 31
0.0
  0
LINE
  5
9B
330
1F
100
AcDbEntity
  8
TRMODEL1
  6
Continuous
 62
     2
100
AcDbLine
 10
11.7952180332
 20
19.6517836434
 30
0.0
 11
11.7943860565
 21
19.6425094172
 31
0.0
  0
LINE
  5
9C
330
1F
100
AcDbEntity
  8
TRMODEL1
  6
Continuous
 62
     2
100
AcDbLine
 10
11.7943860565
 20
19.6425094172
 30
0.0
 11
11.7919220988
 21
19.6345521742
 31
0.0
  0
LINE
  5
9D
330
1F
100
AcDbEntity
  8
TRMODEL1
  6
Continuous
 62
     2
100
AcDbLine
 10
11.7919220988
 20
19.6345521742
 30
0.0
 11
11.7879208486
 21
19.6282177067
 31
0.0
  0
LINE
  5
9E
330
1F
100
AcDbEntity
  8
TRMODEL1
  6
Continuous
 62
     2
100
AcDbLine
 10
11.7879208486
 20
19.6282177067
 30
0.0
 11
11.7825360718
 21
19.6237494448
 31
0.0
  0
LINE
  5
9F
330
1F
100
AcDbEntity
  8
TRMODEL1
  6
Continuous
 62
     2
100
AcDbLine
 10
11.7825360718
 20
19.6237494448
 30
0.0
 11
11.7825333527
 21
19.6237484377
 31
0.0
  0
LINE
  5
A0
330
1F
100
AcDbEntity
  8
TRMODEL1
  6
Continuous
 62
     4
100
AcDbLine
 10
9.8465823981
 20
13.3842472222
 30
0.0
 11
12.4155480635
 21
11.9014353859
 31
0.0
  0
LINE
  5
A1
330
1F
100
AcDbEntity
  8
TRMODEL1
  6
Continuous
 62
     4
100
AcDbLine
 10
9.8465823981
 20
13.6968360418
 30
0.0
 11
12.0908061224
 21
12.4014658675
 31
0.0
  0
LINE
  5
A2
330
1F
100
AcDbEntity
  8
TRMODEL1
  6
Continuous
 62
     4
100
AcDbLine
 10
9.8465823981
 20
13.8218360443
 30
0.0
 11
12.0908061224
 21
12.52646587
 31
0.0
  0
LINE
  5
A3
330
1F
100
AcDbEntity
  8
TRMODEL1
  6
Continuous
 62
     4
100
AcDbLine
 10
9.8465823981
 20
13.259262022
 30
0.0
 11
12.3614244067
 21
11.8076904627
 31
0.0
  0
LINE
  5
A4
330
1F
100
AcDbEntity
  8
TRMODEL1
  6
Continuous
 62
     4
100
AcDbLine
 10
9.8465823981
 20
13.2092738627
 30
0.0
 11
12.3181254812
 21
11.782694525
 31
0.0
  0
LINE
  5
A5
330
1F
100
AcDbEntity
  8
TRMODEL1
  6
Continuous
 62
     4
100
AcDbLine
 10
9.8465823981
 20
12.8343182619
 30
0.0
 11
12.1557545106
 21
11.5014597552
 31
0.0
  0
LINE
  5
A6
330
1F
100
AcDbEntity
  8
TRMODEL1
  6
Continuous
 62
     4
100
AcDbLine
 10
11.1695668028
 20
7.0114949413
 30
0.0
 11
9.8465823981
 21
7.7752375814
 31
0.0
  0
LINE
  5
A7
330
1F
100
AcDbEntity
  8
TRMODEL1
  6
Continuous
 62
     4
100
AcDbLine
 10
9.8465823981
 20
7.7414114665
 30
0.0
 11
11.1902774825
 21
6.9657128055
 31
0.0
  0
LINE
  5
A8
330
1F
100
AcDbEntity
  8
TRMODEL1
  6
Continuous
 62
     4
100
AcDbLine
 10
11.1695668028
 20
7.2360436645
 30
0.0
 11
9.8465823981
 21
7.9997863047
 31
0.0
  0
LINE
  5
A9
330
1F
100
AcDbEntity
  8
TRMODEL1
  6
Continuous
 62
     4
100
AcDbLine
 10
9.8465823981
 20
10.259261962
 30
0.0
 11
12.3614244067
 21
8.8076904027
 31
0.0
  0
LINE
  5
AA
330
1F
100
AcDbEntity
  8
TRMODEL1
  6
Continuous
 62
     4
100
AcDbLine
 10
9.8465823981
 20
9.9468359668
 30
0.0
 11
12.0908061224
 21
8.6514657925
 31
0.0
  0
LINE
  5
AB
330
1F
100
AcDbEntity
  8
TRMODEL1
  6
Continuous
 62
     4
100
AcDbLine
 10
9.8465823981
 20
10.3842471622
 30
0.0
 11
12.4155480635
 21
8.9014353259
 31
0.0
  0
LINE
  5
AC
330
1F
100
AcDbEntity
  8
TRMODEL1
  6
Continuous
 62
     4
100
AcDbLine
 10
9.8465823981
 20
10.9593182244
 30
0.0
 11
12.1557545106
 21
9.6264597177
 31
0.0
  0
LINE
  5
AD
330
1F
100
AcDbEntity
  8
TRMODEL1
  6
Continuous
 62
     4
100
AcDbLine
 10
9.8465823981
 20
10.8816401718
 30
0.0
 11
12.2033211974
 21
9.5213260836
 31
0.0
  0
LINE
  5
AE
330
1F
100
AcDbEntity
  8
TRMODEL1
  6
Continuous
 62
     4
100
AcDbLine
 10
9.8465823981
 20
9.8218359643
 30
0.0
 11
12.0908061224
 21
8.52646579
 31
0.0
  0
LINE
  5
AF
330
1F
100
AcDbEntity
  8
TRMODEL1
  6
Continuous
 62
     4
100
AcDbLine
 10
9.8465823981
 20
14.1342620395
 30
0.0
 11
12.3614244067
 21
12.6826904802
 31
0.0
  0
LINE
  5
B0
330
1F
100
AcDbEntity
  8
TRMODEL1
  6
Continuous
 62
     4
100
AcDbLine
 10
12.4762286904
 20
12.6940588766
 30
0.0
 11
9.8465823981
 21
14.2118956854
 31
0.0
  0
LINE
  5
B1
330
1F
100
AcDbEntity
  8
TRMODEL1
  6
Continuous
 62
     2
100
AcDbLine
 10
10.8502052322
 20
7.657907175
 30
0.0
 11
13.4443313622
 21
9.1554643134
 31
0.0
  0
LINE
  5
B2
330
1F
100
AcDbEntity
  8
TRMODEL1
  6
Continuous
 62
     2
100
AcDbLine
 10
10.9151536191
 20
7.5704132693
 30
0.0
 11
13.5525857116
 21
9.0929704078
 31
0.0
  0
LINE
  5
B3
330
1F
100
AcDbEntity
  8
TRMODEL1
  6
Continuous
 62
     2
100
AcDbLine
 10
10.9584525437
 20
7.4954173322
 30
0.0
 11
13.6391905987
 21
9.0429744706
 31
0.0
  0
LINE
  5
B4
330
1F
100
AcDbEntity
  8
TRMODEL1
  6
Continuous
 62
     2
100
AcDbLine
 10
10.8935041568
 20
7.5829112379
 30
0.0
 11
13.5309362493
 21
9.1054683763
 31
0.0
  0
LINE
  5
B5
330
1F
100
AcDbEntity
  8
TRMODEL1
  6
Continuous
 62
     2
100
AcDbLine
 10
10.9584525437
 20
7.3579173322
 30
0.0
 11
13.7582819955
 21
8.9742244706
 31
0.0
  0
LINE
  5
B6
330
1F
100
AcDbEntity
  8
TRMODEL1
  6
Continuous
 62
     2
100
AcDbLine
 10
9.8465823981
 20
14.7024940441
 30
0.0
 11
15.1724215504
 21
17.7770355433
 31
0.0
  0
LINE
  5
B7
330
1F
100
AcDbEntity
  8
TRMODEL1
  6
Continuous
 62
     2
100
AcDbLine
 10
10.0062236214
 20
14.1197504696
 30
0.0
 11
15.6920508718
 21
17.4021086743
 31
0.0
  0
LINE
  5
B8
330
1F
100
AcDbEntity
  8
TRMODEL1
  6
Continuous
 62
     2
100
AcDbLine
 10
10.7206984295
 20
13.7073542604
 30
0.0
 11
15.4771398868
 21
16.4531894669
 31
0.0
  0
LINE
  5
B9
330
1F
100
AcDbEntity
  8
TRMODEL1
  6
Continuous
 62
     2
100
AcDbLine
 10
15.6793689095
 20
17.374074475
 30
0.0
 11
10.0241649336
 21
14.1093947104
 31
0.0
  0
LINE
  5
BA
330
1F
100
AcDbEntity
  8
TRMODEL1
  6
Continuous
 62
     2
100
AcDbLine
 10
9.9412598488
 20
14.157247682
 30
0.0
 11
15.6920508718
 21
17.4771086743
 31
0.0
  0
LINE
  5
BB
330
1F
100
AcDbEntity
  8
TRMODEL1
  6
Continuous
 62
     2
100
AcDbLine
 10
11.0558751241
 20
8.8016764736
 30
0.0
 11
11.3349191655
 21
8.9627651698
 31
0.0
  0
LINE
  5
BC
330
1F
100
AcDbEntity
  8
TRMODEL1
  6
Continuous
 62
     2
100
AcDbLine
 10
11.0558751241
 20
8.7266764736
 30
0.0
 11
11.3998829381
 21
8.9252679575
 31
0.0
  0
LINE
  5
BD
330
1F
100
AcDbEntity
  8
TRMODEL1
  6
Continuous
 62
     2
100
AcDbLine
 10
11.4178242503
 20
8.9149121982
 30
0.0
 11
11.0431906746
 21
8.6986408384
 31
0.0
  0
LINE
  5
BE
330
1F
100
AcDbEntity
  8
TRMODEL1
  6
Continuous
 62
     2
100
AcDbLine
 10
11.0119373924
 20
17.5641015898
 30
0.0
 11
11.6087855369
 21
17.21954849
 31
0.0
  0
LINE
  5
BF
330
1F
100
AcDbEntity
  8
TRMODEL1
  6
Continuous
 62
     2
100
AcDbLine
 10
14.380401171
 20
18.1239525888
 30
0.0
 11
9.8465823981
 21
15.5066347224
 31
0.0
  0
LINE
  5
C0
330
1F
100
AcDbEntity
  8
TRMODEL1
  6
Continuous
 62
     2
100
AcDbLine
 10
9.8465823981
 20
15.5273477807
 30
0.0
 11
14.3930831334
 21
18.1519867882
 31
0.0
  0
LINE
  5
C1
330
1F
100
AcDbEntity
  8
TRMODEL1
  6
Continuous
 62
     2
100
AcDbLine
 10
13.0815038093
 20
18.8738713303
 30
0.0
 11
9.8465823981
 21
17.00639095
 31
0.0
  0
LINE
  5
C2
330
1F
100
AcDbEntity
  8
TRMODEL1
  6
Continuous
 62
     2
100
AcDbLine
 10
9.8465823981
 20
17.1021040083
 30
0.0
 11
13.0941857716
 21
18.9769055296
 31
0.0
  0
LINE
  5
C3
330
1F
100
AcDbEntity
  8
TRMODEL1
  6
Continuous
 62
     2
100
AcDbLine
 10
9.8465823981
 20
16.2022502717
 30
0.0
 11
13.8735241887
 21
18.5269542847
 31
0.0
  0
LINE
  5
C4
330
1F
100
AcDbEntity
  8
TRMODEL1
  6
Continuous
 62
     2
100
AcDbLine
 10
9.8465823981
 20
17.0271040083
 30
0.0
 11
13.0941857716
 21
18.9019055296
 31
0.0
  0
LINE
  5
C5
330
1F
100
AcDbEntity
  8
TRMODEL1
  6
Continuous
 62
     2
100
AcDbLine
 10
9.851187369
 20
15.6050061738
 30
0.0
 11
14.3930831334
 21
18.2269867882
 31
0.0
  0
LINE
  5
C6
330
1F
100
AcDbEntity
  8
TRMODEL1
  6
Continuous
 62
     4
100
AcDbLine
 10
11.240277481
 20
1.0507403795
 30
0.0
 11
10.1543008354
 21
1.6776613526
 31
0.0
  0
LINE
  5
C7
330
1F
100
AcDbEntity
  8
TRMODEL1
  6
Continuous
 62
     4
100
AcDbLine
 10
11.1695668028
 20
0.9282658927
 30
0.0
 11
10.0128756484
 21
1.5960094828
 31
0.0
  0
LINE
  5
C8
330
1F
100
AcDbEntity
  8
TRMODEL1
  6
Continuous
 62
     4
100
AcDbLine
 10
11.1695668028
 20
0.7037171695
 30
0.0
 11
9.8465823981
 21
1.4674598096
 31
0.0
  0
LINE
  5
C9
330
1F
100
AcDbEntity
  8
TRMODEL1
  6
Continuous
 62
     4
100
AcDbLine
 10
13.2565574774
 20
6.718750125
 30
0.0
 11
9.8465823981
 21
4.750000095
 31
0.0
  0
LINE
  5
CA
330
1F
100
AcDbEntity
  8
TRMODEL1
  6
Continuous
 62
     4
100
AcDbLine
 10
13.2565574774
 20
3.46875006
 30
0.0
 11
9.8465823981
 21
1.50000003
 31
0.0
  0
LINE
  5
CB
330
1F
100
AcDbEntity
  8
TRMODEL1
  6
Continuous
 62
     4
100
AcDbLine
 10
13.2565574774
 20
5.5937501025
 30
0.0
 11
9.8465823981
 21
3.6250000725
 31
0.0
  0
LINE
  5
CC
330
1F
100
AcDbEntity
  8
TRMODEL1
  6
Continuous
 62
     2
100
AcDbLine
 10
4.1059207822
 20
12.6887997148
 30
0.0
 11
4.1600488362
 21
12.7825522543
 31
0.0
  0
LINE
  5
CD
330
1F
100
AcDbEntity
  8
TRMODEL1
  6
Continuous
 62
     2
100
AcDbLine
 10
2.9481514899
 20
12.683484477
 30
0.0
 11
3.0563988014
 21
12.8709743204
 31
0.0
  0
LINE
  5
CE
330
1F
100
AcDbEntity
  8
TRMODEL1
  6
Continuous
 62
     2
100
AcDbLine
 10
1.778414462
 20
12.6574405132
 30
0.0
 11
1.8531633389
 21
12.7869093658
 31
0.0
  0
LINE
  5
CF
330
1F
100
AcDbEntity
  8
TRMODEL1
  6
Continuous
 62
     2
100
AcDbLine
 10
1.6701583541
 20
12.7199354341
 30
0.0
 11
1.7627880019
 21
12.8803746905
 31
0.0
  0
LINE
  5
D0
330
1F
100
AcDbEntity
  8
TRMODEL1
  6
Continuous
 62
     4
100
AcDbLine
 10
6.1659743584
 20
9.9000073757
 30
0.0
 11
0.0
 21
13.4595486059
 31
0.0
  0
LINE
  5
D1
330
1F
100
AcDbEntity
  8
TRMODEL1
  6
Continuous
 62
     4
100
AcDbLine
 10
0.0207147415
 20
13.4137641252
 30
0.0
 11
6.1659743584
 21
9.8661812608
 31
0.0
  0
LINE
  5
D2
330
1F
100
AcDbEntity
  8
TRMODEL1
  6
Continuous
 62
     4
100
AcDbLine
 10
6.1659743584
 20
10.124556099
 30
0.0
 11
0.0
 21
13.6840973291
 31
0.0
  0
LINE
  5
D3
330
1F
100
AcDbEntity
  8
TRMODEL1
  6
Continuous
 62
     4
100
AcDbLine
 10
4.4666439083
 20
13.364572624
 30
0.0
 11
6.1659743584
 21
12.3837158772
 31
0.0
  0
LINE
  5
D4
330
1F
100
AcDbEntity
  8
TRMODEL1
  6
Continuous
 62
     4
100
AcDbLine
 10
4.5207675651
 20
13.4583175473
 30
0.0
 11
6.1659743584
 21
12.5087010775
 31
0.0
  0
LINE
  5
D5
330
1F
100
AcDbEntity
  8
TRMODEL1
  6
Continuous
 62
     4
100
AcDbLine
 10
4.196025624
 20
13.0833480113
 30
0.0
 11
6.1659743584
 21
11.9462898795
 31
0.0
  0
LINE
  5
D6
330
1F
100
AcDbEntity
  8
TRMODEL1
  6
Continuous
 62
     4
100
AcDbLine
 10
4.196025624
 20
13.2083480138
 30
0.0
 11
6.1659743584
 21
12.071289882
 31
0.0
  0
LINE
  5
D7
330
1F
100
AcDbEntity
  8
TRMODEL1
  6
Continuous
 62
     2
100
AcDbLine
 10
1.8656783745
 20
12.6070641288
 30
0.0
 11
2.9481514899
 21
13.231962557
 31
0.0
  0
LINE
  5
D8
330
1F
100
AcDbEntity
  8
TRMODEL1
  6
Continuous
 62
     2
100
AcDbLine
 10
1.8656783745
 20
12.7445641288
 30
0.0
 11
2.9172285056
 21
13.3516110982
 31
0.0
  0
LINE
  5
D9
330
1F
100
AcDbEntity
  8
TRMODEL1
  6
Continuous
 62
     2
100
AcDbLine
 10
1.8223794499
 20
12.819560066
 30
0.0
 11
1.830826651
 21
12.8137228646
 31
0.0
  0
LINE
  5
DA
330
1F
100
AcDbEntity
  8
TRMODEL1
  6
Continuous
 62
     2
100
AcDbLine
 10
1.830826651
 20
12.8137228646
 30
0.0
 11
1.8389492309
 21
12.8061885116
 31
0.0
  0
LINE
  5
DB
330
1F
100
AcDbEntity
  8
TRMODEL1
  6
Continuous
 62
     2
100
AcDbLine
 10
1.8389492309
 20
12.8061885116
 30
0.0
 11
1.8464350435
 21
12.797246548
 31
0.0
  0
LINE
  5
DC
330
1F
100
AcDbEntity
  8
TRMODEL1
  6
Continuous
 62
     2
100
AcDbLine
 10
1.8464350435
 20
12.797246548
 30
0.0
 11
1.8529964131
 21
12.7872406084
 31
0.0
  0
LINE
  5
DD
330
1F
100
AcDbEntity
  8
TRMODEL1
  6
Continuous
 62
     2
100
AcDbLine
 10
1.8529964131
 20
12.7872406084
 30
0.0
 11
1.8583811899
 21
12.7765552155
 31
0.0
  0
LINE
  5
DE
330
1F
100
AcDbEntity
  8
TRMODEL1
  6
Continuous
 62
     2
100
AcDbLine
 10
1.8583811899
 20
12.7765552155
 30
0.0
 11
1.8623824401
 21
12.7656010029
 31
0.0
  0
LINE
  5
DF
330
1F
100
AcDbEntity
  8
TRMODEL1
  6
Continuous
 62
     2
100
AcDbLine
 10
1.8623824401
 20
12.7656010029
 30
0.0
 11
1.8648463978
 21
12.7547989349
 31
0.0
  0
LINE
  5
E0
330
1F
100
AcDbEntity
  8
TRMODEL1
  6
Continuous
 62
     2
100
AcDbLine
 10
1.8648463978
 20
12.7547989349
 30
0.0
 11
1.8656783745
 21
12.7445641288
 31
0.0
  0
LINE
  5
E1
330
1F
100
AcDbEntity
  8
TRMODEL1
  6
Continuous
 62
     2
100
AcDbLine
 10
1.8656783745
 20
12.6070641288
 30
0.0
 11
1.5409364399
 21
12.7945336573
 31
0.0
  0
LINE
  5
E2
330
1F
100
AcDbEntity
  8
TRMODEL1
  6
Continuous
 62
     2
100
AcDbLine
 10
3.0563988014
 20
13.1946758579
 30
0.0
 11
3.0563988014
 21
12.1571758579
 31
0.0
  0
LINE
  5
E3
330
1F
100
AcDbEntity
  8
TRMODEL1
  6
Continuous
 62
     2
100
AcDbLine
 10
2.9481514899
 20
12.2196657007
 30
0.0
 11
2.9481514899
 21
13.2571657007
 31
0.0
  0
LINE
  5
E4
330
1F
100
AcDbEntity
  8
TRMODEL1
  6
Continuous
 62
     2
100
AcDbLine
 10
4.0414493364
 20
12.7760182882
 30
0.0
 11
4.0414493364
 21
12.8510182882
 31
0.0
  0
LINE
  5
E5
330
1F
100
AcDbEntity
  8
TRMODEL1
  6
Continuous
 62
     2
100
AcDbLine
 10
4.0414493364
 20
12.8510182882
 30
0.0
 11
4.5610364318
 21
12.5510670427
 31
0.0
  0
LINE
  5
E6
330
1F
100
AcDbEntity
  8
TRMODEL1
  6
Continuous
 62
     4
100
AcDbLine
 10
6.1659743584
 20
6.9293475235
 30
0.0
 11
2.6251339252
 21
8.9734311961
 31
0.0
  0
LINE
  5
E7
330
1F
100
AcDbEntity
  8
TRMODEL1
  6
Continuous
 62
     4
100
AcDbLine
 10
6.1659743584
 20
7.0926424159
 30
0.0
 11
2.6958446033
 21
9.0959056829
 31
0.0
  0
LINE
  5
E8
330
1F
100
AcDbEntity
  8
TRMODEL1
  6
Continuous
 62
     2
100
AcDbLine
 10
3.1646461129
 20
11.857186015
 30
0.0
 11
4.2471192283
 21
12.4820844432
 31
0.0
  0
LINE
  5
E9
330
1F
100
AcDbEntity
  8
TRMODEL1
  6
Continuous
 62
     2
100
AcDbLine
 10
3.099697726
 20
12.0821799207
 30
0.0
 11
4.1282143349
 21
12.6759299207
 31
0.0
  0
LINE
  5
EA
330
1F
100
AcDbEntity
  8
TRMODEL1
  6
Continuous
 62
     2
100
AcDbLine
 10
3.1646461129
 20
11.994686015
 30
0.0
 11
4.216196244
 21
12.6017329844
 31
0.0
  0
LINE
  5
EB
330
1F
100
AcDbEntity
  8
TRMODEL1
  6
Continuous
 62
     2
100
AcDbLine
 10
3.1213471883
 20
12.0696819522
 30
0.0
 11
4.1498637972
 21
12.6634319522
 31
0.0
  0
LINE
  5
EC
330
1F
100
AcDbEntity
  8
TRMODEL1
  6
Continuous
 62
     2
100
AcDbLine
 10
3.0563988014
 20
12.1571758579
 30
0.0
 11
4.054212485
 21
12.7332014363
 31
0.0
  0
LINE
  5
ED
330
1F
100
AcDbEntity
  8
TRMODEL1
  6
Continuous
 62
     4
100
AcDbLine
 10
6.1659743584
 20
3.9800732196
 30
0.0
 11
0.0707106781
 21
7.4987940441
 31
0.0
  0
LINE
  5
EE
330
1F
100
AcDbEntity
  8
TRMODEL1
  6
Continuous
 62
     4
100
AcDbLine
 10
6.1659743584
 20
3.8167783272
 30
0.0
 11
0.0
 21
7.3763195573
 31
0.0
  0
LINE
  5
EF
330
1F
100
AcDbEntity
  8
TRMODEL1
  6
Continuous
 62
     4
100
AcDbLine
 10
6.1659743584
 20
3.5922296039
 30
0.0
 11
0.0
 21
7.1517708341
 31
0.0
  0
LINE
  5
F0
330
1F
100
AcDbEntity
  8
TRMODEL1
  6
Continuous
 62
     4
100
AcDbLine
 10
2.6251339252
 20
8.9734311961
 30
0.0
 11
0.0707106781
 21
7.4987940441
 31
0.0
  0
LINE
  5
F1
330
1F
100
AcDbEntity
  8
TRMODEL1
  6
Continuous
 62
     4
100
AcDbLine
 10
0.0
 20
7.3763195573
 30
0.0
 11
0.0
 21
7.1517708341
 31
0.0
  0
LINE
  5
F2
330
1F
100
AcDbEntity
  8
TRMODEL1
  6
Continuous
 62
     4
100
AcDbLine
 10
0.0707106781
 20
7.4987940441
 30
0.0
 11
0.0569157092
 21
7.4892614178
 31
0.0
  0
LINE
  5
F3
330
1F
100
AcDbEntity
  8
TRMODEL1
  6
Continuous
 62
     4
100
AcDbLine
 10
0.0569157092
 20
7.4892614178
 30
0.0
 11
0.0436508731
 21
7.4769572043
 31
0.0
  0
LINE
  5
F4
330
1F
100
AcDbEntity
  8
TRMODEL1
  6
Continuous
 62
     4
100
AcDbLine
 10
0.0436508731
 20
7.4769572043
 30
0.0
 11
0.0314259302
 21
7.4623542479
 31
0.0
  0
LINE
  5
F5
330
1F
100
AcDbEntity
  8
TRMODEL1
  6
Continuous
 62
     4
100
AcDbLine
 10
0.0314259302
 20
7.4623542479
 30
0.0
 11
0.0207106781
 21
7.4460137318
 31
0.0
  0
LINE
  5
F6
330
1F
100
AcDbEntity
  8
TRMODEL1
  6
Continuous
 62
     4
100
AcDbLine
 10
0.0207106781
 20
7.4460137318
 30
0.0
 11
0.011916898
 21
7.428563613
 31
0.0
  0
LINE
  5
F7
330
1F
100
AcDbEntity
  8
TRMODEL1
  6
Continuous
 62
     4
100
AcDbLine
 10
0.011916898
 20
7.428563613
 30
0.0
 11
0.0053825299
 21
7.4106744897
 31
0.0
  0
LINE
  5
F8
330
1F
100
AcDbEntity
  8
TRMODEL1
  6
Continuous
 62
     4
100
AcDbLine
 10
0.0053825299
 20
7.4106744897
 30
0.0
 11
0.0013586859
 21
7.393033831
 31
0.0
  0
LINE
  5
F9
330
1F
100
AcDbEntity
  8
TRMODEL1
  6
Continuous
 62
     4
100
AcDbLine
 10
0.0013586859
 20
7.393033831
 30
0.0
 11
0.0
 21
7.3763195573
 31
0.0
  0
LINE
  5
FA
330
1F
100
AcDbEntity
  8
TRMODEL1
  6
Continuous
 62
     2
100
AcDbLine
 10
1.8656783745
 20
12.7445641288
 30
0.0
 11
1.8656783745
 21
12.6070641288
 31
0.0
  0
LINE
  5
FB
330
1F
100
AcDbEntity
  8
TRMODEL1
  6
Continuous
 62
     2
100
AcDbLine
 10
3.077487757
 20
11.9075014629
 30
0.0
 11
3.1521966689
 21
12.036901094
 31
0.0
  0
LINE
  5
FC
330
1F
100
AcDbEntity
  8
TRMODEL1
  6
Continuous
 62
     2
100
AcDbLine
 10
2.9692316491
 20
11.9699963838
 30
0.0
 11
3.0618102772
 21
12.1303472714
 31
0.0
  0
LINE
  5
FD
330
1F
100
AcDbEntity
  8
TRMODEL1
  6
Continuous
 62
     2
100
AcDbLine
 10
2.8609755412
 20
12.0324913046
 30
0.0
 11
3.0563988014
 21
12.3709743204
 31
0.0
  0
LINE
  5
FE
330
1F
100
AcDbEntity
  8
TRMODEL1
  6
Continuous
 62
     2
100
AcDbLine
 10
2.9481514899
 20
12.433484477
 30
0.0
 11
3.0563988014
 21
12.6209743204
 31
0.0
  0
LINE
  5
FF
330
1F
100
AcDbEntity
  8
TRMODEL1
  6
Continuous
 62
     4
100
AcDbLine
 10
2.6958446033
 20
11.8694445278
 30
0.0
 11
2.6958446033
 21
9.0959056829
 31
0.0
  0
LINE
  5
100
330
1F
100
AcDbEntity
  8
TRMODEL1
  6
Continuous
 62
     4
100
AcDbLine
 10
2.6958446033
 20
9.0959056829
 30
0.0
 11
2.6944859174
 21
9.0791914092
 31
0.0
  0
LINE
  5
101
330
1F
100
AcDbEntity
  8
TRMODEL1
  6
Continuous
 62
     4
100
AcDbLine
 10
2.6944859174
 20
9.0791914092
 30
0.0
 11
2.6904620734
 21
9.0615507504
 31
0.0
  0
LINE
  5
102
330
1F
100
AcDbEntity
  8
TRMODEL1
  6
Continuous
 62
     4
100
AcDbLine
 10
2.6904620734
 20
9.0615507504
 30
0.0
 11
2.6839277053
 21
9.0436616272
 31
0.0
  0
LINE
  5
103
330
1F
100
AcDbEntity
  8
TRMODEL1
  6
Continuous
 62
     4
100
AcDbLine
 10
2.6839277053
 20
9.0436616272
 30
0.0
 11
2.6751339252
 21
9.0262115084
 31
0.0
  0
LINE
  5
104
330
1F
100
AcDbEntity
  8
TRMODEL1
  6
Continuous
 62
     4
100
AcDbLine
 10
2.6751339252
 20
9.0262115084
 30
0.0
 11
2.6644186731
 21
9.0098709923
 31
0.0
  0
LINE
  5
105
330
1F
100
AcDbEntity
  8
TRMODEL1
  6
Continuous
 62
     4
100
AcDbLine
 10
2.6644186731
 20
9.0098709923
 30
0.0
 11
2.6521937302
 21
8.9952680358
 31
0.0
  0
LINE
  5
106
330
1F
100
AcDbEntity
  8
TRMODEL1
  6
Continuous
 62
     4
100
AcDbLine
 10
2.6521937302
 20
8.9952680358
 30
0.0
 11
2.6389288941
 21
8.9829638224
 31
0.0
  0
LINE
  5
107
330
1F
100
AcDbEntity
  8
TRMODEL1
  6
Continuous
 62
     4
100
AcDbLine
 10
2.6389288941
 20
8.9829638224
 30
0.0
 11
2.6251339252
 21
8.9734311961
 31
0.0
  0
LINE
  5
108
330
1F
100
AcDbEntity
  8
TRMODEL1
  6
Continuous
 62
     2
100
AcDbLine
 10
3.0563988014
 20
12.1571758579
 30
0.0
 11
3.0572307781
 21
12.1469410518
 31
0.0
  0
LINE
  5
109
330
1F
100
AcDbEntity
  8
TRMODEL1
  6
Continuous
 62
     2
100
AcDbLine
 10
3.0572307781
 20
12.1469410518
 30
0.0
 11
3.0596947358
 21
12.1361389838
 31
0.0
  0
LINE
  5
10A
330
1F
100
AcDbEntity
  8
TRMODEL1
  6
Continuous
 62
     2
100
AcDbLine
 10
3.0596947358
 20
12.1361389838
 30
0.0
 11
3.063695986
 21
12.1251847712
 31
0.0
  0
LINE
  5
10B
330
1F
100
AcDbEntity
  8
TRMODEL1
  6
Continuous
 62
     2
100
AcDbLine
 10
3.063695986
 20
12.1251847712
 30
0.0
 11
3.0690807628
 21
12.1144993783
 31
0.0
  0
LINE
  5
10C
330
1F
100
AcDbEntity
  8
TRMODEL1
  6
Continuous
 62
     2
100
AcDbLine
 10
3.0690807628
 20
12.1144993783
 30
0.0
 11
3.0756421324
 21
12.1044934387
 31
0.0
  0
LINE
  5
10D
330
1F
100
AcDbEntity
  8
TRMODEL1
  6
Continuous
 62
     2
100
AcDbLine
 10
3.0756421324
 20
12.1044934387
 30
0.0
 11
3.0831279449
 21
12.0955514751
 31
0.0
  0
LINE
  5
10E
330
1F
100
AcDbEntity
  8
TRMODEL1
  6
Continuous
 62
     2
100
AcDbLine
 10
3.0831279449
 20
12.0955514751
 30
0.0
 11
3.0912505249
 21
12.0880171221
 31
0.0
  0
LINE
  5
10F
330
1F
100
AcDbEntity
  8
TRMODEL1
  6
Continuous
 62
     2
100
AcDbLine
 10
3.0912505249
 20
12.0880171221
 30
0.0
 11
3.099697726
 21
12.0821799207
 31
0.0
  0
LINE
  5
110
330
1F
100
AcDbEntity
  8
TRMODEL1
  6
Continuous
 62
     2
100
AcDbLine
 10
3.1213471883
 20
12.0696819522
 30
0.0
 11
3.1297943895
 21
12.0638447508
 31
0.0
  0
LINE
  5
111
330
1F
100
AcDbEntity
  8
TRMODEL1
  6
Continuous
 62
     2
100
AcDbLine
 10
3.1297943895
 20
12.0638447508
 30
0.0
 11
3.1379169694
 21
12.0563103978
 31
0.0
  0
LINE
  5
112
330
1F
100
AcDbEntity
  8
TRMODEL1
  6
Continuous
 62
     2
100
AcDbLine
 10
3.1379169694
 20
12.0563103978
 30
0.0
 11
3.145402782
 21
12.0473684342
 31
0.0
  0
LINE
  5
113
330
1F
100
AcDbEntity
  8
TRMODEL1
  6
Continuous
 62
     2
100
AcDbLine
 10
3.145402782
 20
12.0473684342
 30
0.0
 11
3.1519641515
 21
12.0373624946
 31
0.0
  0
LINE
  5
114
330
1F
100
AcDbEntity
  8
TRMODEL1
  6
Continuous
 62
     2
100
AcDbLine
 10
3.1519641515
 20
12.0373624946
 30
0.0
 11
3.1573489284
 21
12.0266771017
 31
0.0
  0
LINE
  5
115
330
1F
100
AcDbEntity
  8
TRMODEL1
  6
Continuous
 62
     2
100
AcDbLine
 10
3.1573489284
 20
12.0266771017
 30
0.0
 11
3.1613501786
 21
12.0157228891
 31
0.0
  0
LINE
  5
116
330
1F
100
AcDbEntity
  8
TRMODEL1
  6
Continuous
 62
     2
100
AcDbLine
 10
3.1613501786
 20
12.0157228891
 30
0.0
 11
3.1638141362
 21
12.0049208211
 31
0.0
  0
LINE
  5
117
330
1F
100
AcDbEntity
  8
TRMODEL1
  6
Continuous
 62
     2
100
AcDbLine
 10
3.1638141362
 20
12.0049208211
 30
0.0
 11
3.1646461129
 21
11.994686015
 31
0.0
  0
LINE
  5
118
330
1F
100
AcDbEntity
  8
TRMODEL1
  6
Continuous
 62
     2
100
AcDbLine
 10
2.8399041783
 20
12.1821555435
 30
0.0
 11
2.840736155
 21
12.1914297697
 31
0.0
  0
LINE
  5
119
330
1F
100
AcDbEntity
  8
TRMODEL1
  6
Continuous
 62
     2
100
AcDbLine
 10
2.840736155
 20
12.1914297697
 30
0.0
 11
2.8432001127
 21
12.1993870127
 31
0.0
  0
LINE
  5
11A
330
1F
100
AcDbEntity
  8
TRMODEL1
  6
Continuous
 62
     2
100
AcDbLine
 10
2.8432001127
 20
12.1993870127
 30
0.0
 11
2.8472013629
 21
12.2057214802
 31
0.0
  0
LINE
  5
11B
330
1F
100
AcDbEntity
  8
TRMODEL1
  6
Continuous
 62
     2
100
AcDbLine
 10
2.8472013629
 20
12.2057214802
 30
0.0
 11
2.8525861397
 21
12.2101897421
 31
0.0
  0
LINE
  5
11C
330
1F
100
AcDbEntity
  8
TRMODEL1
  6
Continuous
 62
     2
100
AcDbLine
 10
2.8525861397
 20
12.2101897421
 30
0.0
 11
2.8591475093
 21
12.2126200856
 31
0.0
  0
LINE
  5
11D
330
1F
100
AcDbEntity
  8
TRMODEL1
  6
Continuous
 62
     2
100
AcDbLine
 10
2.8591475093
 20
12.2126200856
 30
0.0
 11
2.8666333218
 21
12.212919114
 31
0.0
  0
LINE
  5
11E
330
1F
100
AcDbEntity
  8
TRMODEL1
  6
Continuous
 62
     2
100
AcDbLine
 10
2.8666333218
 20
12.212919114
 30
0.0
 11
2.8747559018
 21
12.2110753358
 31
0.0
  0
LINE
  5
11F
330
1F
100
AcDbEntity
  8
TRMODEL1
  6
Continuous
 62
     2
100
AcDbLine
 10
2.8747559018
 20
12.2110753358
 30
0.0
 11
2.8832031029
 21
12.2071596064
 31
0.0
  0
LINE
  5
120
330
1F
100
AcDbEntity
  8
TRMODEL1
  6
Continuous
 62
     2
100
AcDbLine
 10
2.9048525652
 20
12.1946616378
 30
0.0
 11
2.9132997664
 21
12.1907459084
 31
0.0
  0
LINE
  5
121
330
1F
100
AcDbEntity
  8
TRMODEL1
  6
Continuous
 62
     2
100
AcDbLine
 10
2.9132997664
 20
12.1907459084
 30
0.0
 11
2.9214223463
 21
12.1889021302
 31
0.0
  0
LINE
  5
122
330
1F
100
AcDbEntity
  8
TRMODEL1
  6
Continuous
 62
     2
100
AcDbLine
 10
2.9214223463
 20
12.1889021302
 30
0.0
 11
2.9289081589
 21
12.1892011586
 31
0.0
  0
LINE
  5
123
330
1F
100
AcDbEntity
  8
TRMODEL1
  6
Continuous
 62
     2
100
AcDbLine
 10
2.9289081589
 20
12.1892011586
 30
0.0
 11
2.9354695285
 21
12.1916315021
 31
0.0
  0
LINE
  5
124
330
1F
100
AcDbEntity
  8
TRMODEL1
  6
Continuous
 62
     2
100
AcDbLine
 10
2.9354695285
 20
12.1916315021
 30
0.0
 11
2.9408543053
 21
12.196099764
 31
0.0
  0
LINE
  5
125
330
1F
100
AcDbEntity
  8
TRMODEL1
  6
Continuous
 62
     2
100
AcDbLine
 10
2.9408543053
 20
12.196099764
 30
0.0
 11
2.9448555555
 21
12.2024342315
 31
0.0
  0
LINE
  5
126
330
1F
100
AcDbEntity
  8
TRMODEL1
  6
Continuous
 62
     2
100
AcDbLine
 10
2.9448555555
 20
12.2024342315
 30
0.0
 11
2.9473195132
 21
12.2103914745
 31
0.0
  0
LINE
  5
127
330
1F
100
AcDbEntity
  8
TRMODEL1
  6
Continuous
 62
     2
100
AcDbLine
 10
2.9473195132
 20
12.2103914745
 30
0.0
 11
2.9481514899
 21
12.2196657007
 31
0.0
  0
LINE
  5
128
330
1F
100
AcDbEntity
  8
TRMODEL1
  6
Continuous
 62
     2
100
AcDbLine
 10
2.8832031029
 20
12.2071596064
 30
0.0
 11
2.9481514899
 21
12.2446535121
 31
0.0
  0
LINE
  5
129
330
1F
100
AcDbEntity
  8
TRMODEL1
  6
Continuous
 62
     2
100
AcDbLine
 10
2.9048525652
 20
12.1946616378
 30
0.0
 11
2.9481514893
 21
12.2196575746
 31
0.0
  0
LINE
  5
12A
330
1F
100
AcDbEntity
  8
TRMODEL1
  6
Continuous
 62
     2
100
AcDbLine
 10
3.099697726
 20
12.0821799207
 30
0.0
 11
3.1213471883
 21
12.0696819522
 31
0.0
  0
LINE
  5
12B
330
1F
100
AcDbEntity
  8
TRMODEL1
  6
Continuous
 62
     2
100
AcDbLine
 10
3.1646461129
 20
11.994686015
 30
0.0
 11
3.1646461129
 21
11.857186015
 31
0.0
  0
LINE
  5
12C
330
1F
100
AcDbEntity
  8
TRMODEL1
  6
Continuous
 62
     2
100
AcDbLine
 10
3.1646461129
 20
11.857186015
 30
0.0
 11
2.8399041783
 21
12.0446555435
 31
0.0
  0
LINE
  5
12D
330
1F
100
AcDbEntity
  8
TRMODEL1
  6
Continuous
 62
     2
100
AcDbLine
 10
2.8399041783
 20
12.0446555435
 30
0.0
 11
2.8399041783
 21
12.1821555435
 31
0.0
  0
LINE
  5
12E
330
1F
100
AcDbEntity
  8
TRMODEL1
  6
Continuous
 62
     2
100
AcDbLine
 10
2.8832031029
 20
12.2071596064
 30
0.0
 11
2.9048525652
 21
12.1946616378
 31
0.0
  0
LINE
  5
12F
330
1F
100
AcDbEntity
  8
TRMODEL1
  6
Continuous
 62
     2
100
AcDbLine
 10
2.8525886279
 20
12.2101911787
 30
0.0
 11
2.9481514899
 21
12.2653584446
 31
0.0
  0
LINE
  5
130
330
1F
100
AcDbEntity
  8
TRMODEL1
  6
Continuous
 62
     4
100
AcDbLine
 10
8.0062783782
 20
0.0
 30
0.0
 11
6.1659743584
 21
1.0625000213
 31
0.0
  0
LINE
  5
131
330
1F
100
AcDbEntity
  8
TRMODEL1
  6
Continuous
 62
     2
100
AcDbLine
 10
7.5386861023
 20
4.4973936529
 30
0.0
 11
7.4591311071
 21
4.451462555
 31
0.0
  0
LINE
  5
132
330
1F
100
AcDbEntity
  8
TRMODEL1
  6
Continuous
 62
     2
100
AcDbLine
 10
7.5386861023
 20
1.2473935879
 30
0.0
 11
7.4591311071
 21
1.20146249
 31
0.0
  0
LINE
  5
133
330
1F
100
AcDbEntity
  8
TRMODEL1
  6
Continuous
 62
     2
100
AcDbLine
 10
6.3736511265
 20
4.5380440057
 30
0.0
 11
6.8902310851
 21
4.3705506616
 31
0.0
  0
LINE
  5
134
330
1F
100
AcDbEntity
  8
TRMODEL1
  6
Continuous
 62
     2
100
AcDbLine
 10
6.3736511265
 20
4.5380440057
 30
0.0
 11
6.0862533847
 21
5.0358314966
 31
0.0
  0
LINE
  5
135
330
1F
100
AcDbEntity
  8
TRMODEL1
  6
Continuous
 62
     2
100
AcDbLine
 10
6.199489873
 20
5.5669495359
 30
0.0
 11
6.0862533847
 21
5.0358314966
 31
0.0
  0
LINE
  5
136
330
1F
100
AcDbEntity
  8
TRMODEL1
  6
Continuous
 62
     2
100
AcDbLine
 10
7.0034675734
 20
4.9016687009
 30
0.0
 11
6.7160698315
 21
5.3994561918
 31
0.0
  0
LINE
  5
137
330
1F
100
AcDbEntity
  8
TRMODEL1
  6
Continuous
 62
     2
100
AcDbLine
 10
7.1671247393
 20
5.6598728642
 30
0.0
 11
6.6505447807
 21
5.8273662083
 31
0.0
  0
LINE
  5
138
330
1F
100
AcDbEntity
  8
TRMODEL1
  6
Continuous
 62
     2
100
AcDbLine
 10
7.1671247393
 20
5.6598728642
 30
0.0
 11
6.7160698315
 21
5.3994561918
 31
0.0
  0
LINE
  5
139
330
1F
100
AcDbEntity
  8
TRMODEL1
  6
Continuous
 62
     2
100
AcDbLine
 10
6.6335666343
 20
6.0651065583
 30
0.0
 11
6.5540116391
 21
6.0191754604
 31
0.0
  0
LINE
  5
13A
330
1F
100
AcDbEntity
  8
TRMODEL1
  6
Continuous
 62
     2
100
AcDbLine
 10
6.7160698315
 20
5.3994561918
 30
0.0
 11
6.199489873
 21
5.5669495359
 31
0.0
  0
LINE
  5
13B
330
1F
100
AcDbEntity
  8
TRMODEL1
  6
Continuous
 62
     2
100
AcDbLine
 10
6.6505447807
 20
5.8273662083
 30
0.0
 11
6.199489873
 21
5.5669495359
 31
0.0
  0
LINE
  5
13C
330
1F
100
AcDbEntity
  8
TRMODEL1
  6
Continuous
 62
     2
100
AcDbLine
 10
6.8902310851
 20
4.3705506616
 30
0.0
 11
7.0034675734
 21
4.9016687009
 31
0.0
  0
LINE
  5
13D
330
1F
100
AcDbEntity
  8
TRMODEL1
  6
Continuous
 62
     2
100
AcDbLine
 10
7.4545224811
 20
5.1620853733
 30
0.0
 11
7.1671247393
 21
5.6598728642
 31
0.0
  0
LINE
  5
13E
330
1F
100
AcDbEntity
  8
TRMODEL1
  6
Continuous
 62
     2
100
AcDbLine
 10
7.3412859928
 20
4.630967334
 30
0.0
 11
7.4545224811
 21
5.1620853733
 31
0.0
  0
LINE
  5
13F
330
1F
100
AcDbEntity
  8
TRMODEL1
  6
Continuous
 62
     2
100
AcDbLine
 10
7.4545224811
 20
5.1620853733
 30
0.0
 11
7.0034675734
 21
4.9016687009
 31
0.0
  0
LINE
  5
140
330
1F
100
AcDbEntity
  8
TRMODEL1
  6
Continuous
 62
     2
100
AcDbLine
 10
7.3412859928
 20
4.630967334
 30
0.0
 11
6.8902310851
 21
4.3705506616
 31
0.0
  0
LINE
  5
141
330
1F
100
AcDbEntity
  8
TRMODEL1
  6
Continuous
 62
     2
100
AcDbLine
 10
7.4545224811
 20
1.9120853083
 30
0.0
 11
7.0034675734
 21
1.6516686359
 31
0.0
  0
LINE
  5
142
330
1F
100
AcDbEntity
  8
TRMODEL1
  6
Continuous
 62
     2
100
AcDbLine
 10
7.3412859928
 20
1.380967269
 30
0.0
 11
7.4545224811
 21
1.9120853083
 31
0.0
  0
LINE
  5
143
330
1F
100
AcDbEntity
  8
TRMODEL1
  6
Continuous
 62
     2
100
AcDbLine
 10
7.4545224811
 20
1.9120853083
 30
0.0
 11
7.1671247393
 21
2.4098727992
 31
0.0
  0
LINE
  5
144
330
1F
100
AcDbEntity
  8
TRMODEL1
  6
Continuous
 62
     2
100
AcDbLine
 10
6.6505447807
 20
2.5773661433
 30
0.0
 11
6.199489873
 21
2.3169494709
 31
0.0
  0
LINE
  5
145
330
1F
100
AcDbEntity
  8
TRMODEL1
  6
Continuous
 62
     2
100
AcDbLine
 10
6.7160698315
 20
2.1494561268
 30
0.0
 11
6.199489873
 21
2.3169494709
 31
0.0
  0
LINE
  5
146
330
1F
100
AcDbEntity
  8
TRMODEL1
  6
Continuous
 62
     2
100
AcDbLine
 10
6.199489873
 20
2.3169494709
 30
0.0
 11
6.0862533847
 21
1.7858314316
 31
0.0
  0
LINE
  5
147
330
1F
100
AcDbEntity
  8
TRMODEL1
  6
Continuous
 62
     2
100
AcDbLine
 10
6.6335666343
 20
2.8151064933
 30
0.0
 11
6.5540116391
 21
2.7691753954
 31
0.0
  0
LINE
  5
148
330
1F
100
AcDbEntity
  8
TRMODEL1
  6
Continuous
 62
     2
100
AcDbLine
 10
7.1671247393
 20
2.4098727992
 30
0.0
 11
6.7160698315
 21
2.1494561268
 31
0.0
  0
LINE
  5
149
330
1F
100
AcDbEntity
  8
TRMODEL1
  6
Continuous
 62
     2
100
AcDbLine
 10
7.1671247393
 20
2.4098727992
 30
0.0
 11
6.6505447807
 21
2.5773661433
 31
0.0
  0
LINE
  5
14A
330
1F
100
AcDbEntity
  8
TRMODEL1
  6
Continuous
 62
     2
100
AcDbLine
 10
7.0034675734
 20
1.6516686359
 30
0.0
 11
6.7160698315
 21
2.1494561268
 31
0.0
  0
LINE
  5
14B
330
1F
100
AcDbEntity
  8
TRMODEL1
  6
Continuous
 62
     2
100
AcDbLine
 10
6.3736511265
 20
1.2880439407
 30
0.0
 11
6.0862533847
 21
1.7858314316
 31
0.0
  0
LINE
  5
14C
330
1F
100
AcDbEntity
  8
TRMODEL1
  6
Continuous
 62
     4
100
AcDbLine
 10
6.1659743584
 20
2.1597501912
 30
0.0
 11
6.1659743584
 21
4.8977507197
 31
0.0
  0
LINE
  5
14D
330
1F
100
AcDbEntity
  8
TRMODEL1
  6
Continuous
 62
     4
100
AcDbLine
 10
6.1659743584
 20
1.0625000213
 30
0.0
 11
6.1659743584
 21
1.6477506547
 31
0.0
  0
LINE
  5
14E
330
1F
100
AcDbEntity
  8
TRMODEL1
  6
Continuous
 62
     2
100
AcDbLine
 10
7.3412859928
 20
1.380967269
 30
0.0
 11
6.8902310851
 21
1.1205505966
 31
0.0
  0
LINE
  5
14F
330
1F
100
AcDbEntity
  8
TRMODEL1
  6
Continuous
 62
     2
100
AcDbLine
 10
6.8902310851
 20
1.1205505966
 30
0.0
 11
7.0034675734
 21
1.6516686359
 31
0.0
  0
LINE
  5
150
330
1F
100
AcDbEntity
  8
TRMODEL1
  6
Continuous
 62
     2
100
AcDbLine
 10
6.3736511265
 20
1.2880439407
 30
0.0
 11
6.8902310851
 21
1.1205505966
 31
0.0
  0
LINE
  5
151
330
1F
100
AcDbEntity
  8
TRMODEL1
  6
Continuous
 62
     2
100
AcDbLine
 10
5.675634347
 20
10.4076233623
 30
0.0
 11
5.7502633288
 21
10.5368845506
 31
0.0
  0
LINE
  5
152
330
1F
100
AcDbEntity
  8
TRMODEL1
  6
Continuous
 62
     2
100
AcDbLine
 10
5.7291837993
 20
11.7503737344
 30
0.0
 11
5.7838904549
 21
11.8451284415
 31
0.0
  0
LINE
  5
153
330
1F
100
AcDbEntity
  8
TRMODEL1
  6
Continuous
 62
     2
100
AcDbLine
 10
5.6543342783
 20
10.6574196302
 30
0.0
 11
6.1659743584
 21
10.9527831615
 31
0.0
  0
LINE
  5
154
330
1F
100
AcDbEntity
  8
TRMODEL1
  6
Continuous
 62
     2
100
AcDbLine
 10
5.7192826653
 20
10.5699257245
 30
0.0
 11
6.1659743584
 21
10.8277953501
 31
0.0
  0
LINE
  5
155
330
1F
100
AcDbEntity
  8
TRMODEL1
  6
Continuous
 62
     2
100
AcDbLine
 10
5.6976332029
 20
10.5824236931
 30
0.0
 11
6.1659743584
 21
10.8527912872
 31
0.0
  0
LINE
  5
156
330
1F
100
AcDbEntity
  8
TRMODEL1
  6
Continuous
 62
     2
100
AcDbLine
 10
5.7409321276
 20
11.744927756
 30
0.0
 11
5.7240377253
 21
11.7527592149
 31
0.0
  0
LINE
  5
157
330
1F
100
AcDbEntity
  8
TRMODEL1
  6
Continuous
 62
     2
100
AcDbLine
 10
5.7240377253
 20
11.7527592149
 30
0.0
 11
5.7077925654
 21
11.7564467713
 31
0.0
  0
LINE
  5
158
330
1F
100
AcDbEntity
  8
TRMODEL1
  6
Continuous
 62
     2
100
AcDbLine
 10
5.7077925654
 20
11.7564467713
 30
0.0
 11
5.6928209403
 21
11.7558487144
 31
0.0
  0
LINE
  5
159
330
1F
100
AcDbEntity
  8
TRMODEL1
  6
Continuous
 62
     2
100
AcDbLine
 10
5.6928209403
 20
11.7558487144
 30
0.0
 11
5.6796982011
 21
11.7509880274
 31
0.0
  0
LINE
  5
15A
330
1F
100
AcDbEntity
  8
TRMODEL1
  6
Continuous
 62
     2
100
AcDbLine
 10
5.6796982011
 20
11.7509880274
 30
0.0
 11
5.6689286474
 21
11.7420515036
 31
0.0
  0
LINE
  5
15B
330
1F
100
AcDbEntity
  8
TRMODEL1
  6
Continuous
 62
     2
100
AcDbLine
 10
5.6689286474
 20
11.7420515036
 30
0.0
 11
5.6609261471
 21
11.7293825686
 31
0.0
  0
LINE
  5
15C
330
1F
100
AcDbEntity
  8
TRMODEL1
  6
Continuous
 62
     2
100
AcDbLine
 10
5.6609261471
 20
11.7293825686
 30
0.0
 11
5.6559982317
 21
11.7134680826
 31
0.0
  0
LINE
  5
15D
330
1F
100
AcDbEntity
  8
TRMODEL1
  6
Continuous
 62
     2
100
AcDbLine
 10
5.6559982317
 20
11.7134680826
 30
0.0
 11
5.6543342783
 21
11.6949196302
 31
0.0
  0
LINE
  5
15E
330
1F
100
AcDbEntity
  8
TRMODEL1
  6
Continuous
 62
     2
100
AcDbLine
 10
5.7192826653
 20
10.5699257245
 30
0.0
 11
5.7277298664
 21
10.5640885231
 31
0.0
  0
LINE
  5
15F
330
1F
100
AcDbEntity
  8
TRMODEL1
  6
Continuous
 62
     2
100
AcDbLine
 10
5.7277298664
 20
10.5640885231
 30
0.0
 11
5.7358524463
 21
10.5565541702
 31
0.0
  0
LINE
  5
160
330
1F
100
AcDbEntity
  8
TRMODEL1
  6
Continuous
 62
     2
100
AcDbLine
 10
5.7358524463
 20
10.5565541702
 30
0.0
 11
5.7433382589
 21
10.5476122065
 31
0.0
  0
LINE
  5
161
330
1F
100
AcDbEntity
  8
TRMODEL1
  6
Continuous
 62
     2
100
AcDbLine
 10
5.7433382589
 20
10.5476122065
 30
0.0
 11
5.7498996285
 21
10.537606267
 31
0.0
  0
LINE
  5
162
330
1F
100
AcDbEntity
  8
TRMODEL1
  6
Continuous
 62
     2
100
AcDbLine
 10
5.7498996285
 20
10.537606267
 30
0.0
 11
5.7552844053
 21
10.526920874
 31
0.0
  0
LINE
  5
163
330
1F
100
AcDbEntity
  8
TRMODEL1
  6
Continuous
 62
     2
100
AcDbLine
 10
5.7552844053
 20
10.526920874
 30
0.0
 11
5.7592856555
 21
10.5159666615
 31
0.0
  0
LINE
  5
164
330
1F
100
AcDbEntity
  8
TRMODEL1
  6
Continuous
 62
     2
100
AcDbLine
 10
5.7592856555
 20
10.5159666615
 30
0.0
 11
5.7617496132
 21
10.5051645934
 31
0.0
  0
LINE
  5
165
330
1F
100
AcDbEntity
  8
TRMODEL1
  6
Continuous
 62
     2
100
AcDbLine
 10
5.7617496132
 20
10.5051645934
 30
0.0
 11
5.7625815899
 21
10.4949297874
 31
0.0
  0
LINE
  5
166
330
1F
100
AcDbEntity
  8
TRMODEL1
  6
Continuous
 62
     2
100
AcDbLine
 10
5.6543342783
 20
11.6949196302
 30
0.0
 11
5.7409462033
 21
11.7449196302
 31
0.0
  0
LINE
  5
167
330
1F
100
AcDbEntity
  8
TRMODEL1
  6
Continuous
 62
     2
100
AcDbLine
 10
5.7625815899
 20
10.3574297874
 30
0.0
 11
5.4378396553
 21
10.5448993159
 31
0.0
  0
LINE
  5
168
330
1F
100
AcDbEntity
  8
TRMODEL1
  6
Continuous
 62
     2
100
AcDbLine
 10
5.3404170749
 20
12.1011401744
 30
0.0
 11
5.8600041703
 21
11.8011889289
 31
0.0
  0
LINE
  5
169
330
1F
100
AcDbEntity
  8
TRMODEL1
  6
Continuous
 62
     2
100
AcDbLine
 10
5.5673782391
 20
10.4701182832
 30
0.0
 11
5.6598548277
 21
10.6302924332
 31
0.0
  0
LINE
  5
16A
330
1F
100
AcDbEntity
  8
TRMODEL1
  6
Continuous
 62
     2
100
AcDbLine
 10
5.4591221312
 20
10.532613204
 30
0.0
 11
5.6543342783
 21
10.8707305612
 31
0.0
  0
LINE
  5
16B
330
1F
100
AcDbEntity
  8
TRMODEL1
  6
Continuous
 62
     2
100
AcDbLine
 10
5.5460869668
 20
10.9332407178
 30
0.0
 11
5.6543342783
 21
11.1207305612
 31
0.0
  0
LINE
  5
16C
330
1F
100
AcDbEntity
  8
TRMODEL1
  6
Continuous
 62
     2
100
AcDbLine
 10
5.5460869668
 20
11.1832407178
 30
0.0
 11
5.6543342783
 21
11.3707305612
 31
0.0
  0
LINE
  5
16D
330
1F
100
AcDbEntity
  8
TRMODEL1
  6
Continuous
 62
     2
100
AcDbLine
 10
5.5460869668
 20
11.4332407178
 30
0.0
 11
5.6543342783
 21
11.6207305612
 31
0.0
  0
LINE
  5
16E
330
1F
100
AcDbEntity
  8
TRMODEL1
  6
Continuous
 62
     2
100
AcDbLine
 10
5.5460869668
 20
11.6832407178
 30
0.0
 11
5.675634347
 21
11.9076233623
 31
0.0
  0
LINE
  5
16F
330
1F
100
AcDbEntity
  8
TRMODEL1
  6
Continuous
 62
     2
100
AcDbLine
 10
5.5064318923
 20
11.864556114
 30
0.0
 11
5.5673782391
 21
11.9701182832
 31
0.0
  0
LINE
  5
170
330
1F
100
AcDbEntity
  8
TRMODEL1
  6
Continuous
 62
     2
100
AcDbLine
 10
5.4049940772
 20
11.9388606645
 30
0.0
 11
5.4591221312
 21
12.032613204
 31
0.0
  0
LINE
  5
171
330
1F
100
AcDbEntity
  8
TRMODEL1
  6
Continuous
 62
     2
100
AcDbLine
 10
5.3404170749
 20
12.0770100154
 30
0.0
 11
5.3508660232
 21
12.0951081249
 31
0.0
  0
LINE
  5
172
330
1F
100
AcDbEntity
  8
TRMODEL1
  6
Continuous
 62
     2
100
AcDbLine
 10
4.376561052
 20
11.1575624126
 30
0.0
 11
4.4512299989
 21
11.2868928223
 31
0.0
  0
LINE
  5
173
330
1F
100
AcDbEntity
  8
TRMODEL1
  6
Continuous
 62
     2
100
AcDbLine
 10
4.2683049441
 20
11.2200573335
 30
0.0
 11
4.3608325525
 21
11.3803198523
 31
0.0
  0
LINE
  5
174
330
1F
100
AcDbEntity
  8
TRMODEL1
  6
Continuous
 62
     2
100
AcDbLine
 10
4.1600488362
 20
11.2825522543
 30
0.0
 11
4.3553665399
 21
11.6208524408
 31
0.0
  0
LINE
  5
175
330
1F
100
AcDbEntity
  8
TRMODEL1
  6
Continuous
 62
     2
100
AcDbLine
 10
4.2471192283
 20
11.6833625974
 30
0.0
 11
4.3553665399
 21
11.8708524408
 31
0.0
  0
LINE
  5
176
330
1F
100
AcDbEntity
  8
TRMODEL1
  6
Continuous
 62
     2
100
AcDbLine
 10
4.5431515893
 20
12.4461056872
 30
0.0
 11
4.5610364318
 21
12.4770831432
 31
0.0
  0
LINE
  5
177
330
1F
100
AcDbEntity
  8
TRMODEL1
  6
Continuous
 62
     2
100
AcDbLine
 10
4.2471192283
 20
11.9333625974
 30
0.0
 11
4.3553665399
 21
12.1208524408
 31
0.0
  0
LINE
  5
178
330
1F
100
AcDbEntity
  8
TRMODEL1
  6
Continuous
 62
     2
100
AcDbLine
 10
4.4301050363
 20
12.500303314
 30
0.0
 11
4.4848171599
 21
12.5950674918
 31
0.0
  0
LINE
  5
179
330
1F
100
AcDbEntity
  8
TRMODEL1
  6
Continuous
 62
     2
100
AcDbLine
 10
4.2471192283
 20
12.1833625974
 30
0.0
 11
4.3553665399
 21
12.3708524408
 31
0.0
  0
LINE
  5
17A
330
1F
100
AcDbEntity
  8
TRMODEL1
  6
Continuous
 62
     2
100
AcDbLine
 10
4.2471192283
 20
12.4333625974
 30
0.0
 11
4.376561052
 21
12.6575624126
 31
0.0
  0
LINE
  5
17B
330
1F
100
AcDbEntity
  8
TRMODEL1
  6
Continuous
 62
     2
100
AcDbLine
 10
4.2073893108
 20
12.6145483616
 30
0.0
 11
4.2683049441
 21
12.7200573335
 31
0.0
  0
LINE
  5
17C
330
1F
100
AcDbEntity
  8
TRMODEL1
  6
Continuous
 62
     2
100
AcDbLine
 10
5.3404170749
 20
12.1011401744
 30
0.0
 11
5.6190362401
 21
12.2619835948
 31
0.0
  0
LINE
  5
17D
330
1F
100
AcDbEntity
  8
TRMODEL1
  6
Continuous
 62
     2
100
AcDbLine
 10
4.9225027442
 20
12.6640240448
 30
0.0
 11
4.5483519822
 21
12.4480314075
 31
0.0
  0
LINE
  5
17E
330
1F
100
AcDbEntity
  8
TRMODEL1
  6
Continuous
 62
     2
100
AcDbLine
 10
4.5610364318
 20
12.4760670427
 30
0.0
 11
4.904561432
 21
12.6743798041
 31
0.0
  0
LINE
  5
17F
330
1F
100
AcDbEntity
  8
TRMODEL1
  6
Continuous
 62
     2
100
AcDbLine
 10
4.5610364318
 20
12.5510670427
 30
0.0
 11
4.8395976594
 21
12.7118770164
 31
0.0
  0
LINE
  5
180
330
1F
100
AcDbEntity
  8
TRMODEL1
  6
Continuous
 62
     2
100
AcDbLine
 10
4.5610364318
 20
12.4760670427
 30
0.0
 11
4.5602044551
 21
12.4667928165
 31
0.0
  0
LINE
  5
181
330
1F
100
AcDbEntity
  8
TRMODEL1
  6
Continuous
 62
     2
100
AcDbLine
 10
4.5602044551
 20
12.4667928165
 30
0.0
 11
4.5577404974
 21
12.4588355735
 31
0.0
  0
LINE
  5
182
330
1F
100
AcDbEntity
  8
TRMODEL1
  6
Continuous
 62
     2
100
AcDbLine
 10
4.5577404974
 20
12.4588355735
 30
0.0
 11
4.5537392472
 21
12.452501106
 31
0.0
  0
LINE
  5
183
330
1F
100
AcDbEntity
  8
TRMODEL1
  6
Continuous
 62
     2
100
AcDbLine
 10
4.5537392472
 20
12.452501106
 30
0.0
 11
4.5483544704
 21
12.4480328441
 31
0.0
  0
LINE
  5
184
330
1F
100
AcDbEntity
  8
TRMODEL1
  6
Continuous
 62
     2
100
AcDbLine
 10
4.5483544704
 20
12.4480328441
 30
0.0
 11
4.5417931008
 21
12.4456025006
 31
0.0
  0
LINE
  5
185
330
1F
100
AcDbEntity
  8
TRMODEL1
  6
Continuous
 62
     2
100
AcDbLine
 10
4.5417931008
 20
12.4456025006
 30
0.0
 11
4.5343072883
 21
12.4453034722
 31
0.0
  0
LINE
  5
186
330
1F
100
AcDbEntity
  8
TRMODEL1
  6
Continuous
 62
     2
100
AcDbLine
 10
4.5343072883
 20
12.4453034722
 30
0.0
 11
4.5261847083
 21
12.4471472504
 31
0.0
  0
LINE
  5
187
330
1F
100
AcDbEntity
  8
TRMODEL1
  6
Continuous
 62
     2
100
AcDbLine
 10
4.5261847083
 20
12.4471472504
 30
0.0
 11
4.5177375072
 21
12.4510629798
 31
0.0
  0
LINE
  5
188
330
1F
100
AcDbEntity
  8
TRMODEL1
  6
Continuous
 62
     2
100
AcDbLine
 10
4.4419643891
 20
12.4948058698
 30
0.0
 11
4.4250699868
 21
12.5026373287
 31
0.0
  0
LINE
  5
189
330
1F
100
AcDbEntity
  8
TRMODEL1
  6
Continuous
 62
     2
100
AcDbLine
 10
4.4250699868
 20
12.5026373287
 30
0.0
 11
4.4088248269
 21
12.5063248851
 31
0.0
  0
LINE
  5
18A
330
1F
100
AcDbEntity
  8
TRMODEL1
  6
Continuous
 62
     2
100
AcDbLine
 10
4.4088248269
 20
12.5063248851
 30
0.0
 11
4.3938532018
 21
12.5057268282
 31
0.0
  0
LINE
  5
18B
330
1F
100
AcDbEntity
  8
TRMODEL1
  6
Continuous
 62
     2
100
AcDbLine
 10
4.3938532018
 20
12.5057268282
 30
0.0
 11
4.3807304627
 21
12.5008661412
 31
0.0
  0
LINE
  5
18C
330
1F
100
AcDbEntity
  8
TRMODEL1
  6
Continuous
 62
     2
100
AcDbLine
 10
4.3807304627
 20
12.5008661412
 30
0.0
 11
4.369960909
 21
12.4919296174
 31
0.0
  0
LINE
  5
18D
330
1F
100
AcDbEntity
  8
TRMODEL1
  6
Continuous
 62
     2
100
AcDbLine
 10
4.369960909
 20
12.4919296174
 30
0.0
 11
4.3619584086
 21
12.4792606824
 31
0.0
  0
LINE
  5
18E
330
1F
100
AcDbEntity
  8
TRMODEL1
  6
Continuous
 62
     2
100
AcDbLine
 10
4.3619584086
 20
12.4792606824
 30
0.0
 11
4.3570304933
 21
12.4633461964
 31
0.0
  0
LINE
  5
18F
330
1F
100
AcDbEntity
  8
TRMODEL1
  6
Continuous
 62
     2
100
AcDbLine
 10
4.3570304933
 20
12.4633461964
 30
0.0
 11
4.3553665399
 21
12.444797744
 31
0.0
  0
LINE
  5
190
330
1F
100
AcDbEntity
  8
TRMODEL1
  6
Continuous
 62
     2
100
AcDbLine
 10
4.3553665399
 20
11.407297744
 30
0.0
 11
4.3561985166
 21
11.397062938
 31
0.0
  0
LINE
  5
191
330
1F
100
AcDbEntity
  8
TRMODEL1
  6
Continuous
 62
     2
100
AcDbLine
 10
4.3561985166
 20
11.397062938
 30
0.0
 11
4.3586624742
 21
11.38626087
 31
0.0
  0
LINE
  5
192
330
1F
100
AcDbEntity
  8
TRMODEL1
  6
Continuous
 62
     2
100
AcDbLine
 10
4.3586624742
 20
11.38626087
 30
0.0
 11
4.3626637244
 21
11.3753066574
 31
0.0
  0
LINE
  5
193
330
1F
100
AcDbEntity
  8
TRMODEL1
  6
Continuous
 62
     2
100
AcDbLine
 10
4.3626637244
 20
11.3753066574
 30
0.0
 11
4.3680485013
 21
11.3646212645
 31
0.0
  0
LINE
  5
194
330
1F
100
AcDbEntity
  8
TRMODEL1
  6
Continuous
 62
     2
100
AcDbLine
 10
4.3680485013
 20
11.3646212645
 30
0.0
 11
4.3746098708
 21
11.3546153249
 31
0.0
  0
LINE
  5
195
330
1F
100
AcDbEntity
  8
TRMODEL1
  6
Continuous
 62
     2
100
AcDbLine
 10
4.3746098708
 20
11.3546153249
 30
0.0
 11
4.3820956834
 21
11.3456733613
 31
0.0
  0
LINE
  5
196
330
1F
100
AcDbEntity
  8
TRMODEL1
  6
Continuous
 62
     2
100
AcDbLine
 10
4.3820956834
 20
11.3456733613
 30
0.0
 11
4.3902182633
 21
11.3381390083
 31
0.0
  0
LINE
  5
197
330
1F
100
AcDbEntity
  8
TRMODEL1
  6
Continuous
 62
     2
100
AcDbLine
 10
4.3902182633
 20
11.3381390083
 30
0.0
 11
4.3986654645
 21
11.3323018069
 31
0.0
  0
LINE
  5
198
330
1F
100
AcDbEntity
  8
TRMODEL1
  6
Continuous
 62
     2
100
AcDbLine
 10
4.4203149268
 20
11.3198038384
 30
0.0
 11
4.4287621279
 21
11.313966637
 31
0.0
  0
LINE
  5
199
330
1F
100
AcDbEntity
  8
TRMODEL1
  6
Continuous
 62
     2
100
AcDbLine
 10
4.4287621279
 20
11.313966637
 30
0.0
 11
4.4368847079
 21
11.306432284
 31
0.0
  0
LINE
  5
19A
330
1F
100
AcDbEntity
  8
TRMODEL1
  6
Continuous
 62
     2
100
AcDbLine
 10
4.4368847079
 20
11.306432284
 30
0.0
 11
4.4443705204
 21
11.2974903204
 31
0.0
  0
LINE
  5
19B
330
1F
100
AcDbEntity
  8
TRMODEL1
  6
Continuous
 62
     2
100
AcDbLine
 10
4.4443705204
 20
11.2974903204
 30
0.0
 11
4.45093189
 21
11.2874843808
 31
0.0
  0
LINE
  5
19C
330
1F
100
AcDbEntity
  8
TRMODEL1
  6
Continuous
 62
     2
100
AcDbLine
 10
4.45093189
 20
11.2874843808
 30
0.0
 11
4.4563166669
 21
11.2767989879
 31
0.0
  0
LINE
  5
19D
330
1F
100
AcDbEntity
  8
TRMODEL1
  6
Continuous
 62
     2
100
AcDbLine
 10
4.4563166669
 20
11.2767989879
 30
0.0
 11
4.460317917
 21
11.2658447753
 31
0.0
  0
LINE
  5
19E
330
1F
100
AcDbEntity
  8
TRMODEL1
  6
Continuous
 62
     2
100
AcDbLine
 10
4.460317917
 20
11.2658447753
 30
0.0
 11
4.4627818747
 21
11.2550427073
 31
0.0
  0
LINE
  5
19F
330
1F
100
AcDbEntity
  8
TRMODEL1
  6
Continuous
 62
     2
100
AcDbLine
 10
4.4627818747
 20
11.2550427073
 30
0.0
 11
4.4636138514
 21
11.2448079012
 31
0.0
  0
LINE
  5
1A0
330
1F
100
AcDbEntity
  8
TRMODEL1
  6
Continuous
 62
     2
100
AcDbLine
 10
4.1388719168
 20
11.4322774297
 30
0.0
 11
4.1397038935
 21
11.4415516559
 31
0.0
  0
LINE
  5
1A1
330
1F
100
AcDbEntity
  8
TRMODEL1
  6
Continuous
 62
     2
100
AcDbLine
 10
4.1397038935
 20
11.4415516559
 30
0.0
 11
4.1421678512
 21
11.4495088989
 31
0.0
  0
LINE
  5
1A2
330
1F
100
AcDbEntity
  8
TRMODEL1
  6
Continuous
 62
     2
100
AcDbLine
 10
4.1421678512
 20
11.4495088989
 30
0.0
 11
4.1461691013
 21
11.4558433664
 31
0.0
  0
LINE
  5
1A3
330
1F
100
AcDbEntity
  8
TRMODEL1
  6
Continuous
 62
     2
100
AcDbLine
 10
4.1461691013
 20
11.4558433664
 30
0.0
 11
4.1515538782
 21
11.4603116283
 31
0.0
  0
LINE
  5
1A4
330
1F
100
AcDbEntity
  8
TRMODEL1
  6
Continuous
 62
     2
100
AcDbLine
 10
4.1515538782
 20
11.4603116283
 30
0.0
 11
4.1581152478
 21
11.4627419718
 31
0.0
  0
LINE
  5
1A5
330
1F
100
AcDbEntity
  8
TRMODEL1
  6
Continuous
 62
     2
100
AcDbLine
 10
4.1581152478
 20
11.4627419718
 30
0.0
 11
4.1656010603
 21
11.4630410002
 31
0.0
  0
LINE
  5
1A6
330
1F
100
AcDbEntity
  8
TRMODEL1
  6
Continuous
 62
     2
100
AcDbLine
 10
4.1656010603
 20
11.4630410002
 30
0.0
 11
4.1737236403
 21
11.461197222
 31
0.0
  0
LINE
  5
1A7
330
1F
100
AcDbEntity
  8
TRMODEL1
  6
Continuous
 62
     2
100
AcDbLine
 10
4.1737236403
 20
11.461197222
 30
0.0
 11
4.1821708414
 21
11.4572814926
 31
0.0
  0
LINE
  5
1A8
330
1F
100
AcDbEntity
  8
TRMODEL1
  6
Continuous
 62
     2
100
AcDbLine
 10
4.2038203037
 20
11.444783524
 30
0.0
 11
4.2122675049
 21
11.4408677945
 31
0.0
  0
LINE
  5
1A9
330
1F
100
AcDbEntity
  8
TRMODEL1
  6
Continuous
 62
     2
100
AcDbLine
 10
4.2122675049
 20
11.4408677945
 30
0.0
 11
4.2203900848
 21
11.4390240163
 31
0.0
  0
LINE
  5
1AA
330
1F
100
AcDbEntity
  8
TRMODEL1
  6
Continuous
 62
     2
100
AcDbLine
 10
4.2203900848
 20
11.4390240163
 30
0.0
 11
4.2278758973
 21
11.4393230448
 31
0.0
  0
LINE
  5
1AB
330
1F
100
AcDbEntity
  8
TRMODEL1
  6
Continuous
 62
     2
100
AcDbLine
 10
4.2278758973
 20
11.4393230448
 30
0.0
 11
4.2344372669
 21
11.4417533883
 31
0.0
  0
LINE
  5
1AC
330
1F
100
AcDbEntity
  8
TRMODEL1
  6
Continuous
 62
     2
100
AcDbLine
 10
4.2344372669
 20
11.4417533883
 30
0.0
 11
4.2398220438
 21
11.4462216502
 31
0.0
  0
LINE
  5
1AD
330
1F
100
AcDbEntity
  8
TRMODEL1
  6
Continuous
 62
     2
100
AcDbLine
 10
4.2398220438
 20
11.4462216502
 30
0.0
 11
4.2438232939
 21
11.4525561177
 31
0.0
  0
LINE
  5
1AE
330
1F
100
AcDbEntity
  8
TRMODEL1
  6
Continuous
 62
     2
100
AcDbLine
 10
4.2438232939
 20
11.4525561177
 30
0.0
 11
4.2462872516
 21
11.4605133607
 31
0.0
  0
LINE
  5
1AF
330
1F
100
AcDbEntity
  8
TRMODEL1
  6
Continuous
 62
     2
100
AcDbLine
 10
4.2462872516
 20
11.4605133607
 30
0.0
 11
4.2471192283
 21
11.4697875869
 31
0.0
  0
LINE
  5
1B0
330
1F
100
AcDbEntity
  8
TRMODEL1
  6
Continuous
 62
     2
100
AcDbLine
 10
4.2471192283
 20
12.5072875869
 30
0.0
 11
4.2454552749
 21
12.5277571989
 31
0.0
  0
LINE
  5
1B1
330
1F
100
AcDbEntity
  8
TRMODEL1
  6
Continuous
 62
     2
100
AcDbLine
 10
4.2454552749
 20
12.5277571989
 30
0.0
 11
4.2405273596
 21
12.5493613349
 31
0.0
  0
LINE
  5
1B2
330
1F
100
AcDbEntity
  8
TRMODEL1
  6
Continuous
 62
     2
100
AcDbLine
 10
4.2405273596
 20
12.5493613349
 30
0.0
 11
4.2325248592
 21
12.5712697601
 31
0.0
  0
LINE
  5
1B3
330
1F
100
AcDbEntity
  8
TRMODEL1
  6
Continuous
 62
     2
100
AcDbLine
 10
4.2325248592
 20
12.5712697601
 30
0.0
 11
4.2217553055
 21
12.5926405459
 31
0.0
  0
LINE
  5
1B4
330
1F
100
AcDbEntity
  8
TRMODEL1
  6
Continuous
 62
     2
100
AcDbLine
 10
4.2217553055
 20
12.5926405459
 30
0.0
 11
4.2086325664
 21
12.6126524251
 31
0.0
  0
LINE
  5
1B5
330
1F
100
AcDbEntity
  8
TRMODEL1
  6
Continuous
 62
     2
100
AcDbLine
 10
4.2086325664
 20
12.6126524251
 30
0.0
 11
4.1936609413
 21
12.6305363523
 31
0.0
  0
LINE
  5
1B6
330
1F
100
AcDbEntity
  8
TRMODEL1
  6
Continuous
 62
     2
100
AcDbLine
 10
4.1936609413
 20
12.6305363523
 30
0.0
 11
4.1774157814
 21
12.6456050583
 31
0.0
  0
LINE
  5
1B7
330
1F
100
AcDbEntity
  8
TRMODEL1
  6
Continuous
 62
     2
100
AcDbLine
 10
4.1774157814
 20
12.6456050583
 30
0.0
 11
4.1605213791
 21
12.6572794611
 31
0.0
  0
LINE
  5
1B8
330
1F
100
AcDbEntity
  8
TRMODEL1
  6
Continuous
 62
     2
100
AcDbLine
 10
4.084748261
 20
12.7010223511
 30
0.0
 11
4.0763010599
 21
12.7068595525
 31
0.0
  0
LINE
  5
1B9
330
1F
100
AcDbEntity
  8
TRMODEL1
  6
Continuous
 62
     2
100
AcDbLine
 10
4.0763010599
 20
12.7068595525
 30
0.0
 11
4.0681784799
 21
12.7143939055
 31
0.0
  0
LINE
  5
1BA
330
1F
100
AcDbEntity
  8
TRMODEL1
  6
Continuous
 62
     2
100
AcDbLine
 10
4.0681784799
 20
12.7143939055
 30
0.0
 11
4.0606926674
 21
12.7233358691
 31
0.0
  0
LINE
  5
1BB
330
1F
100
AcDbEntity
  8
TRMODEL1
  6
Continuous
 62
     2
100
AcDbLine
 10
4.0606926674
 20
12.7233358691
 30
0.0
 11
4.0541312978
 21
12.7333418087
 31
0.0
  0
LINE
  5
1BC
330
1F
100
AcDbEntity
  8
TRMODEL1
  6
Continuous
 62
     2
100
AcDbLine
 10
4.0541312978
 20
12.7333418087
 30
0.0
 11
4.048746521
 21
12.7440272016
 31
0.0
  0
LINE
  5
1BD
330
1F
100
AcDbEntity
  8
TRMODEL1
  6
Continuous
 62
     2
100
AcDbLine
 10
4.048746521
 20
12.7440272016
 30
0.0
 11
4.0447452708
 21
12.7549814142
 31
0.0
  0
LINE
  5
1BE
330
1F
100
AcDbEntity
  8
TRMODEL1
  6
Continuous
 62
     2
100
AcDbLine
 10
4.0447452708
 20
12.7549814142
 30
0.0
 11
4.0422813131
 21
12.7657834822
 31
0.0
  0
LINE
  5
1BF
330
1F
100
AcDbEntity
  8
TRMODEL1
  6
Continuous
 62
     2
100
AcDbLine
 10
4.0422813131
 20
12.7657834822
 30
0.0
 11
4.0414493364
 21
12.7760182882
 31
0.0
  0
LINE
  5
1C0
330
1F
100
AcDbEntity
  8
TRMODEL1
  6
Continuous
 62
     2
100
AcDbLine
 10
5.6543342783
 20
10.6574196302
 30
0.0
 11
5.655166255
 21
10.6471848242
 31
0.0
  0
LINE
  5
1C1
330
1F
100
AcDbEntity
  8
TRMODEL1
  6
Continuous
 62
     2
100
AcDbLine
 10
5.655166255
 20
10.6471848242
 30
0.0
 11
5.6576302127
 21
10.6363827562
 31
0.0
  0
LINE
  5
1C2
330
1F
100
AcDbEntity
  8
TRMODEL1
  6
Continuous
 62
     2
100
AcDbLine
 10
5.6576302127
 20
10.6363827562
 30
0.0
 11
5.6616314629
 21
10.6254285436
 31
0.0
  0
LINE
  5
1C3
330
1F
100
AcDbEntity
  8
TRMODEL1
  6
Continuous
 62
     2
100
AcDbLine
 10
5.6616314629
 20
10.6254285436
 30
0.0
 11
5.6670162397
 21
10.6147431507
 31
0.0
  0
LINE
  5
1C4
330
1F
100
AcDbEntity
  8
TRMODEL1
  6
Continuous
 62
     2
100
AcDbLine
 10
5.6670162397
 20
10.6147431507
 30
0.0
 11
5.6735776093
 21
10.6047372111
 31
0.0
  0
LINE
  5
1C5
330
1F
100
AcDbEntity
  8
TRMODEL1
  6
Continuous
 62
     2
100
AcDbLine
 10
5.6735776093
 20
10.6047372111
 30
0.0
 11
5.6810634219
 21
10.5957952475
 31
0.0
  0
LINE
  5
1C6
330
1F
100
AcDbEntity
  8
TRMODEL1
  6
Continuous
 62
     2
100
AcDbLine
 10
5.6810634219
 20
10.5957952475
 30
0.0
 11
5.6891860018
 21
10.5882608945
 31
0.0
  0
LINE
  5
1C7
330
1F
100
AcDbEntity
  8
TRMODEL1
  6
Continuous
 62
     2
100
AcDbLine
 10
5.6891860018
 20
10.5882608945
 30
0.0
 11
5.6976332029
 21
10.5824236931
 31
0.0
  0
LINE
  5
1C8
330
1F
100
AcDbEntity
  8
TRMODEL1
  6
Continuous
 62
     2
100
AcDbLine
 10
5.4378396553
 20
10.6823993159
 30
0.0
 11
5.4386716319
 21
10.691673542
 31
0.0
  0
LINE
  5
1C9
330
1F
100
AcDbEntity
  8
TRMODEL1
  6
Continuous
 62
     2
100
AcDbLine
 10
5.4386716319
 20
10.691673542
 30
0.0
 11
5.4411355896
 21
10.6996307851
 31
0.0
  0
LINE
  5
1CA
330
1F
100
AcDbEntity
  8
TRMODEL1
  6
Continuous
 62
     2
100
AcDbLine
 10
5.4411355896
 20
10.6996307851
 30
0.0
 11
5.4451368398
 21
10.7059652525
 31
0.0
  0
LINE
  5
1CB
330
1F
100
AcDbEntity
  8
TRMODEL1
  6
Continuous
 62
     2
100
AcDbLine
 10
5.4451368398
 20
10.7059652525
 30
0.0
 11
5.4505216167
 21
10.7104335144
 31
0.0
  0
LINE
  5
1CC
330
1F
100
AcDbEntity
  8
TRMODEL1
  6
Continuous
 62
     2
100
AcDbLine
 10
5.4505216167
 20
10.7104335144
 30
0.0
 11
5.4570829862
 21
10.712863858
 31
0.0
  0
LINE
  5
1CD
330
1F
100
AcDbEntity
  8
TRMODEL1
  6
Continuous
 62
     2
100
AcDbLine
 10
5.4570829862
 20
10.712863858
 30
0.0
 11
5.4645687988
 21
10.7131628864
 31
0.0
  0
LINE
  5
1CE
330
1F
100
AcDbEntity
  8
TRMODEL1
  6
Continuous
 62
     2
100
AcDbLine
 10
5.4645687988
 20
10.7131628864
 30
0.0
 11
5.4726913787
 21
10.7113191082
 31
0.0
  0
LINE
  5
1CF
330
1F
100
AcDbEntity
  8
TRMODEL1
  6
Continuous
 62
     2
100
AcDbLine
 10
5.4726913787
 20
10.7113191082
 30
0.0
 11
5.4811385799
 21
10.7074033787
 31
0.0
  0
LINE
  5
1D0
330
1F
100
AcDbEntity
  8
TRMODEL1
  6
Continuous
 62
     2
100
AcDbLine
 10
5.5027880422
 20
10.6949054102
 30
0.0
 11
5.5112352433
 21
10.6909896807
 31
0.0
  0
LINE
  5
1D1
330
1F
100
AcDbEntity
  8
TRMODEL1
  6
Continuous
 62
     2
100
AcDbLine
 10
5.5112352433
 20
10.6909896807
 30
0.0
 11
5.5193578233
 21
10.6891459025
 31
0.0
  0
LINE
  5
1D2
330
1F
100
AcDbEntity
  8
TRMODEL1
  6
Continuous
 62
     2
100
AcDbLine
 10
5.5193578233
 20
10.6891459025
 30
0.0
 11
5.5268436358
 21
10.6894449309
 31
0.0
  0
LINE
  5
1D3
330
1F
100
AcDbEntity
  8
TRMODEL1
  6
Continuous
 62
     2
100
AcDbLine
 10
5.5268436358
 20
10.6894449309
 30
0.0
 11
5.5334050054
 21
10.6918752745
 31
0.0
  0
LINE
  5
1D4
330
1F
100
AcDbEntity
  8
TRMODEL1
  6
Continuous
 62
     2
100
AcDbLine
 10
5.5334050054
 20
10.6918752745
 30
0.0
 11
5.5387897822
 21
10.6963435364
 31
0.0
  0
LINE
  5
1D5
330
1F
100
AcDbEntity
  8
TRMODEL1
  6
Continuous
 62
     2
100
AcDbLine
 10
5.5387897822
 20
10.6963435364
 30
0.0
 11
5.5427910324
 21
10.7026780039
 31
0.0
  0
LINE
  5
1D6
330
1F
100
AcDbEntity
  8
TRMODEL1
  6
Continuous
 62
     2
100
AcDbLine
 10
5.5427910324
 20
10.7026780039
 30
0.0
 11
5.5452549901
 21
10.7106352469
 31
0.0
  0
LINE
  5
1D7
330
1F
100
AcDbEntity
  8
TRMODEL1
  6
Continuous
 62
     2
100
AcDbLine
 10
5.5452549901
 20
10.7106352469
 30
0.0
 11
5.5460869668
 21
10.7199094731
 31
0.0
  0
LINE
  5
1D8
330
1F
100
AcDbEntity
  8
TRMODEL1
  6
Continuous
 62
     2
100
AcDbLine
 10
5.5460869668
 20
11.7574094731
 30
0.0
 11
5.5444230134
 21
11.7778790851
 31
0.0
  0
LINE
  5
1D9
330
1F
100
AcDbEntity
  8
TRMODEL1
  6
Continuous
 62
     2
100
AcDbLine
 10
5.5444230134
 20
11.7778790851
 30
0.0
 11
5.539495098
 21
11.7994832211
 31
0.0
  0
LINE
  5
1DA
330
1F
100
AcDbEntity
  8
TRMODEL1
  6
Continuous
 62
     2
100
AcDbLine
 10
5.539495098
 20
11.7994832211
 30
0.0
 11
5.5314925977
 21
11.8213916463
 31
0.0
  0
LINE
  5
1DB
330
1F
100
AcDbEntity
  8
TRMODEL1
  6
Continuous
 62
     2
100
AcDbLine
 10
5.5314925977
 20
11.8213916463
 30
0.0
 11
5.520723044
 21
11.8427624321
 31
0.0
  0
LINE
  5
1DC
330
1F
100
AcDbEntity
  8
TRMODEL1
  6
Continuous
 62
     2
100
AcDbLine
 10
5.520723044
 20
11.8427624321
 30
0.0
 11
5.5076003048
 21
11.8627743113
 31
0.0
  0
LINE
  5
1DD
330
1F
100
AcDbEntity
  8
TRMODEL1
  6
Continuous
 62
     2
100
AcDbLine
 10
5.5076003048
 20
11.8627743113
 30
0.0
 11
5.4926286797
 21
11.8806582385
 31
0.0
  0
LINE
  5
1DE
330
1F
100
AcDbEntity
  8
TRMODEL1
  6
Continuous
 62
     2
100
AcDbLine
 10
5.4926286797
 20
11.8806582385
 30
0.0
 11
5.4763835199
 21
11.8957269445
 31
0.0
  0
LINE
  5
1DF
330
1F
100
AcDbEntity
  8
TRMODEL1
  6
Continuous
 62
     2
100
AcDbLine
 10
5.4763835199
 20
11.8957269445
 30
0.0
 11
5.4594891176
 21
11.9074013473
 31
0.0
  0
LINE
  5
1E0
330
1F
100
AcDbEntity
  8
TRMODEL1
  6
Continuous
 62
     2
100
AcDbLine
 10
5.3837159995
 20
11.9511442373
 30
0.0
 11
5.3752687983
 21
11.9569814387
 31
0.0
  0
LINE
  5
1E1
330
1F
100
AcDbEntity
  8
TRMODEL1
  6
Continuous
 62
     2
100
AcDbLine
 10
5.3752687983
 20
11.9569814387
 30
0.0
 11
5.3671462184
 21
11.9645157917
 31
0.0
  0
LINE
  5
1E2
330
1F
100
AcDbEntity
  8
TRMODEL1
  6
Continuous
 62
     2
100
AcDbLine
 10
5.3671462184
 20
11.9645157917
 30
0.0
 11
5.3596604058
 21
11.9734577553
 31
0.0
  0
LINE
  5
1E3
330
1F
100
AcDbEntity
  8
TRMODEL1
  6
Continuous
 62
     2
100
AcDbLine
 10
5.3596604058
 20
11.9734577553
 30
0.0
 11
5.3530990363
 21
11.9834636949
 31
0.0
  0
LINE
  5
1E4
330
1F
100
AcDbEntity
  8
TRMODEL1
  6
Continuous
 62
     2
100
AcDbLine
 10
5.3530990363
 20
11.9834636949
 30
0.0
 11
5.3477142594
 21
11.9941490878
 31
0.0
  0
LINE
  5
1E5
330
1F
100
AcDbEntity
  8
TRMODEL1
  6
Continuous
 62
     2
100
AcDbLine
 10
5.3477142594
 20
11.9941490878
 30
0.0
 11
5.3437130093
 21
12.0051033004
 31
0.0
  0
LINE
  5
1E6
330
1F
100
AcDbEntity
  8
TRMODEL1
  6
Continuous
 62
     2
100
AcDbLine
 10
5.3437130093
 20
12.0051033004
 30
0.0
 11
5.3412490516
 21
12.0159053684
 31
0.0
  0
LINE
  5
1E7
330
1F
100
AcDbEntity
  8
TRMODEL1
  6
Continuous
 62
     2
100
AcDbLine
 10
5.3412490516
 20
12.0159053684
 30
0.0
 11
5.3404170749
 21
12.0261401744
 31
0.0
  0
LINE
  5
1E8
330
1F
100
AcDbEntity
  8
TRMODEL1
  6
Continuous
 62
     2
100
AcDbLine
 10
4.1821708414
 20
11.4572814926
 30
0.0
 11
4.2471192283
 21
11.4947753982
 31
0.0
  0
LINE
  5
1E9
330
1F
100
AcDbEntity
  8
TRMODEL1
  6
Continuous
 62
     2
100
AcDbLine
 10
4.2038203037
 20
11.444783524
 30
0.0
 11
4.2471192278
 21
11.4697794608
 31
0.0
  0
LINE
  5
1EA
330
1F
100
AcDbEntity
  8
TRMODEL1
  6
Continuous
 62
     2
100
AcDbLine
 10
4.4636138514
 20
11.1073079012
 30
0.0
 11
5.5460869668
 21
11.7322063294
 31
0.0
  0
LINE
  5
1EB
330
1F
100
AcDbEntity
  8
TRMODEL1
  6
Continuous
 62
     2
100
AcDbLine
 10
4.3986654645
 20
11.3323018069
 30
0.0
 11
5.4271820734
 21
11.9260518069
 31
0.0
  0
LINE
  5
1EC
330
1F
100
AcDbEntity
  8
TRMODEL1
  6
Continuous
 62
     2
100
AcDbLine
 10
4.4636138514
 20
11.2448079012
 30
0.0
 11
5.5151639825
 21
11.8518548705
 31
0.0
  0
LINE
  5
1ED
330
1F
100
AcDbEntity
  8
TRMODEL1
  6
Continuous
 62
     2
100
AcDbLine
 10
4.4203149268
 20
11.3198038384
 30
0.0
 11
5.4488315357
 21
11.9135538384
 31
0.0
  0
LINE
  5
1EE
330
1F
100
AcDbEntity
  8
TRMODEL1
  6
Continuous
 62
     2
100
AcDbLine
 10
4.3553665399
 20
11.407297744
 30
0.0
 11
5.3531802234
 21
11.9833233225
 31
0.0
  0
LINE
  5
1EF
330
1F
100
AcDbEntity
  8
TRMODEL1
  6
Continuous
 62
     2
100
AcDbLine
 10
4.3553665399
 20
12.444797744
 30
0.0
 11
4.4419784648
 21
12.494797744
 31
0.0
  0
LINE
  5
1F0
330
1F
100
AcDbEntity
  8
TRMODEL1
  6
Continuous
 62
     2
100
AcDbLine
 10
5.4811385799
 20
10.7074033787
 30
0.0
 11
5.5460869668
 21
10.7448972844
 31
0.0
  0
LINE
  5
1F1
330
1F
100
AcDbEntity
  8
TRMODEL1
  6
Continuous
 62
     2
100
AcDbLine
 10
5.5027880422
 20
10.6949054102
 30
0.0
 11
5.5460869662
 21
10.719901347
 31
0.0
  0
LINE
  5
1F2
330
1F
100
AcDbEntity
  8
TRMODEL1
  6
Continuous
 62
     2
100
AcDbLine
 10
4.1605213791
 20
12.6572794611
 30
0.0
 11
4.084748261
 21
12.7010223511
 31
0.0
  0
LINE
  5
1F3
330
1F
100
AcDbEntity
  8
TRMODEL1
  6
Continuous
 62
     2
100
AcDbLine
 10
4.5177375072
 20
12.4510629798
 30
0.0
 11
4.4419643891
 21
12.4948058698
 31
0.0
  0
LINE
  5
1F4
330
1F
100
AcDbEntity
  8
TRMODEL1
  6
Continuous
 62
     2
100
AcDbLine
 10
4.5610364318
 20
12.5510670427
 30
0.0
 11
4.5610364318
 21
12.4760670427
 31
0.0
  0
LINE
  5
1F5
330
1F
100
AcDbEntity
  8
TRMODEL1
  6
Continuous
 62
     2
100
AcDbLine
 10
4.3553665399
 20
12.444797744
 30
0.0
 11
4.3553665399
 21
11.407297744
 31
0.0
  0
LINE
  5
1F6
330
1F
100
AcDbEntity
  8
TRMODEL1
  6
Continuous
 62
     2
100
AcDbLine
 10
4.3986654645
 20
11.3323018069
 30
0.0
 11
4.4203149268
 21
11.3198038384
 31
0.0
  0
LINE
  5
1F7
330
1F
100
AcDbEntity
  8
TRMODEL1
  6
Continuous
 62
     2
100
AcDbLine
 10
4.4636138514
 20
11.2448079012
 30
0.0
 11
4.4636138514
 21
11.1073079012
 31
0.0
  0
LINE
  5
1F8
330
1F
100
AcDbEntity
  8
TRMODEL1
  6
Continuous
 62
     2
100
AcDbLine
 10
4.4636138514
 20
11.1073079012
 30
0.0
 11
4.1388719168
 21
11.2947774297
 31
0.0
  0
LINE
  5
1F9
330
1F
100
AcDbEntity
  8
TRMODEL1
  6
Continuous
 62
     2
100
AcDbLine
 10
4.1388719168
 20
11.2947774297
 30
0.0
 11
4.1388719168
 21
11.4322774297
 31
0.0
  0
LINE
  5
1FA
330
1F
100
AcDbEntity
  8
TRMODEL1
  6
Continuous
 62
     2
100
AcDbLine
 10
4.1821708414
 20
11.4572814926
 30
0.0
 11
4.2038203037
 21
11.444783524
 31
0.0
  0
LINE
  5
1FB
330
1F
100
AcDbEntity
  8
TRMODEL1
  6
Continuous
 62
     2
100
AcDbLine
 10
4.2471192283
 20
11.4697875869
 30
0.0
 11
4.2471192283
 21
12.5072875869
 31
0.0
  0
LINE
  5
1FC
330
1F
100
AcDbEntity
  8
TRMODEL1
  6
Continuous
 62
     2
100
AcDbLine
 10
5.4594891176
 20
11.9074013473
 30
0.0
 11
5.3837159995
 21
11.9511442373
 31
0.0
  0
LINE
  5
1FD
330
1F
100
AcDbEntity
  8
TRMODEL1
  6
Continuous
 62
     2
100
AcDbLine
 10
5.6543342783
 20
11.6949196302
 30
0.0
 11
5.6543342783
 21
10.6574196302
 31
0.0
  0
LINE
  5
1FE
330
1F
100
AcDbEntity
  8
TRMODEL1
  6
Continuous
 62
     2
100
AcDbLine
 10
5.6976332029
 20
10.5824236931
 30
0.0
 11
5.7192826653
 21
10.5699257245
 31
0.0
  0
LINE
  5
1FF
330
1F
100
AcDbEntity
  8
TRMODEL1
  6
Continuous
 62
     2
100
AcDbLine
 10
5.4378396553
 20
10.5448993159
 30
0.0
 11
5.4378396553
 21
10.6823993159
 31
0.0
  0
LINE
  5
200
330
1F
100
AcDbEntity
  8
TRMODEL1
  6
Continuous
 62
     2
100
AcDbLine
 10
5.4811385799
 20
10.7074033787
 30
0.0
 11
5.5027880422
 21
10.6949054102
 31
0.0
  0
LINE
  5
201
330
1F
100
AcDbEntity
  8
TRMODEL1
  6
Continuous
 62
     2
100
AcDbLine
 10
5.5460869668
 20
10.7199094731
 30
0.0
 11
5.5460869668
 21
11.7574094731
 31
0.0
  0
LINE
  5
202
330
1F
100
AcDbEntity
  8
TRMODEL1
  6
Continuous
 62
     2
100
AcDbLine
 10
5.3404170749
 20
12.0261401744
 30
0.0
 11
5.3404170749
 21
12.1011401744
 31
0.0
  0
LINE
  5
203
330
1F
100
AcDbEntity
  8
TRMODEL1
  6
Continuous
 62
     2
100
AcDbLine
 10
4.1515563664
 20
11.4603130649
 30
0.0
 11
4.2471192283
 21
11.5154803308
 31
0.0
  0
LINE
  5
204
330
1F
100
AcDbEntity
  8
TRMODEL1
  6
Continuous
 62
     2
100
AcDbLine
 10
5.4505241048
 20
10.7104349511
 30
0.0
 11
5.5460869668
 21
10.765602217
 31
0.0
  0
LINE
  5
205
330
1F
100
AcDbEntity
  8
TRMODEL1
  6
Continuous
 62
     2
100
AcDbLine
 10
5.8422983502
 20
11.6962938837
 30
0.0
 11
5.8600041703
 21
11.7269612636
 31
0.0
  0
LINE
  5
206
330
1F
100
AcDbEntity
  8
TRMODEL1
  6
Continuous
 62
     2
100
AcDbLine
 10
5.7625815899
 20
10.4949297874
 30
0.0
 11
6.1659743584
 21
10.7278034758
 31
0.0
  0
LINE
  5
207
330
1F
100
AcDbEntity
  8
TRMODEL1
  6
Continuous
 62
     2
100
AcDbLine
 10
5.7625815899
 20
10.3574297874
 30
0.0
 11
6.1659743584
 21
10.5903034758
 31
0.0
  0
LINE
  5
208
330
1F
100
AcDbEntity
  8
TRMODEL1
  6
Continuous
 62
     2
100
AcDbLine
 10
6.1659743584
 20
11.8821087004
 30
0.0
 11
5.8473197207
 21
11.6981532937
 31
0.0
  0
LINE
  5
209
330
1F
100
AcDbEntity
  8
TRMODEL1
  6
Continuous
 62
     2
100
AcDbLine
 10
5.8600041703
 20
11.8011889289
 30
0.0
 11
6.1659743584
 21
11.9778217588
 31
0.0
  0
LINE
  5
20A
330
1F
100
AcDbEntity
  8
TRMODEL1
  6
Continuous
 62
     2
100
AcDbLine
 10
5.8600041703
 20
11.7261889289
 30
0.0
 11
6.1659743584
 21
11.9028217588
 31
0.0
  0
LINE
  5
20B
330
1F
100
AcDbEntity
  8
TRMODEL1
  6
Continuous
 62
     2
100
AcDbLine
 10
5.8600041703
 20
11.7261889289
 30
0.0
 11
5.8591721936
 21
11.7169147027
 31
0.0
  0
LINE
  5
20C
330
1F
100
AcDbEntity
  8
TRMODEL1
  6
Continuous
 62
     2
100
AcDbLine
 10
5.8591721936
 20
11.7169147027
 30
0.0
 11
5.8567082359
 21
11.7089574597
 31
0.0
  0
LINE
  5
20D
330
1F
100
AcDbEntity
  8
TRMODEL1
  6
Continuous
 62
     2
100
AcDbLine
 10
5.8567082359
 20
11.7089574597
 30
0.0
 11
5.8527069857
 21
11.7026229922
 31
0.0
  0
LINE
  5
20E
330
1F
100
AcDbEntity
  8
TRMODEL1
  6
Continuous
 62
     2
100
AcDbLine
 10
5.8527069857
 20
11.7026229922
 30
0.0
 11
5.8473222089
 21
11.6981547303
 31
0.0
  0
LINE
  5
20F
330
1F
100
AcDbEntity
  8
TRMODEL1
  6
Continuous
 62
     2
100
AcDbLine
 10
5.8473222089
 20
11.6981547303
 30
0.0
 11
5.8407608393
 21
11.6957243868
 31
0.0
  0
LINE
  5
210
330
1F
100
AcDbEntity
  8
TRMODEL1
  6
Continuous
 62
     2
100
AcDbLine
 10
5.8407608393
 20
11.6957243868
 30
0.0
 11
5.8332750267
 21
11.6954253584
 31
0.0
  0
LINE
  5
211
330
1F
100
AcDbEntity
  8
TRMODEL1
  6
Continuous
 62
     2
100
AcDbLine
 10
5.8332750267
 20
11.6954253584
 30
0.0
 11
5.8251524468
 21
11.6972691366
 31
0.0
  0
LINE
  5
212
330
1F
100
AcDbEntity
  8
TRMODEL1
  6
Continuous
 62
     2
100
AcDbLine
 10
5.8251524468
 20
11.6972691366
 30
0.0
 11
5.8167052456
 21
11.701184866
 31
0.0
  0
LINE
  5
213
330
1F
100
AcDbEntity
  8
TRMODEL1
  6
Continuous
 62
     2
100
AcDbLine
 10
5.8167052456
 20
11.701184866
 30
0.0
 11
5.7409321276
 21
11.744927756
 31
0.0
  0
LINE
  5
214
330
1F
100
AcDbEntity
  8
TRMODEL1
  6
Continuous
 62
     2
100
AcDbLine
 10
5.8600041703
 20
11.8011889289
 30
0.0
 11
5.8600041703
 21
11.7261889289
 31
0.0
  0
LINE
  5
215
330
1F
100
AcDbEntity
  8
TRMODEL1
  6
Continuous
 62
     2
100
AcDbLine
 10
5.7625815899
 20
10.4949297874
 30
0.0
 11
5.7625815899
 21
10.3574297874
 31
0.0
  0
LINE
  5
216
330
1F
100
AcDbEntity
  8
TRMODEL1
  6
Continuous
 62
     4
100
AcDbLine
 10
8.0062783782
 20
0.0
 30
0.0
 11
9.8465823981
 21
1.0625000213
 31
0.0
  0
LINE
  5
217
330
1F
100
AcDbEntity
  8
TRMODEL1
  6
Continuous
 62
     2
100
AcDbLine
 10
10.871927527
 20
7.4078671611
 30
0.0
 11
10.9463966488
 21
7.5368514637
 31
0.0
  0
LINE
  5
218
330
1F
100
AcDbEntity
  8
TRMODEL1
  6
Continuous
 62
     2
100
AcDbLine
 10
10.7636714191
 20
7.470362082
 30
0.0
 11
10.8559439288
 21
7.6301827569
 31
0.0
  0
LINE
  5
219
330
1F
100
AcDbEntity
  8
TRMODEL1
  6
Continuous
 62
     2
100
AcDbLine
 10
10.6554153112
 20
7.5328570028
 30
0.0
 11
10.8502052322
 21
7.8702430428
 31
0.0
  0
LINE
  5
21A
330
1F
100
AcDbEntity
  8
TRMODEL1
  6
Continuous
 62
     2
100
AcDbLine
 10
10.7419579207
 20
7.9327531995
 30
0.0
 11
10.8502052322
 21
8.1202430428
 31
0.0
  0
LINE
  5
21B
330
1F
100
AcDbEntity
  8
TRMODEL1
  6
Continuous
 62
     2
100
AcDbLine
 10
11.038885394
 20
8.6970466695
 30
0.0
 11
11.055853592
 21
8.7264364505
 31
0.0
  0
LINE
  5
21C
330
1F
100
AcDbEntity
  8
TRMODEL1
  6
Continuous
 62
     2
100
AcDbLine
 10
10.7419579207
 20
8.1827531995
 30
0.0
 11
10.8502052322
 21
8.3702430428
 31
0.0
  0
LINE
  5
21D
330
1F
100
AcDbEntity
  8
TRMODEL1
  6
Continuous
 62
     2
100
AcDbLine
 10
10.925498851
 20
8.750655416
 30
0.0
 11
10.9801836349
 21
8.8453722403
 31
0.0
  0
LINE
  5
21E
330
1F
100
AcDbEntity
  8
TRMODEL1
  6
Continuous
 62
     2
100
AcDbLine
 10
10.7419579207
 20
8.4327531995
 30
0.0
 11
10.8502052322
 21
8.6202430428
 31
0.0
  0
LINE
  5
21F
330
1F
100
AcDbEntity
  8
TRMODEL1
  6
Continuous
 62
     2
100
AcDbLine
 10
10.7419579207
 20
8.6827531995
 30
0.0
 11
10.871927527
 21
8.9078671611
 31
0.0
  0
LINE
  5
220
330
1F
100
AcDbEntity
  8
TRMODEL1
  6
Continuous
 62
     2
100
AcDbLine
 10
10.7026022181
 20
8.8645871232
 30
0.0
 11
10.7636714191
 21
8.970362082
 31
0.0
  0
LINE
  5
221
330
1F
100
AcDbEntity
  8
TRMODEL1
  6
Continuous
 62
     2
100
AcDbLine
 10
10.6012872572
 20
8.9391044633
 30
0.0
 11
10.6554153112
 21
9.0328570028
 31
0.0
  0
LINE
  5
222
330
1F
100
AcDbEntity
  8
TRMODEL1
  6
Continuous
 62
     2
100
AcDbLine
 10
10.5362880287
 20
9.0765224971
 30
0.0
 11
10.5471592033
 21
9.0953519237
 31
0.0
  0
LINE
  5
223
330
1F
100
AcDbEntity
  8
TRMODEL1
  6
Continuous
 62
     2
100
AcDbLine
 10
9.8465823981
 20
8.2158045873
 30
0.0
 11
10.7419579207
 21
8.7326938742
 31
0.0
  0
LINE
  5
224
330
1F
100
AcDbEntity
  8
TRMODEL1
  6
Continuous
 62
     2
100
AcDbLine
 10
9.8465823981
 20
8.3533045873
 30
0.0
 11
10.7110349363
 21
8.8523424153
 31
0.0
  0
LINE
  5
225
330
1F
100
AcDbEntity
  8
TRMODEL1
  6
Continuous
 62
     2
100
AcDbLine
 10
9.8465823981
 20
8.4532964615
 30
0.0
 11
10.6447024896
 21
8.9140413831
 31
0.0
  0
LINE
  5
226
330
1F
100
AcDbEntity
  8
TRMODEL1
  6
Continuous
 62
     2
100
AcDbLine
 10
10.7419579207
 20
7.7203970178
 30
0.0
 11
10.7419579207
 21
8.7578970178
 31
0.0
  0
LINE
  5
227
330
1F
100
AcDbEntity
  8
TRMODEL1
  6
Continuous
 62
     2
100
AcDbLine
 10
10.8502052322
 20
8.695407175
 30
0.0
 11
10.8502052322
 21
7.657907175
 31
0.0
  0
LINE
  5
228
330
1F
100
AcDbEntity
  8
TRMODEL1
  6
Continuous
 62
     2
100
AcDbLine
 10
10.6463950587
 20
7.7109224958
 30
0.0
 11
10.7419579207
 21
7.7660897618
 31
0.0
  0
LINE
  5
229
330
1F
100
AcDbEntity
  8
TRMODEL1
  6
Continuous
 62
     2
100
AcDbLine
 10
10.6770095337
 20
7.7078909235
 30
0.0
 11
10.698658996
 21
7.6953929549
 31
0.0
  0
LINE
  5
22A
330
1F
100
AcDbEntity
  8
TRMODEL1
  6
Continuous
 62
     2
100
AcDbLine
 10
10.6337106091
 20
7.5453868606
 30
0.0
 11
10.6337106091
 21
7.6828868606
 31
0.0
  0
LINE
  5
22B
330
1F
100
AcDbEntity
  8
TRMODEL1
  6
Continuous
 62
     2
100
AcDbLine
 10
10.9584525437
 20
7.3579173322
 30
0.0
 11
10.6337106091
 21
7.5453868606
 31
0.0
  0
LINE
  5
22C
330
1F
100
AcDbEntity
  8
TRMODEL1
  6
Continuous
 62
     2
100
AcDbLine
 10
10.9584525437
 20
7.4954173322
 30
0.0
 11
10.9584525437
 21
7.3579173322
 31
0.0
  0
LINE
  5
22D
330
1F
100
AcDbEntity
  8
TRMODEL1
  6
Continuous
 62
     2
100
AcDbLine
 10
10.8935041568
 20
7.5829112379
 30
0.0
 11
10.9151536191
 21
7.5704132693
 31
0.0
  0
LINE
  5
22E
330
1F
100
AcDbEntity
  8
TRMODEL1
  6
Continuous
 62
     2
100
AcDbLine
 10
10.698658996
 20
7.6953929549
 30
0.0
 11
10.7419579201
 21
7.7203888917
 31
0.0
  0
LINE
  5
22F
330
1F
100
AcDbEntity
  8
TRMODEL1
  6
Continuous
 62
     2
100
AcDbLine
 10
10.6770095337
 20
7.7078909235
 30
0.0
 11
10.7419579207
 21
7.7453848292
 31
0.0
  0
LINE
  5
230
330
1F
100
AcDbEntity
  8
TRMODEL1
  6
Continuous
 62
     2
100
AcDbLine
 10
10.698658996
 20
7.6953929549
 30
0.0
 11
10.7071061972
 21
7.6914772255
 31
0.0
  0
LINE
  5
231
330
1F
100
AcDbEntity
  8
TRMODEL1
  6
Continuous
 62
     2
100
AcDbLine
 10
10.7071061972
 20
7.6914772255
 30
0.0
 11
10.7152287771
 21
7.6896334473
 31
0.0
  0
LINE
  5
232
330
1F
100
AcDbEntity
  8
TRMODEL1
  6
Continuous
 62
     2
100
AcDbLine
 10
10.7152287771
 20
7.6896334473
 30
0.0
 11
10.7227145897
 21
7.6899324757
 31
0.0
  0
LINE
  5
233
330
1F
100
AcDbEntity
  8
TRMODEL1
  6
Continuous
 62
     2
100
AcDbLine
 10
10.7227145897
 20
7.6899324757
 30
0.0
 11
10.7292759593
 21
7.6923628192
 31
0.0
  0
LINE
  5
234
330
1F
100
AcDbEntity
  8
TRMODEL1
  6
Continuous
 62
     2
100
AcDbLine
 10
10.7292759593
 20
7.6923628192
 30
0.0
 11
10.7346607361
 21
7.6968310811
 31
0.0
  0
LINE
  5
235
330
1F
100
AcDbEntity
  8
TRMODEL1
  6
Continuous
 62
     2
100
AcDbLine
 10
10.7346607361
 20
7.6968310811
 30
0.0
 11
10.7386619863
 21
7.7031655486
 31
0.0
  0
LINE
  5
236
330
1F
100
AcDbEntity
  8
TRMODEL1
  6
Continuous
 62
     2
100
AcDbLine
 10
10.7386619863
 20
7.7031655486
 30
0.0
 11
10.741125944
 21
7.7111227916
 31
0.0
  0
LINE
  5
237
330
1F
100
AcDbEntity
  8
TRMODEL1
  6
Continuous
 62
     2
100
AcDbLine
 10
10.741125944
 20
7.7111227916
 30
0.0
 11
10.7419579207
 21
7.7203970178
 31
0.0
  0
LINE
  5
238
330
1F
100
AcDbEntity
  8
TRMODEL1
  6
Continuous
 62
     2
100
AcDbLine
 10
10.6337106091
 20
7.6828868606
 30
0.0
 11
10.6345425858
 21
7.6921610868
 31
0.0
  0
LINE
  5
239
330
1F
100
AcDbEntity
  8
TRMODEL1
  6
Continuous
 62
     2
100
AcDbLine
 10
10.6345425858
 20
7.6921610868
 30
0.0
 11
10.6370065435
 21
7.7001183298
 31
0.0
  0
LINE
  5
23A
330
1F
100
AcDbEntity
  8
TRMODEL1
  6
Continuous
 62
     2
100
AcDbLine
 10
10.6370065435
 20
7.7001183298
 30
0.0
 11
10.6410077937
 21
7.7064527973
 31
0.0
  0
LINE
  5
23B
330
1F
100
AcDbEntity
  8
TRMODEL1
  6
Continuous
 62
     2
100
AcDbLine
 10
10.6410077937
 20
7.7064527973
 30
0.0
 11
10.6463925705
 21
7.7109210592
 31
0.0
  0
LINE
  5
23C
330
1F
100
AcDbEntity
  8
TRMODEL1
  6
Continuous
 62
     2
100
AcDbLine
 10
10.6463925705
 20
7.7109210592
 30
0.0
 11
10.6529539401
 21
7.7133514027
 31
0.0
  0
LINE
  5
23D
330
1F
100
AcDbEntity
  8
TRMODEL1
  6
Continuous
 62
     2
100
AcDbLine
 10
10.6529539401
 20
7.7133514027
 30
0.0
 11
10.6604397526
 21
7.7136504311
 31
0.0
  0
LINE
  5
23E
330
1F
100
AcDbEntity
  8
TRMODEL1
  6
Continuous
 62
     2
100
AcDbLine
 10
10.6604397526
 20
7.7136504311
 30
0.0
 11
10.6685623326
 21
7.7118066529
 31
0.0
  0
LINE
  5
23F
330
1F
100
AcDbEntity
  8
TRMODEL1
  6
Continuous
 62
     2
100
AcDbLine
 10
10.6685623326
 20
7.7118066529
 30
0.0
 11
10.6770095337
 21
7.7078909235
 31
0.0
  0
LINE
  5
240
330
1F
100
AcDbEntity
  8
TRMODEL1
  6
Continuous
 62
     2
100
AcDbLine
 10
10.9151536191
 20
7.5704132693
 30
0.0
 11
10.9236008203
 21
7.5645760679
 31
0.0
  0
LINE
  5
241
330
1F
100
AcDbEntity
  8
TRMODEL1
  6
Continuous
 62
     2
100
AcDbLine
 10
10.9236008203
 20
7.5645760679
 30
0.0
 11
10.9317234002
 21
7.5570417149
 31
0.0
  0
LINE
  5
242
330
1F
100
AcDbEntity
  8
TRMODEL1
  6
Continuous
 62
     2
100
AcDbLine
 10
10.9317234002
 20
7.5570417149
 30
0.0
 11
10.9392092128
 21
7.5480997513
 31
0.0
  0
LINE
  5
243
330
1F
100
AcDbEntity
  8
TRMODEL1
  6
Continuous
 62
     2
100
AcDbLine
 10
10.9392092128
 20
7.5480997513
 30
0.0
 11
10.9457705823
 21
7.5380938117
 31
0.0
  0
LINE
  5
244
330
1F
100
AcDbEntity
  8
TRMODEL1
  6
Continuous
 62
     2
100
AcDbLine
 10
10.9457705823
 20
7.5380938117
 30
0.0
 11
10.9511553592
 21
7.5274084188
 31
0.0
  0
LINE
  5
245
330
1F
100
AcDbEntity
  8
TRMODEL1
  6
Continuous
 62
     2
100
AcDbLine
 10
10.9511553592
 20
7.5274084188
 30
0.0
 11
10.9551566093
 21
7.5164542062
 31
0.0
  0
LINE
  5
246
330
1F
100
AcDbEntity
  8
TRMODEL1
  6
Continuous
 62
     2
100
AcDbLine
 10
10.9551566093
 20
7.5164542062
 30
0.0
 11
10.957620567
 21
7.5056521382
 31
0.0
  0
LINE
  5
247
330
1F
100
AcDbEntity
  8
TRMODEL1
  6
Continuous
 62
     2
100
AcDbLine
 10
10.957620567
 20
7.5056521382
 30
0.0
 11
10.9584525437
 21
7.4954173322
 31
0.0
  0
LINE
  5
248
330
1F
100
AcDbEntity
  8
TRMODEL1
  6
Continuous
 62
     2
100
AcDbLine
 10
10.8502052322
 20
7.657907175
 30
0.0
 11
10.8510372089
 21
7.647672369
 31
0.0
  0
LINE
  5
249
330
1F
100
AcDbEntity
  8
TRMODEL1
  6
Continuous
 62
     2
100
AcDbLine
 10
10.8510372089
 20
7.647672369
 30
0.0
 11
10.8535011666
 21
7.6368703009
 31
0.0
  0
LINE
  5
24A
330
1F
100
AcDbEntity
  8
TRMODEL1
  6
Continuous
 62
     2
100
AcDbLine
 10
10.8535011666
 20
7.6368703009
 30
0.0
 11
10.8575024167
 21
7.6259160884
 31
0.0
  0
LINE
  5
24B
330
1F
100
AcDbEntity
  8
TRMODEL1
  6
Continuous
 62
     2
100
AcDbLine
 10
10.8575024167
 20
7.6259160884
 30
0.0
 11
10.8628871936
 21
7.6152306954
 31
0.0
  0
LINE
  5
24C
330
1F
100
AcDbEntity
  8
TRMODEL1
  6
Continuous
 62
     2
100
AcDbLine
 10
10.8628871936
 20
7.6152306954
 30
0.0
 11
10.8694485632
 21
7.6052247559
 31
0.0
  0
LINE
  5
24D
330
1F
100
AcDbEntity
  8
TRMODEL1
  6
Continuous
 62
     2
100
AcDbLine
 10
10.8694485632
 20
7.6052247559
 30
0.0
 11
10.8769343757
 21
7.5962827922
 31
0.0
  0
LINE
  5
24E
330
1F
100
AcDbEntity
  8
TRMODEL1
  6
Continuous
 62
     2
100
AcDbLine
 10
10.8769343757
 20
7.5962827922
 30
0.0
 11
10.8850569557
 21
7.5887484393
 31
0.0
  0
LINE
  5
24F
330
1F
100
AcDbEntity
  8
TRMODEL1
  6
Continuous
 62
     2
100
AcDbLine
 10
10.8850569557
 20
7.5887484393
 30
0.0
 11
10.8935041568
 21
7.5829112379
 31
0.0
  0
LINE
  5
250
330
1F
100
AcDbEntity
  8
TRMODEL1
  6
Continuous
 62
     2
100
AcDbLine
 10
10.5362880287
 20
9.1016277192
 30
0.0
 11
10.815293445
 21
9.2626941176
 31
0.0
  0
LINE
  5
251
330
1F
100
AcDbEntity
  8
TRMODEL1
  6
Continuous
 62
     2
100
AcDbLine
 10
10.118759949
 20
9.6647345675
 30
0.0
 11
9.8465823981
 21
9.5076098119
 31
0.0
  0
LINE
  5
252
330
1F
100
AcDbEntity
  8
TRMODEL1
  6
Continuous
 62
     2
100
AcDbLine
 10
9.8465823981
 20
9.6033228702
 30
0.0
 11
10.0358548642
 21
9.7125875392
 31
0.0
  0
LINE
  5
253
330
1F
100
AcDbEntity
  8
TRMODEL1
  6
Continuous
 62
     2
100
AcDbLine
 10
9.8465823981
 20
9.5283228702
 30
0.0
 11
10.1008186369
 21
9.6750903268
 31
0.0
  0
LINE
  5
254
330
1F
100
AcDbEntity
  8
TRMODEL1
  6
Continuous
 62
     2
100
AcDbLine
 10
9.8465823981
 20
8.4782923987
 30
0.0
 11
10.6230530273
 21
8.9265393517
 31
0.0
  0
LINE
  5
255
330
1F
100
AcDbEntity
  8
TRMODEL1
  6
Continuous
 62
     2
100
AcDbLine
 10
9.8465823981
 20
8.5782842729
 30
0.0
 11
10.5490511773
 21
8.9838108673
 31
0.0
  0
LINE
  5
256
330
1F
100
AcDbEntity
  8
TRMODEL1
  6
Continuous
 62
     2
100
AcDbLine
 10
10.5362880287
 20
9.1016277192
 30
0.0
 11
11.0558751241
 21
8.8016764736
 31
0.0
  0
LINE
  5
257
330
1F
100
AcDbEntity
  8
TRMODEL1
  6
Continuous
 62
     2
100
AcDbLine
 10
10.7419579207
 20
8.7578970178
 30
0.0
 11
10.7402939673
 21
8.7783666299
 31
0.0
  0
LINE
  5
258
330
1F
100
AcDbEntity
  8
TRMODEL1
  6
Continuous
 62
     2
100
AcDbLine
 10
10.7402939673
 20
8.7783666299
 30
0.0
 11
10.7353660519
 21
8.7999707659
 31
0.0
  0
LINE
  5
259
330
1F
100
AcDbEntity
  8
TRMODEL1
  6
Continuous
 62
     2
100
AcDbLine
 10
10.7353660519
 20
8.7999707659
 30
0.0
 11
10.7273635515
 21
8.8218791911
 31
0.0
  0
LINE
  5
25A
330
1F
100
AcDbEntity
  8
TRMODEL1
  6
Continuous
 62
     2
100
AcDbLine
 10
10.7273635515
 20
8.8218791911
 30
0.0
 11
10.7165939979
 21
8.8432499769
 31
0.0
  0
LINE
  5
25B
330
1F
100
AcDbEntity
  8
TRMODEL1
  6
Continuous
 62
     2
100
AcDbLine
 10
10.7165939979
 20
8.8432499769
 30
0.0
 11
10.7034712587
 21
8.8632618561
 31
0.0
  0
LINE
  5
25C
330
1F
100
AcDbEntity
  8
TRMODEL1
  6
Continuous
 62
     2
100
AcDbLine
 10
10.7034712587
 20
8.8632618561
 30
0.0
 11
10.6884996336
 21
8.8811457833
 31
0.0
  0
LINE
  5
25D
330
1F
100
AcDbEntity
  8
TRMODEL1
  6
Continuous
 62
     2
100
AcDbLine
 10
10.6884996336
 20
8.8811457833
 30
0.0
 11
10.6722544737
 21
8.8962144893
 31
0.0
  0
LINE
  5
25E
330
1F
100
AcDbEntity
  8
TRMODEL1
  6
Continuous
 62
     2
100
AcDbLine
 10
10.6722544737
 20
8.8962144893
 30
0.0
 11
10.6553600714
 21
8.9078888921
 31
0.0
  0
LINE
  5
25F
330
1F
100
AcDbEntity
  8
TRMODEL1
  6
Continuous
 62
     2
100
AcDbLine
 10
11.0558751241
 20
8.8016764736
 30
0.0
 11
11.0558751241
 21
8.7266764736
 31
0.0
  0
LINE
  5
260
330
1F
100
AcDbEntity
  8
TRMODEL1
  6
Continuous
 62
     2
100
AcDbLine
 10
11.0125761995
 20
8.7016724108
 30
0.0
 11
10.9368030814
 21
8.7454153007
 31
0.0
  0
LINE
  5
261
330
1F
100
AcDbEntity
  8
TRMODEL1
  6
Continuous
 62
     2
100
AcDbLine
 10
10.8502052322
 20
8.695407175
 30
0.0
 11
10.9368171572
 21
8.745407175
 31
0.0
  0
LINE
  5
262
330
1F
100
AcDbEntity
  8
TRMODEL1
  6
Continuous
 62
     2
100
AcDbLine
 10
10.9368030814
 20
8.7454153007
 30
0.0
 11
10.9199086791
 21
8.7532467596
 31
0.0
  0
LINE
  5
263
330
1F
100
AcDbEntity
  8
TRMODEL1
  6
Continuous
 62
     2
100
AcDbLine
 10
10.9199086791
 20
8.7532467596
 30
0.0
 11
10.9036635192
 21
8.756934316
 31
0.0
  0
LINE
  5
264
330
1F
100
AcDbEntity
  8
TRMODEL1
  6
Continuous
 62
     2
100
AcDbLine
 10
10.9036635192
 20
8.756934316
 30
0.0
 11
10.8886918941
 21
8.7563362592
 31
0.0
  0
LINE
  5
265
330
1F
100
AcDbEntity
  8
TRMODEL1
  6
Continuous
 62
     2
100
AcDbLine
 10
10.8886918941
 20
8.7563362592
 30
0.0
 11
10.875569155
 21
8.7514755721
 31
0.0
  0
LINE
  5
266
330
1F
100
AcDbEntity
  8
TRMODEL1
  6
Continuous
 62
     2
100
AcDbLine
 10
10.875569155
 20
8.7514755721
 30
0.0
 11
10.8647996013
 21
8.7425390483
 31
0.0
  0
LINE
  5
267
330
1F
100
AcDbEntity
  8
TRMODEL1
  6
Continuous
 62
     2
100
AcDbLine
 10
10.8647996013
 20
8.7425390483
 30
0.0
 11
10.856797101
 21
8.7298701134
 31
0.0
  0
LINE
  5
268
330
1F
100
AcDbEntity
  8
TRMODEL1
  6
Continuous
 62
     2
100
AcDbLine
 10
10.856797101
 20
8.7298701134
 30
0.0
 11
10.8518691856
 21
8.7139556273
 31
0.0
  0
LINE
  5
269
330
1F
100
AcDbEntity
  8
TRMODEL1
  6
Continuous
 62
     2
100
AcDbLine
 10
10.8518691856
 20
8.7139556273
 30
0.0
 11
10.8502052322
 21
8.695407175
 31
0.0
  0
LINE
  5
26A
330
1F
100
AcDbEntity
  8
TRMODEL1
  6
Continuous
 62
     2
100
AcDbLine
 10
11.0558751241
 20
8.7266764736
 30
0.0
 11
11.0550431474
 21
8.7174022475
 31
0.0
  0
LINE
  5
26B
330
1F
100
AcDbEntity
  8
TRMODEL1
  6
Continuous
 62
     2
100
AcDbLine
 10
11.0550431474
 20
8.7174022475
 30
0.0
 11
11.0525791897
 21
8.7094450044
 31
0.0
  0
LINE
  5
26C
330
1F
100
AcDbEntity
  8
TRMODEL1
  6
Continuous
 62
     2
100
AcDbLine
 10
11.0525791897
 20
8.7094450044
 30
0.0
 11
11.0485779396
 21
8.703110537
 31
0.0
  0
LINE
  5
26D
330
1F
100
AcDbEntity
  8
TRMODEL1
  6
Continuous
 62
     2
100
AcDbLine
 10
11.0485779396
 20
8.703110537
 30
0.0
 11
11.0431931627
 21
8.6986422751
 31
0.0
  0
LINE
  5
26E
330
1F
100
AcDbEntity
  8
TRMODEL1
  6
Continuous
 62
     2
100
AcDbLine
 10
11.0431931627
 20
8.6986422751
 30
0.0
 11
11.0366317931
 21
8.6962119315
 31
0.0
  0
LINE
  5
26F
330
1F
100
AcDbEntity
  8
TRMODEL1
  6
Continuous
 62
     2
100
AcDbLine
 10
11.0366317931
 20
8.6962119315
 30
0.0
 11
11.0291459806
 21
8.6959129031
 31
0.0
  0
LINE
  5
270
330
1F
100
AcDbEntity
  8
TRMODEL1
  6
Continuous
 62
     2
100
AcDbLine
 10
11.0291459806
 20
8.6959129031
 30
0.0
 11
11.0210234006
 21
8.6977566813
 31
0.0
  0
LINE
  5
271
330
1F
100
AcDbEntity
  8
TRMODEL1
  6
Continuous
 62
     2
100
AcDbLine
 10
11.0210234006
 20
8.6977566813
 30
0.0
 11
11.0125761995
 21
8.7016724108
 31
0.0
  0
LINE
  5
272
330
1F
100
AcDbEntity
  8
TRMODEL1
  6
Continuous
 62
     2
100
AcDbLine
 10
10.5362880287
 20
9.0266277192
 30
0.0
 11
10.5362880287
 21
9.1016277192
 31
0.0
  0
LINE
  5
273
330
1F
100
AcDbEntity
  8
TRMODEL1
  6
Continuous
 62
     2
100
AcDbLine
 10
10.6553600714
 20
8.9078888921
 30
0.0
 11
10.5795869533
 21
8.951631782
 31
0.0
  0
LINE
  5
274
330
1F
100
AcDbEntity
  8
TRMODEL1
  6
Continuous
 62
     2
100
AcDbLine
 10
10.5795869533
 20
8.951631782
 30
0.0
 11
10.5711397522
 21
8.9574689834
 31
0.0
  0
LINE
  5
275
330
1F
100
AcDbEntity
  8
TRMODEL1
  6
Continuous
 62
     2
100
AcDbLine
 10
10.5711397522
 20
8.9574689834
 30
0.0
 11
10.5630171723
 21
8.9650033364
 31
0.0
  0
LINE
  5
276
330
1F
100
AcDbEntity
  8
TRMODEL1
  6
Continuous
 62
     2
100
AcDbLine
 10
10.5630171723
 20
8.9650033364
 30
0.0
 11
10.5555313597
 21
8.9739453
 31
0.0
  0
LINE
  5
277
330
1F
100
AcDbEntity
  8
TRMODEL1
  6
Continuous
 62
     2
100
AcDbLine
 10
10.5555313597
 20
8.9739453
 30
0.0
 11
10.5489699901
 21
8.9839512396
 31
0.0
  0
LINE
  5
278
330
1F
100
AcDbEntity
  8
TRMODEL1
  6
Continuous
 62
     2
100
AcDbLine
 10
10.5489699901
 20
8.9839512396
 30
0.0
 11
10.5435852133
 21
8.9946366325
 31
0.0
  0
LINE
  5
279
330
1F
100
AcDbEntity
  8
TRMODEL1
  6
Continuous
 62
     2
100
AcDbLine
 10
10.5435852133
 20
8.9946366325
 30
0.0
 11
10.5395839631
 21
9.0055908451
 31
0.0
  0
LINE
  5
27A
330
1F
100
AcDbEntity
  8
TRMODEL1
  6
Continuous
 62
     2
100
AcDbLine
 10
10.5395839631
 20
9.0055908451
 30
0.0
 11
10.5371200054
 21
9.0163929131
 31
0.0
  0
LINE
  5
27B
330
1F
100
AcDbEntity
  8
TRMODEL1
  6
Continuous
 62
     2
100
AcDbLine
 10
10.5371200054
 20
9.0163929131
 30
0.0
 11
10.5362880287
 21
9.0266277192
 31
0.0
  0
LINE
  5
27C
330
1F
100
AcDbEntity
  8
TRMODEL1
  6
Continuous
 62
     2
100
AcDbLine
 10
1.4435138595
 20
14.3507745158
 30
0.0
 11
4.2609740122
 21
15.9772596413
 31
0.0
  0
LINE
  5
27D
330
1F
100
AcDbEntity
  8
TRMODEL1
  6
Continuous
 62
     2
100
AcDbLine
 10
0.6641332164
 20
14.7257013841
 30
0.0
 11
4.3638301821
 21
16.8614909808
 31
0.0
  0
LINE
  5
27E
330
1F
100
AcDbEntity
  8
TRMODEL1
  6
Continuous
 62
     2
100
AcDbLine
 10
4.3817714942
 20
16.8511352216
 30
0.0
 11
0.6514487668
 21
14.6976657489
 31
0.0
  0
LINE
  5
27F
330
1F
100
AcDbEntity
  8
TRMODEL1
  6
Continuous
 62
     2
100
AcDbLine
 10
0.6641332164
 20
14.8007013841
 30
0.0
 11
4.2988664094
 21
16.8989881932
 31
0.0
  0
LINE
  5
280
330
1F
100
AcDbEntity
  8
TRMODEL1
  6
Continuous
 62
     2
100
AcDbLine
 10
4.5207675651
 20
13.9318634901
 30
0.0
 11
3.2493842438
 21
13.1979095213
 31
0.0
  0
LINE
  5
281
330
1F
100
AcDbEntity
  8
TRMODEL1
  6
Continuous
 62
     2
100
AcDbLine
 10
3.2620686933
 20
13.3009451565
 30
0.0
 11
4.4585184193
 21
13.9916408814
 31
0.0
  0
LINE
  5
282
330
1F
100
AcDbEntity
  8
TRMODEL1
  6
Continuous
 62
     2
100
AcDbLine
 10
3.2620686933
 20
13.2259451565
 30
0.0
 11
4.5234821919
 21
13.9541436691
 31
0.0
  0
LINE
  5
283
330
1F
100
AcDbEntity
  8
TRMODEL1
  6
Continuous
 62
     2
100
AcDbLine
 10
2.7424815979
 20
13.600896402
 30
0.0
 11
4.2609740122
 21
14.4775034137
 31
0.0
  0
LINE
  5
284
330
1F
100
AcDbEntity
  8
TRMODEL1
  6
Continuous
 62
     2
100
AcDbLine
 10
1.9631009549
 20
13.9758232703
 30
0.0
 11
4.2609740122
 21
15.3023571503
 31
0.0
  0
LINE
  5
285
330
1F
100
AcDbEntity
  8
TRMODEL1
  6
Continuous
 62
     2
100
AcDbLine
 10
4.2609740122
 20
15.2816440919
 30
0.0
 11
1.9504165053
 21
13.9477876351
 31
0.0
  0
LINE
  5
286
330
1F
100
AcDbEntity
  8
TRMODEL1
  6
Continuous
 62
     2
100
AcDbLine
 10
1.9631009549
 20
14.0508232703
 30
0.0
 11
4.2609740122
 21
15.3773571503
 31
0.0
  0
LINE
  5
287
330
1F
100
AcDbEntity
  8
TRMODEL1
  6
Continuous
 62
     2
100
AcDbLine
 10
0.144546121
 20
15.1006526297
 30
0.0
 11
6.1659743584
 21
18.5767491603
 31
0.0
  0
LINE
  5
288
330
1F
100
AcDbEntity
  8
TRMODEL1
  6
Continuous
 62
     2
100
AcDbLine
 10
0.3710850591
 20
13.4698744844
 30
0.0
 11
0.4637657267
 21
13.6304021095
 31
0.0
  0
LINE
  5
289
330
1F
100
AcDbEntity
  8
TRMODEL1
  6
Continuous
 62
     2
100
AcDbLine
 10
0.2628289512
 20
13.5323694053
 30
0.0
 11
0.4584633245
 21
13.8712180795
 31
0.0
  0
LINE
  5
28A
330
1F
100
AcDbEntity
  8
TRMODEL1
  6
Continuous
 62
     2
100
AcDbLine
 10
0.3502160129
 20
13.9337282362
 30
0.0
 11
0.4584633245
 21
14.1212180795
 31
0.0
  0
LINE
  5
28B
330
1F
100
AcDbEntity
  8
TRMODEL1
  6
Continuous
 62
     2
100
AcDbLine
 10
0.3502160129
 20
14.1837282362
 30
0.0
 11
0.4584633245
 21
14.3712180795
 31
0.0
  0
LINE
  5
28C
330
1F
100
AcDbEntity
  8
TRMODEL1
  6
Continuous
 62
     2
100
AcDbLine
 10
0.3502160129
 20
14.4337282362
 30
0.0
 11
0.4584633245
 21
14.6212180795
 31
0.0
  0
LINE
  5
28D
330
1F
100
AcDbEntity
  8
TRMODEL1
  6
Continuous
 62
     2
100
AcDbLine
 10
0.3502160129
 20
14.6837282362
 30
0.0
 11
0.479341167
 21
14.9073795635
 31
0.0
  0
LINE
  5
28E
330
1F
100
AcDbEntity
  8
TRMODEL1
  6
Continuous
 62
     2
100
AcDbLine
 10
0.566710636
 20
13.3569422427
 30
0.0
 11
0.2419687014
 21
13.5444117711
 31
0.0
  0
LINE
  5
28F
330
1F
100
AcDbEntity
  8
TRMODEL1
  6
Continuous
 62
     2
100
AcDbLine
 10
0.144546121
 20
15.1006526297
 30
0.0
 11
0.6641332164
 21
14.8007013841
 31
0.0
  0
LINE
  5
290
330
1F
100
AcDbEntity
  8
TRMODEL1
  6
Continuous
 62
     2
100
AcDbLine
 10
0.3102615664
 20
14.8645251047
 30
0.0
 11
0.3710850591
 21
14.9698744844
 31
0.0
  0
LINE
  5
291
330
1F
100
AcDbEntity
  8
TRMODEL1
  6
Continuous
 62
     2
100
AcDbLine
 10
0.2087008972
 20
14.9386168657
 30
0.0
 11
0.2628289512
 21
15.0323694053
 31
0.0
  0
LINE
  5
292
330
1F
100
AcDbEntity
  8
TRMODEL1
  6
Continuous
 62
     2
100
AcDbLine
 10
0.144546121
 20
15.0774975338
 30
0.0
 11
0.1545728432
 21
15.0948643261
 31
0.0
  0
LINE
  5
293
330
1F
100
AcDbEntity
  8
TRMODEL1
  6
Continuous
 62
     4
100
AcDbLine
 10
0.3601454949
 20
13.8920048979
 30
0.0
 11
0.0
 21
13.6840973291
 31
0.0
  0
LINE
  5
294
330
1F
100
AcDbEntity
  8
TRMODEL1
  6
Continuous
 62
     4
100
AcDbLine
 10
0.0
 20
13.6840973291
 30
0.0
 11
0.0
 21
13.4595486059
 31
0.0
  0
LINE
  5
295
330
1F
100
AcDbEntity
  8
TRMODEL1
  6
Continuous
 62
     4
100
AcDbLine
 10
0.0
 20
13.4595486059
 30
0.0
 11
0.0013586859
 21
13.4444030375
 31
0.0
  0
LINE
  5
296
330
1F
100
AcDbEntity
  8
TRMODEL1
  6
Continuous
 62
     4
100
AcDbLine
 10
0.0013586859
 20
13.4444030375
 30
0.0
 11
0.0053825299
 21
13.4314082102
 31
0.0
  0
LINE
  5
297
330
1F
100
AcDbEntity
  8
TRMODEL1
  6
Continuous
 62
     4
100
AcDbLine
 10
0.0053825299
 20
13.4314082102
 30
0.0
 11
0.011916898
 21
13.4210635077
 31
0.0
  0
LINE
  5
298
330
1F
100
AcDbEntity
  8
TRMODEL1
  6
Continuous
 62
     4
100
AcDbLine
 10
0.011916898
 20
13.4210635077
 30
0.0
 11
0.0207106781
 21
13.4137664713
 31
0.0
  0
LINE
  5
299
330
1F
100
AcDbEntity
  8
TRMODEL1
  6
Continuous
 62
     4
100
AcDbLine
 10
0.0207106781
 20
13.4137664713
 30
0.0
 11
0.0207147415
 21
13.4137641252
 31
0.0
  0
LINE
  5
29A
330
1F
100
AcDbEntity
  8
TRMODEL1
  6
Continuous
 62
     2
100
AcDbLine
 10
0.3502160129
 20
13.7194219283
 30
0.0
 11
0.3502160129
 21
14.7569219283
 31
0.0
  0
LINE
  5
29B
330
1F
100
AcDbEntity
  8
TRMODEL1
  6
Continuous
 62
     2
100
AcDbLine
 10
0.2419687014
 20
13.6819117711
 30
0.0
 11
0.2428006781
 21
13.6911859973
 31
0.0
  0
LINE
  5
29C
330
1F
100
AcDbEntity
  8
TRMODEL1
  6
Continuous
 62
     2
100
AcDbLine
 10
0.2428006781
 20
13.6911859973
 30
0.0
 11
0.2452646358
 21
13.6991432403
 31
0.0
  0
LINE
  5
29D
330
1F
100
AcDbEntity
  8
TRMODEL1
  6
Continuous
 62
     2
100
AcDbLine
 10
0.2452646358
 20
13.6991432403
 30
0.0
 11
0.2492658859
 21
13.7054777078
 31
0.0
  0
LINE
  5
29E
330
1F
100
AcDbEntity
  8
TRMODEL1
  6
Continuous
 62
     2
100
AcDbLine
 10
0.2492658859
 20
13.7054777078
 30
0.0
 11
0.2546506628
 21
13.7099459697
 31
0.0
  0
LINE
  5
29F
330
1F
100
AcDbEntity
  8
TRMODEL1
  6
Continuous
 62
     2
100
AcDbLine
 10
0.2546506628
 20
13.7099459697
 30
0.0
 11
0.2612120324
 21
13.7123763132
 31
0.0
  0
LINE
  5
2A0
330
1F
100
AcDbEntity
  8
TRMODEL1
  6
Continuous
 62
     2
100
AcDbLine
 10
0.2612120324
 20
13.7123763132
 30
0.0
 11
0.2686978449
 21
13.7126753416
 31
0.0
  0
LINE
  5
2A1
330
1F
100
AcDbEntity
  8
TRMODEL1
  6
Continuous
 62
     2
100
AcDbLine
 10
0.2686978449
 20
13.7126753416
 30
0.0
 11
0.2768204249
 21
13.7108315634
 31
0.0
  0
LINE
  5
2A2
330
1F
100
AcDbEntity
  8
TRMODEL1
  6
Continuous
 62
     2
100
AcDbLine
 10
0.2768204249
 20
13.7108315634
 30
0.0
 11
0.285267626
 21
13.706915834
 31
0.0
  0
LINE
  5
2A3
330
1F
100
AcDbEntity
  8
TRMODEL1
  6
Continuous
 62
     2
100
AcDbLine
 10
0.3069170883
 20
13.6944178654
 30
0.0
 11
0.3153642895
 21
13.690502136
 31
0.0
  0
LINE
  5
2A4
330
1F
100
AcDbEntity
  8
TRMODEL1
  6
Continuous
 62
     2
100
AcDbLine
 10
0.3153642895
 20
13.690502136
 30
0.0
 11
0.3234868694
 21
13.6886583578
 31
0.0
  0
LINE
  5
2A5
330
1F
100
AcDbEntity
  8
TRMODEL1
  6
Continuous
 62
     2
100
AcDbLine
 10
0.3234868694
 20
13.6886583578
 30
0.0
 11
0.330972682
 21
13.6889573862
 31
0.0
  0
LINE
  5
2A6
330
1F
100
AcDbEntity
  8
TRMODEL1
  6
Continuous
 62
     2
100
AcDbLine
 10
0.330972682
 20
13.6889573862
 30
0.0
 11
0.3375340515
 21
13.6913877297
 31
0.0
  0
LINE
  5
2A7
330
1F
100
AcDbEntity
  8
TRMODEL1
  6
Continuous
 62
     2
100
AcDbLine
 10
0.3375340515
 20
13.6913877297
 30
0.0
 11
0.3429188284
 21
13.6958559916
 31
0.0
  0
LINE
  5
2A8
330
1F
100
AcDbEntity
  8
TRMODEL1
  6
Continuous
 62
     2
100
AcDbLine
 10
0.3429188284
 20
13.6958559916
 30
0.0
 11
0.3469200785
 21
13.7021904591
 31
0.0
  0
LINE
  5
2A9
330
1F
100
AcDbEntity
  8
TRMODEL1
  6
Continuous
 62
     2
100
AcDbLine
 10
0.3469200785
 20
13.7021904591
 30
0.0
 11
0.3493840362
 21
13.7101477021
 31
0.0
  0
LINE
  5
2AA
330
1F
100
AcDbEntity
  8
TRMODEL1
  6
Continuous
 62
     2
100
AcDbLine
 10
0.3493840362
 20
13.7101477021
 30
0.0
 11
0.3502160129
 21
13.7194219283
 31
0.0
  0
LINE
  5
2AB
330
1F
100
AcDbEntity
  8
TRMODEL1
  6
Continuous
 62
     2
100
AcDbLine
 10
0.285267626
 20
13.706915834
 30
0.0
 11
0.3502160129
 21
13.7444097397
 31
0.0
  0
LINE
  5
2AC
330
1F
100
AcDbEntity
  8
TRMODEL1
  6
Continuous
 62
     2
100
AcDbLine
 10
0.3069170883
 20
13.6944178654
 30
0.0
 11
0.3502160124
 21
13.7194138022
 31
0.0
  0
LINE
  5
2AD
330
1F
100
AcDbEntity
  8
TRMODEL1
  6
Continuous
 62
     2
100
AcDbLine
 10
0.2419687014
 20
13.5444117711
 30
0.0
 11
0.2419687014
 21
13.6819117711
 31
0.0
  0
LINE
  5
2AE
330
1F
100
AcDbEntity
  8
TRMODEL1
  6
Continuous
 62
     2
100
AcDbLine
 10
0.285267626
 20
13.706915834
 30
0.0
 11
0.3069170883
 21
13.6944178654
 31
0.0
  0
LINE
  5
2AF
330
1F
100
AcDbEntity
  8
TRMODEL1
  6
Continuous
 62
     2
100
AcDbLine
 10
0.254653151
 20
13.7099474063
 30
0.0
 11
0.3502160129
 21
13.7651146723
 31
0.0
  0
LINE
  5
2B0
330
1F
100
AcDbEntity
  8
TRMODEL1
  6
Continuous
 62
     2
100
AcDbLine
 10
0.3502160129
 20
14.7569219283
 30
0.0
 11
0.3485520595
 21
14.7773915403
 31
0.0
  0
LINE
  5
2B1
330
1F
100
AcDbEntity
  8
TRMODEL1
  6
Continuous
 62
     2
100
AcDbLine
 10
0.3485520595
 20
14.7773915403
 30
0.0
 11
0.3436241442
 21
14.7989956764
 31
0.0
  0
LINE
  5
2B2
330
1F
100
AcDbEntity
  8
TRMODEL1
  6
Continuous
 62
     2
100
AcDbLine
 10
0.3436241442
 20
14.7989956764
 30
0.0
 11
0.3356216438
 21
14.8209041015
 31
0.0
  0
LINE
  5
2B3
330
1F
100
AcDbEntity
  8
TRMODEL1
  6
Continuous
 62
     2
100
AcDbLine
 10
0.3356216438
 20
14.8209041015
 30
0.0
 11
0.3248520901
 21
14.8422748874
 31
0.0
  0
LINE
  5
2B4
330
1F
100
AcDbEntity
  8
TRMODEL1
  6
Continuous
 62
     2
100
AcDbLine
 10
0.3248520901
 20
14.8422748874
 30
0.0
 11
0.311729351
 21
14.8622867666
 31
0.0
  0
LINE
  5
2B5
330
1F
100
AcDbEntity
  8
TRMODEL1
  6
Continuous
 62
     2
100
AcDbLine
 10
0.311729351
 20
14.8622867666
 30
0.0
 11
0.2967577259
 21
14.8801706938
 31
0.0
  0
LINE
  5
2B6
330
1F
100
AcDbEntity
  8
TRMODEL1
  6
Continuous
 62
     2
100
AcDbLine
 10
0.2967577259
 20
14.8801706938
 30
0.0
 11
0.280512566
 21
14.8952393997
 31
0.0
  0
LINE
  5
2B7
330
1F
100
AcDbEntity
  8
TRMODEL1
  6
Continuous
 62
     2
100
AcDbLine
 10
0.280512566
 20
14.8952393997
 30
0.0
 11
0.2636181637
 21
14.9069138026
 31
0.0
  0
LINE
  5
2B8
330
1F
100
AcDbEntity
  8
TRMODEL1
  6
Continuous
 62
     2
100
AcDbLine
 10
0.1878450456
 20
14.9506566925
 30
0.0
 11
0.1793978445
 21
14.9564938939
 31
0.0
  0
LINE
  5
2B9
330
1F
100
AcDbEntity
  8
TRMODEL1
  6
Continuous
 62
     2
100
AcDbLine
 10
0.1793978445
 20
14.9564938939
 30
0.0
 11
0.1712752645
 21
14.9640282469
 31
0.0
  0
LINE
  5
2BA
330
1F
100
AcDbEntity
  8
TRMODEL1
  6
Continuous
 62
     2
100
AcDbLine
 10
0.1712752645
 20
14.9640282469
 30
0.0
 11
0.163789452
 21
14.9729702105
 31
0.0
  0
LINE
  5
2BB
330
1F
100
AcDbEntity
  8
TRMODEL1
  6
Continuous
 62
     2
100
AcDbLine
 10
0.163789452
 20
14.9729702105
 30
0.0
 11
0.1572280824
 21
14.9829761501
 31
0.0
  0
LINE
  5
2BC
330
1F
100
AcDbEntity
  8
TRMODEL1
  6
Continuous
 62
     2
100
AcDbLine
 10
0.1572280824
 20
14.9829761501
 30
0.0
 11
0.1518433056
 21
14.993661543
 31
0.0
  0
LINE
  5
2BD
330
1F
100
AcDbEntity
  8
TRMODEL1
  6
Continuous
 62
     2
100
AcDbLine
 10
0.1518433056
 20
14.993661543
 30
0.0
 11
0.1478420554
 21
15.0046157556
 31
0.0
  0
LINE
  5
2BE
330
1F
100
AcDbEntity
  8
TRMODEL1
  6
Continuous
 62
     2
100
AcDbLine
 10
0.1478420554
 20
15.0046157556
 30
0.0
 11
0.1453780977
 21
15.0154178236
 31
0.0
  0
LINE
  5
2BF
330
1F
100
AcDbEntity
  8
TRMODEL1
  6
Continuous
 62
     2
100
AcDbLine
 10
0.1453780977
 20
15.0154178236
 30
0.0
 11
0.144546121
 21
15.0256526297
 31
0.0
  0
LINE
  5
2C0
330
1F
100
AcDbEntity
  8
TRMODEL1
  6
Continuous
 62
     2
100
AcDbLine
 10
0.2636181637
 20
14.9069138026
 30
0.0
 11
0.1878450456
 21
14.9506566925
 31
0.0
  0
LINE
  5
2C1
330
1F
100
AcDbEntity
  8
TRMODEL1
  6
Continuous
 62
     2
100
AcDbLine
 10
0.144546121
 20
15.0256526297
 30
0.0
 11
0.144546121
 21
15.1006526297
 31
0.0
  0
LINE
  5
2C2
330
1F
100
AcDbEntity
  8
TRMODEL1
  6
Continuous
 62
     2
100
AcDbLine
 10
1.8007299876
 20
12.8320580345
 30
0.0
 11
2.8292465965
 21
13.4258080345
 31
0.0
  0
LINE
  5
2C3
330
1F
100
AcDbEntity
  8
TRMODEL1
  6
Continuous
 62
     2
100
AcDbLine
 10
1.8223794499
 20
12.819560066
 30
0.0
 11
2.8508960588
 21
13.413310066
 31
0.0
  0
LINE
  5
2C4
330
1F
100
AcDbEntity
  8
TRMODEL1
  6
Continuous
 62
     2
100
AcDbLine
 10
1.7574310629
 20
12.9070539717
 30
0.0
 11
2.7552447465
 21
13.4830795501
 31
0.0
  0
LINE
  5
2C5
330
1F
100
AcDbEntity
  8
TRMODEL1
  6
Continuous
 62
     2
100
AcDbLine
 10
1.9191632231
 20
16.8142234759
 30
0.0
 11
2.5160113676
 21
16.4696703762
 31
0.0
  0
LINE
  5
2C6
330
1F
100
AcDbEntity
  8
TRMODEL1
  6
Continuous
 62
     2
100
AcDbLine
 10
1.5619022462
 20
12.7824303549
 30
0.0
 11
1.7574310629
 21
13.1210961999
 31
0.0
  0
LINE
  5
2C7
330
1F
100
AcDbEntity
  8
TRMODEL1
  6
Continuous
 62
     2
100
AcDbLine
 10
1.6491837514
 20
13.1836063566
 30
0.0
 11
1.7574310629
 21
13.3710961999
 31
0.0
  0
LINE
  5
2C8
330
1F
100
AcDbEntity
  8
TRMODEL1
  6
Continuous
 62
     2
100
AcDbLine
 10
1.9448580674
 20
13.9457292943
 30
0.0
 11
1.9631009549
 21
13.9773269023
 31
0.0
  0
LINE
  5
2C9
330
1F
100
AcDbEntity
  8
TRMODEL1
  6
Continuous
 62
     2
100
AcDbLine
 10
1.6491837514
 20
13.4336063566
 30
0.0
 11
1.7574310629
 21
13.6210961999
 31
0.0
  0
LINE
  5
2CA
330
1F
100
AcDbEntity
  8
TRMODEL1
  6
Continuous
 62
     2
100
AcDbLine
 10
1.8319475105
 20
14.0001624731
 30
0.0
 11
1.8866705699
 21
14.0949455924
 31
0.0
  0
LINE
  5
2CB
330
1F
100
AcDbEntity
  8
TRMODEL1
  6
Continuous
 62
     2
100
AcDbLine
 10
1.6491837514
 20
13.6836063566
 30
0.0
 11
1.7574310629
 21
13.8710961999
 31
0.0
  0
LINE
  5
2CC
330
1F
100
AcDbEntity
  8
TRMODEL1
  6
Continuous
 62
     2
100
AcDbLine
 10
1.6491837514
 20
13.9336063566
 30
0.0
 11
1.778414462
 21
14.1574405132
 31
0.0
  0
LINE
  5
2CD
330
1F
100
AcDbEntity
  8
TRMODEL1
  6
Continuous
 62
     2
100
AcDbLine
 10
1.6093041478
 20
14.114532857
 30
0.0
 11
1.6701583541
 21
14.2199354341
 31
0.0
  0
LINE
  5
2CE
330
1F
100
AcDbEntity
  8
TRMODEL1
  6
Continuous
 62
     2
100
AcDbLine
 10
1.5077741922
 20
14.1886778154
 30
0.0
 11
1.5619022462
 21
14.2824303549
 31
0.0
  0
LINE
  5
2CF
330
1F
100
AcDbEntity
  8
TRMODEL1
  6
Continuous
 62
     2
100
AcDbLine
 10
1.4435138595
 20
14.3273756542
 30
0.0
 11
1.4536461382
 21
14.3449252758
 31
0.0
  0
LINE
  5
2D0
330
1F
100
AcDbEntity
  8
TRMODEL1
  6
Continuous
 62
     2
100
AcDbLine
 10
0.479341167
 20
13.4073795635
 30
0.0
 11
0.5541300089
 21
13.5369176375
 31
0.0
  0
LINE
  5
2D1
330
1F
100
AcDbEntity
  8
TRMODEL1
  6
Continuous
 62
     2
100
AcDbLine
 10
0.6457113064
 20
14.6955410979
 30
0.0
 11
0.6641332164
 21
14.7274487819
 31
0.0
  0
LINE
  5
2D2
330
1F
100
AcDbEntity
  8
TRMODEL1
  6
Continuous
 62
     2
100
AcDbLine
 10
0.5328687476
 20
14.7500920527
 30
0.0
 11
0.5875972749
 21
14.8448846427
 31
0.0
  0
LINE
  5
2D3
330
1F
100
AcDbEntity
  8
TRMODEL1
  6
Continuous
 62
     2
100
AcDbLine
 10
0.4584633245
 20
14.6944320855
 30
0.0
 11
0.4584633245
 21
13.6569320855
 31
0.0
  0
LINE
  5
2D4
330
1F
100
AcDbEntity
  8
TRMODEL1
  6
Continuous
 62
     2
100
AcDbLine
 10
0.4584633245
 20
13.6569320855
 30
0.0
 11
0.4592953012
 21
13.6466972795
 31
0.0
  0
LINE
  5
2D5
330
1F
100
AcDbEntity
  8
TRMODEL1
  6
Continuous
 62
     2
100
AcDbLine
 10
0.4592953012
 20
13.6466972795
 30
0.0
 11
0.4617592589
 21
13.6358952114
 31
0.0
  0
LINE
  5
2D6
330
1F
100
AcDbEntity
  8
TRMODEL1
  6
Continuous
 62
     2
100
AcDbLine
 10
0.4617592589
 20
13.6358952114
 30
0.0
 11
0.465760509
 21
13.6249409989
 31
0.0
  0
LINE
  5
2D7
330
1F
100
AcDbEntity
  8
TRMODEL1
  6
Continuous
 62
     2
100
AcDbLine
 10
0.465760509
 20
13.6249409989
 30
0.0
 11
0.4711452859
 21
13.6142556059
 31
0.0
  0
LINE
  5
2D8
330
1F
100
AcDbEntity
  8
TRMODEL1
  6
Continuous
 62
     2
100
AcDbLine
 10
0.4711452859
 20
13.6142556059
 30
0.0
 11
0.4777066554
 21
13.6042496664
 31
0.0
  0
LINE
  5
2D9
330
1F
100
AcDbEntity
  8
TRMODEL1
  6
Continuous
 62
     2
100
AcDbLine
 10
0.4777066554
 20
13.6042496664
 30
0.0
 11
0.485192468
 21
13.5953077027
 31
0.0
  0
LINE
  5
2DA
330
1F
100
AcDbEntity
  8
TRMODEL1
  6
Continuous
 62
     2
100
AcDbLine
 10
0.485192468
 20
13.5953077027
 30
0.0
 11
0.4933150479
 21
13.5877733498
 31
0.0
  0
LINE
  5
2DB
330
1F
100
AcDbEntity
  8
TRMODEL1
  6
Continuous
 62
     2
100
AcDbLine
 10
0.4933150479
 20
13.5877733498
 30
0.0
 11
0.5017622491
 21
13.5819361484
 31
0.0
  0
LINE
  5
2DC
330
1F
100
AcDbEntity
  8
TRMODEL1
  6
Continuous
 62
     2
100
AcDbLine
 10
0.5234117114
 20
13.5694381798
 30
0.0
 11
0.5318589125
 21
13.5636009784
 31
0.0
  0
LINE
  5
2DD
330
1F
100
AcDbEntity
  8
TRMODEL1
  6
Continuous
 62
     2
100
AcDbLine
 10
0.5318589125
 20
13.5636009784
 30
0.0
 11
0.5399814925
 21
13.5560666254
 31
0.0
  0
LINE
  5
2DE
330
1F
100
AcDbEntity
  8
TRMODEL1
  6
Continuous
 62
     2
100
AcDbLine
 10
0.5399814925
 20
13.5560666254
 30
0.0
 11
0.547467305
 21
13.5471246618
 31
0.0
  0
LINE
  5
2DF
330
1F
100
AcDbEntity
  8
TRMODEL1
  6
Continuous
 62
     2
100
AcDbLine
 10
0.547467305
 20
13.5471246618
 30
0.0
 11
0.5540286746
 21
13.5371187222
 31
0.0
  0
LINE
  5
2E0
330
1F
100
AcDbEntity
  8
TRMODEL1
  6
Continuous
 62
     2
100
AcDbLine
 10
0.5540286746
 20
13.5371187222
 30
0.0
 11
0.5594134515
 21
13.5264333293
 31
0.0
  0
LINE
  5
2E1
330
1F
100
AcDbEntity
  8
TRMODEL1
  6
Continuous
 62
     2
100
AcDbLine
 10
0.5594134515
 20
13.5264333293
 30
0.0
 11
0.5634147016
 21
13.5154791167
 31
0.0
  0
LINE
  5
2E2
330
1F
100
AcDbEntity
  8
TRMODEL1
  6
Continuous
 62
     2
100
AcDbLine
 10
0.5634147016
 20
13.5154791167
 30
0.0
 11
0.5658786593
 21
13.5046770487
 31
0.0
  0
LINE
  5
2E3
330
1F
100
AcDbEntity
  8
TRMODEL1
  6
Continuous
 62
     2
100
AcDbLine
 10
0.5658786593
 20
13.5046770487
 30
0.0
 11
0.566710636
 21
13.4944422427
 31
0.0
  0
LINE
  5
2E4
330
1F
100
AcDbEntity
  8
TRMODEL1
  6
Continuous
 62
     2
100
AcDbLine
 10
1.9631009549
 20
13.9758232703
 30
0.0
 11
1.9622689782
 21
13.9665490441
 31
0.0
  0
LINE
  5
2E5
330
1F
100
AcDbEntity
  8
TRMODEL1
  6
Continuous
 62
     2
100
AcDbLine
 10
1.9622689782
 20
13.9665490441
 30
0.0
 11
1.9598050205
 21
13.9585918011
 31
0.0
  0
LINE
  5
2E6
330
1F
100
AcDbEntity
  8
TRMODEL1
  6
Continuous
 62
     2
100
AcDbLine
 10
1.9598050205
 20
13.9585918011
 30
0.0
 11
1.9558037703
 21
13.9522573336
 31
0.0
  0
LINE
  5
2E7
330
1F
100
AcDbEntity
  8
TRMODEL1
  6
Continuous
 62
     2
100
AcDbLine
 10
1.9558037703
 20
13.9522573336
 30
0.0
 11
1.9504189935
 21
13.9477890717
 31
0.0
  0
LINE
  5
2E8
330
1F
100
AcDbEntity
  8
TRMODEL1
  6
Continuous
 62
     2
100
AcDbLine
 10
1.9504189935
 20
13.9477890717
 30
0.0
 11
1.9438576239
 21
13.9453587282
 31
0.0
  0
LINE
  5
2E9
330
1F
100
AcDbEntity
  8
TRMODEL1
  6
Continuous
 62
     2
100
AcDbLine
 10
1.9438576239
 20
13.9453587282
 30
0.0
 11
1.9363718113
 21
13.9450596998
 31
0.0
  0
LINE
  5
2EA
330
1F
100
AcDbEntity
  8
TRMODEL1
  6
Continuous
 62
     2
100
AcDbLine
 10
1.9363718113
 20
13.9450596998
 30
0.0
 11
1.9282492314
 21
13.946903478
 31
0.0
  0
LINE
  5
2EB
330
1F
100
AcDbEntity
  8
TRMODEL1
  6
Continuous
 62
     2
100
AcDbLine
 10
1.9282492314
 20
13.946903478
 30
0.0
 11
1.9198020302
 21
13.9508192074
 31
0.0
  0
LINE
  5
2EC
330
1F
100
AcDbEntity
  8
TRMODEL1
  6
Continuous
 62
     2
100
AcDbLine
 10
1.8440289122
 20
13.9945620974
 30
0.0
 11
1.8271345099
 21
14.0023935563
 31
0.0
  0
LINE
  5
2ED
330
1F
100
AcDbEntity
  8
TRMODEL1
  6
Continuous
 62
     2
100
AcDbLine
 10
1.8271345099
 20
14.0023935563
 30
0.0
 11
1.81088935
 21
14.0060811127
 31
0.0
  0
LINE
  5
2EE
330
1F
100
AcDbEntity
  8
TRMODEL1
  6
Continuous
 62
     2
100
AcDbLine
 10
1.81088935
 20
14.0060811127
 30
0.0
 11
1.7959177249
 21
14.0054830559
 31
0.0
  0
LINE
  5
2EF
330
1F
100
AcDbEntity
  8
TRMODEL1
  6
Continuous
 62
     2
100
AcDbLine
 10
1.7959177249
 20
14.0054830559
 30
0.0
 11
1.7827949857
 21
14.0006223688
 31
0.0
  0
LINE
  5
2F0
330
1F
100
AcDbEntity
  8
TRMODEL1
  6
Continuous
 62
     2
100
AcDbLine
 10
1.7827949857
 20
14.0006223688
 30
0.0
 11
1.772025432
 21
13.991685845
 31
0.0
  0
LINE
  5
2F1
330
1F
100
AcDbEntity
  8
TRMODEL1
  6
Continuous
 62
     2
100
AcDbLine
 10
1.772025432
 20
13.991685845
 30
0.0
 11
1.7640229317
 21
13.9790169101
 31
0.0
  0
LINE
  5
2F2
330
1F
100
AcDbEntity
  8
TRMODEL1
  6
Continuous
 62
     2
100
AcDbLine
 10
1.7640229317
 20
13.9790169101
 30
0.0
 11
1.7590950163
 21
13.963102424
 31
0.0
  0
LINE
  5
2F3
330
1F
100
AcDbEntity
  8
TRMODEL1
  6
Continuous
 62
     2
100
AcDbLine
 10
1.7590950163
 20
13.963102424
 30
0.0
 11
1.7574310629
 21
13.9445539717
 31
0.0
  0
LINE
  5
2F4
330
1F
100
AcDbEntity
  8
TRMODEL1
  6
Continuous
 62
     2
100
AcDbLine
 10
1.7574310629
 20
12.9070539717
 30
0.0
 11
1.7582630396
 21
12.8968191656
 31
0.0
  0
LINE
  5
2F5
330
1F
100
AcDbEntity
  8
TRMODEL1
  6
Continuous
 62
     2
100
AcDbLine
 10
1.7582630396
 20
12.8968191656
 30
0.0
 11
1.7607269973
 21
12.8860170976
 31
0.0
  0
LINE
  5
2F6
330
1F
100
AcDbEntity
  8
TRMODEL1
  6
Continuous
 62
     2
100
AcDbLine
 10
1.7607269973
 20
12.8860170976
 30
0.0
 11
1.7647282475
 21
12.875062885
 31
0.0
  0
LINE
  5
2F7
330
1F
100
AcDbEntity
  8
TRMODEL1
  6
Continuous
 62
     2
100
AcDbLine
 10
1.7647282475
 20
12.875062885
 30
0.0
 11
1.7701130243
 21
12.8643774921
 31
0.0
  0
LINE
  5
2F8
330
1F
100
AcDbEntity
  8
TRMODEL1
  6
Continuous
 62
     2
100
AcDbLine
 10
1.7701130243
 20
12.8643774921
 30
0.0
 11
1.7766743939
 21
12.8543715525
 31
0.0
  0
LINE
  5
2F9
330
1F
100
AcDbEntity
  8
TRMODEL1
  6
Continuous
 62
     2
100
AcDbLine
 10
1.7766743939
 20
12.8543715525
 30
0.0
 11
1.7841602065
 21
12.8454295889
 31
0.0
  0
LINE
  5
2FA
330
1F
100
AcDbEntity
  8
TRMODEL1
  6
Continuous
 62
     2
100
AcDbLine
 10
1.7841602065
 20
12.8454295889
 30
0.0
 11
1.7922827864
 21
12.8378952359
 31
0.0
  0
LINE
  5
2FB
330
1F
100
AcDbEntity
  8
TRMODEL1
  6
Continuous
 62
     2
100
AcDbLine
 10
1.7922827864
 20
12.8378952359
 30
0.0
 11
1.8007299876
 21
12.8320580345
 31
0.0
  0
LINE
  5
2FC
330
1F
100
AcDbEntity
  8
TRMODEL1
  6
Continuous
 62
     2
100
AcDbLine
 10
1.5409364399
 20
12.9320336573
 30
0.0
 11
1.5417684166
 21
12.9413078835
 31
0.0
  0
LINE
  5
2FD
330
1F
100
AcDbEntity
  8
TRMODEL1
  6
Continuous
 62
     2
100
AcDbLine
 10
1.5417684166
 20
12.9413078835
 30
0.0
 11
1.5442323742
 21
12.9492651265
 31
0.0
  0
LINE
  5
2FE
330
1F
100
AcDbEntity
  8
TRMODEL1
  6
Continuous
 62
     2
100
AcDbLine
 10
1.5442323742
 20
12.9492651265
 30
0.0
 11
1.5482336244
 21
12.955599594
 31
0.0
  0
LINE
  5
2FF
330
1F
100
AcDbEntity
  8
TRMODEL1
  6
Continuous
 62
     2
100
AcDbLine
 10
1.5482336244
 20
12.955599594
 30
0.0
 11
1.5536184013
 21
12.9600678559
 31
0.0
  0
LINE
  5
300
330
1F
100
AcDbEntity
  8
TRMODEL1
  6
Continuous
 62
     2
100
AcDbLine
 10
1.5536184013
 20
12.9600678559
 30
0.0
 11
1.5601797708
 21
12.9624981994
 31
0.0
  0
LINE
  5
301
330
1F
100
AcDbEntity
  8
TRMODEL1
  6
Continuous
 62
     2
100
AcDbLine
 10
1.5601797708
 20
12.9624981994
 30
0.0
 11
1.5676655834
 21
12.9627972278
 31
0.0
  0
LINE
  5
302
330
1F
100
AcDbEntity
  8
TRMODEL1
  6
Continuous
 62
     2
100
AcDbLine
 10
1.5676655834
 20
12.9627972278
 30
0.0
 11
1.5757881633
 21
12.9609534496
 31
0.0
  0
LINE
  5
303
330
1F
100
AcDbEntity
  8
TRMODEL1
  6
Continuous
 62
     2
100
AcDbLine
 10
1.5757881633
 20
12.9609534496
 30
0.0
 11
1.5842353645
 21
12.9570377202
 31
0.0
  0
LINE
  5
304
330
1F
100
AcDbEntity
  8
TRMODEL1
  6
Continuous
 62
     2
100
AcDbLine
 10
1.6058848268
 20
12.9445397516
 30
0.0
 11
1.6143320279
 21
12.9406240222
 31
0.0
  0
LINE
  5
305
330
1F
100
AcDbEntity
  8
TRMODEL1
  6
Continuous
 62
     2
100
AcDbLine
 10
1.6143320279
 20
12.9406240222
 30
0.0
 11
1.6224546079
 21
12.938780244
 31
0.0
  0
LINE
  5
306
330
1F
100
AcDbEntity
  8
TRMODEL1
  6
Continuous
 62
     2
100
AcDbLine
 10
1.6224546079
 20
12.938780244
 30
0.0
 11
1.6299404204
 21
12.9390792724
 31
0.0
  0
LINE
  5
307
330
1F
100
AcDbEntity
  8
TRMODEL1
  6
Continuous
 62
     2
100
AcDbLine
 10
1.6299404204
 20
12.9390792724
 30
0.0
 11
1.63650179
 21
12.9415096159
 31
0.0
  0
LINE
  5
308
330
1F
100
AcDbEntity
  8
TRMODEL1
  6
Continuous
 62
     2
100
AcDbLine
 10
1.63650179
 20
12.9415096159
 30
0.0
 11
1.6418865668
 21
12.9459778778
 31
0.0
  0
LINE
  5
309
330
1F
100
AcDbEntity
  8
TRMODEL1
  6
Continuous
 62
     2
100
AcDbLine
 10
1.6418865668
 20
12.9459778778
 30
0.0
 11
1.645887817
 21
12.9523123453
 31
0.0
  0
LINE
  5
30A
330
1F
100
AcDbEntity
  8
TRMODEL1
  6
Continuous
 62
     2
100
AcDbLine
 10
1.645887817
 20
12.9523123453
 30
0.0
 11
1.6483517747
 21
12.9602695883
 31
0.0
  0
LINE
  5
30B
330
1F
100
AcDbEntity
  8
TRMODEL1
  6
Continuous
 62
     2
100
AcDbLine
 10
1.6483517747
 20
12.9602695883
 30
0.0
 11
1.6491837514
 21
12.9695438145
 31
0.0
  0
LINE
  5
30C
330
1F
100
AcDbEntity
  8
TRMODEL1
  6
Continuous
 62
     2
100
AcDbLine
 10
1.6491837514
 20
14.0070438145
 30
0.0
 11
1.647519798
 21
14.0275134265
 31
0.0
  0
LINE
  5
30D
330
1F
100
AcDbEntity
  8
TRMODEL1
  6
Continuous
 62
     2
100
AcDbLine
 10
1.647519798
 20
14.0275134265
 30
0.0
 11
1.6425918826
 21
14.0491175626
 31
0.0
  0
LINE
  5
30E
330
1F
100
AcDbEntity
  8
TRMODEL1
  6
Continuous
 62
     2
100
AcDbLine
 10
1.6425918826
 20
14.0491175626
 30
0.0
 11
1.6345893823
 21
14.0710259877
 31
0.0
  0
LINE
  5
30F
330
1F
100
AcDbEntity
  8
TRMODEL1
  6
Continuous
 62
     2
100
AcDbLine
 10
1.6345893823
 20
14.0710259877
 30
0.0
 11
1.6238198286
 21
14.0923967736
 31
0.0
  0
LINE
  5
310
330
1F
100
AcDbEntity
  8
TRMODEL1
  6
Continuous
 62
     2
100
AcDbLine
 10
1.6238198286
 20
14.0923967736
 30
0.0
 11
1.6106970894
 21
14.1124086527
 31
0.0
  0
LINE
  5
311
330
1F
100
AcDbEntity
  8
TRMODEL1
  6
Continuous
 62
     2
100
AcDbLine
 10
1.6106970894
 20
14.1124086527
 30
0.0
 11
1.5957254643
 21
14.13029258
 31
0.0
  0
LINE
  5
312
330
1F
100
AcDbEntity
  8
TRMODEL1
  6
Continuous
 62
     2
100
AcDbLine
 10
1.5957254643
 20
14.13029258
 30
0.0
 11
1.5794803045
 21
14.1453612859
 31
0.0
  0
LINE
  5
313
330
1F
100
AcDbEntity
  8
TRMODEL1
  6
Continuous
 62
     2
100
AcDbLine
 10
1.5794803045
 20
14.1453612859
 30
0.0
 11
1.5625859022
 21
14.1570356887
 31
0.0
  0
LINE
  5
314
330
1F
100
AcDbEntity
  8
TRMODEL1
  6
Continuous
 62
     2
100
AcDbLine
 10
1.4868127841
 20
14.2007785787
 30
0.0
 11
1.4783655829
 21
14.2066157801
 31
0.0
  0
LINE
  5
315
330
1F
100
AcDbEntity
  8
TRMODEL1
  6
Continuous
 62
     2
100
AcDbLine
 10
1.4783655829
 20
14.2066157801
 30
0.0
 11
1.470243003
 21
14.2141501331
 31
0.0
  0
LINE
  5
316
330
1F
100
AcDbEntity
  8
TRMODEL1
  6
Continuous
 62
     2
100
AcDbLine
 10
1.470243003
 20
14.2141501331
 30
0.0
 11
1.4627571905
 21
14.2230920967
 31
0.0
  0
LINE
  5
317
330
1F
100
AcDbEntity
  8
TRMODEL1
  6
Continuous
 62
     2
100
AcDbLine
 10
1.4627571905
 20
14.2230920967
 30
0.0
 11
1.4561958209
 21
14.2330980363
 31
0.0
  0
LINE
  5
318
330
1F
100
AcDbEntity
  8
TRMODEL1
  6
Continuous
 62
     2
100
AcDbLine
 10
1.4561958209
 20
14.2330980363
 30
0.0
 11
1.450811044
 21
14.2437834292
 31
0.0
  0
LINE
  5
319
330
1F
100
AcDbEntity
  8
TRMODEL1
  6
Continuous
 62
     2
100
AcDbLine
 10
1.450811044
 20
14.2437834292
 30
0.0
 11
1.4468097939
 21
14.2547376418
 31
0.0
  0
LINE
  5
31A
330
1F
100
AcDbEntity
  8
TRMODEL1
  6
Continuous
 62
     2
100
AcDbLine
 10
1.4468097939
 20
14.2547376418
 30
0.0
 11
1.4443458362
 21
14.2655397098
 31
0.0
  0
LINE
  5
31B
330
1F
100
AcDbEntity
  8
TRMODEL1
  6
Continuous
 62
     2
100
AcDbLine
 10
1.4443458362
 20
14.2655397098
 30
0.0
 11
1.4435138595
 21
14.2757745158
 31
0.0
  0
LINE
  5
31C
330
1F
100
AcDbEntity
  8
TRMODEL1
  6
Continuous
 62
     2
100
AcDbLine
 10
0.566710636
 20
13.3569422427
 30
0.0
 11
1.6491837514
 21
13.9818406708
 31
0.0
  0
LINE
  5
31D
330
1F
100
AcDbEntity
  8
TRMODEL1
  6
Continuous
 62
     2
100
AcDbLine
 10
0.5017622491
 20
13.5819361484
 30
0.0
 11
1.530278858
 21
14.1756861484
 31
0.0
  0
LINE
  5
31E
330
1F
100
AcDbEntity
  8
TRMODEL1
  6
Continuous
 62
     2
100
AcDbLine
 10
0.566710636
 20
13.4944422427
 30
0.0
 11
1.6182607671
 21
14.101489212
 31
0.0
  0
LINE
  5
31F
330
1F
100
AcDbEntity
  8
TRMODEL1
  6
Continuous
 62
     2
100
AcDbLine
 10
0.5234117114
 20
13.5694381798
 30
0.0
 11
1.5519283203
 21
14.1631881798
 31
0.0
  0
LINE
  5
320
330
1F
100
AcDbEntity
  8
TRMODEL1
  6
Continuous
 62
     2
100
AcDbLine
 10
0.4584633245
 20
13.6569320855
 30
0.0
 11
1.456277008
 21
14.232957664
 31
0.0
  0
LINE
  5
321
330
1F
100
AcDbEntity
  8
TRMODEL1
  6
Continuous
 62
     2
100
AcDbLine
 10
1.5842353645
 20
12.9570377202
 30
0.0
 11
1.6491837514
 21
12.9945316259
 31
0.0
  0
LINE
  5
322
330
1F
100
AcDbEntity
  8
TRMODEL1
  6
Continuous
 62
     2
100
AcDbLine
 10
1.6058848268
 20
12.9445397516
 30
0.0
 11
1.6491837508
 21
12.9695356884
 31
0.0
  0
LINE
  5
323
330
1F
100
AcDbEntity
  8
TRMODEL1
  6
Continuous
 62
     2
100
AcDbLine
 10
1.7574310629
 20
13.9445539717
 30
0.0
 11
1.8440429879
 21
13.9945539717
 31
0.0
  0
LINE
  5
324
330
1F
100
AcDbEntity
  8
TRMODEL1
  6
Continuous
 62
     2
100
AcDbLine
 10
1.5625859022
 20
14.1570356887
 30
0.0
 11
1.4868127841
 21
14.2007785787
 31
0.0
  0
LINE
  5
325
330
1F
100
AcDbEntity
  8
TRMODEL1
  6
Continuous
 62
     2
100
AcDbLine
 10
1.9198020302
 20
13.9508192074
 30
0.0
 11
1.8440289122
 21
13.9945620974
 31
0.0
  0
LINE
  5
326
330
1F
100
AcDbEntity
  8
TRMODEL1
  6
Continuous
 62
     2
100
AcDbLine
 10
1.7574310629
 20
13.9445539717
 30
0.0
 11
1.7574310629
 21
12.9070539717
 31
0.0
  0
LINE
  5
327
330
1F
100
AcDbEntity
  8
TRMODEL1
  6
Continuous
 62
     2
100
AcDbLine
 10
1.8007299876
 20
12.8320580345
 30
0.0
 11
1.8223794499
 21
12.819560066
 31
0.0
  0
LINE
  5
328
330
1F
100
AcDbEntity
  8
TRMODEL1
  6
Continuous
 62
     2
100
AcDbLine
 10
1.5409364399
 20
12.7945336573
 30
0.0
 11
1.5409364399
 21
12.9320336573
 31
0.0
  0
LINE
  5
329
330
1F
100
AcDbEntity
  8
TRMODEL1
  6
Continuous
 62
     2
100
AcDbLine
 10
1.5842353645
 20
12.9570377202
 30
0.0
 11
1.6058848268
 21
12.9445397516
 31
0.0
  0
LINE
  5
32A
330
1F
100
AcDbEntity
  8
TRMODEL1
  6
Continuous
 62
     2
100
AcDbLine
 10
1.6491837514
 20
12.9695438145
 30
0.0
 11
1.6491837514
 21
14.0070438145
 31
0.0
  0
LINE
  5
32B
330
1F
100
AcDbEntity
  8
TRMODEL1
  6
Continuous
 62
     2
100
AcDbLine
 10
1.4435138595
 20
14.2757745158
 30
0.0
 11
1.4435138595
 21
14.3507745158
 31
0.0
  0
LINE
  5
32C
330
1F
100
AcDbEntity
  8
TRMODEL1
  6
Continuous
 62
     2
100
AcDbLine
 10
1.9631009549
 20
14.0508232703
 30
0.0
 11
1.9631009549
 21
13.9758232703
 31
0.0
  0
LINE
  5
32D
330
1F
100
AcDbEntity
  8
TRMODEL1
  6
Continuous
 62
     2
100
AcDbLine
 10
1.4435138595
 20
14.3507745158
 30
0.0
 11
1.9631009549
 21
14.0508232703
 31
0.0
  0
LINE
  5
32E
330
1F
100
AcDbEntity
  8
TRMODEL1
  6
Continuous
 62
     2
100
AcDbLine
 10
1.5536208894
 20
12.9600692925
 30
0.0
 11
1.6491837514
 21
13.0152365584
 31
0.0
  0
LINE
  5
32F
330
1F
100
AcDbEntity
  8
TRMODEL1
  6
Continuous
 62
     2
100
AcDbLine
 10
0.5017622491
 20
13.5819361484
 30
0.0
 11
0.5234117114
 21
13.5694381798
 31
0.0
  0
LINE
  5
330
330
1F
100
AcDbEntity
  8
TRMODEL1
  6
Continuous
 62
     2
100
AcDbLine
 10
0.566710636
 20
13.4944422427
 30
0.0
 11
0.566710636
 21
13.3569422427
 31
0.0
  0
LINE
  5
331
330
1F
100
AcDbEntity
  8
TRMODEL1
  6
Continuous
 62
     2
100
AcDbLine
 10
0.6641332164
 20
14.7257013841
 30
0.0
 11
0.6633012397
 21
14.7164271579
 31
0.0
  0
LINE
  5
332
330
1F
100
AcDbEntity
  8
TRMODEL1
  6
Continuous
 62
     2
100
AcDbLine
 10
0.6633012397
 20
14.7164271579
 30
0.0
 11
0.660837282
 21
14.7084699149
 31
0.0
  0
LINE
  5
333
330
1F
100
AcDbEntity
  8
TRMODEL1
  6
Continuous
 62
     2
100
AcDbLine
 10
0.660837282
 20
14.7084699149
 30
0.0
 11
0.6568360318
 21
14.7021354474
 31
0.0
  0
LINE
  5
334
330
1F
100
AcDbEntity
  8
TRMODEL1
  6
Continuous
 62
     2
100
AcDbLine
 10
0.6568360318
 20
14.7021354474
 30
0.0
 11
0.651451255
 21
14.6976671855
 31
0.0
  0
LINE
  5
335
330
1F
100
AcDbEntity
  8
TRMODEL1
  6
Continuous
 62
     2
100
AcDbLine
 10
0.651451255
 20
14.6976671855
 30
0.0
 11
0.6448898854
 21
14.695236842
 31
0.0
  0
LINE
  5
336
330
1F
100
AcDbEntity
  8
TRMODEL1
  6
Continuous
 62
     2
100
AcDbLine
 10
0.6448898854
 20
14.695236842
 30
0.0
 11
0.6374040729
 21
14.6949378136
 31
0.0
  0
LINE
  5
337
330
1F
100
AcDbEntity
  8
TRMODEL1
  6
Continuous
 62
     2
100
AcDbLine
 10
0.6374040729
 20
14.6949378136
 30
0.0
 11
0.6292814929
 21
14.6967815918
 31
0.0
  0
LINE
  5
338
330
1F
100
AcDbEntity
  8
TRMODEL1
  6
Continuous
 62
     2
100
AcDbLine
 10
0.6292814929
 20
14.6967815918
 30
0.0
 11
0.6208342918
 21
14.7006973213
 31
0.0
  0
LINE
  5
339
330
1F
100
AcDbEntity
  8
TRMODEL1
  6
Continuous
 62
     2
100
AcDbLine
 10
0.5450611737
 20
14.7444402112
 30
0.0
 11
0.5281667714
 21
14.7522716701
 31
0.0
  0
LINE
  5
33A
330
1F
100
AcDbEntity
  8
TRMODEL1
  6
Continuous
 62
     2
100
AcDbLine
 10
0.5281667714
 20
14.7522716701
 30
0.0
 11
0.5119216115
 21
14.7559592265
 31
0.0
  0
LINE
  5
33B
330
1F
100
AcDbEntity
  8
TRMODEL1
  6
Continuous
 62
     2
100
AcDbLine
 10
0.5119216115
 20
14.7559592265
 30
0.0
 11
0.4969499864
 21
14.7553611697
 31
0.0
  0
LINE
  5
33C
330
1F
100
AcDbEntity
  8
TRMODEL1
  6
Continuous
 62
     2
100
AcDbLine
 10
0.4969499864
 20
14.7553611697
 30
0.0
 11
0.4838272473
 21
14.7505004826
 31
0.0
  0
LINE
  5
33D
330
1F
100
AcDbEntity
  8
TRMODEL1
  6
Continuous
 62
     2
100
AcDbLine
 10
0.4838272473
 20
14.7505004826
 30
0.0
 11
0.4730576936
 21
14.7415639588
 31
0.0
  0
LINE
  5
33E
330
1F
100
AcDbEntity
  8
TRMODEL1
  6
Continuous
 62
     2
100
AcDbLine
 10
0.4730576936
 20
14.7415639588
 30
0.0
 11
0.4650551932
 21
14.7288950239
 31
0.0
  0
LINE
  5
33F
330
1F
100
AcDbEntity
  8
TRMODEL1
  6
Continuous
 62
     2
100
AcDbLine
 10
0.4650551932
 20
14.7288950239
 30
0.0
 11
0.4601272779
 21
14.7129805378
 31
0.0
  0
LINE
  5
340
330
1F
100
AcDbEntity
  8
TRMODEL1
  6
Continuous
 62
     2
100
AcDbLine
 10
0.4601272779
 20
14.7129805378
 30
0.0
 11
0.4584633245
 21
14.6944320855
 31
0.0
  0
LINE
  5
341
330
1F
100
AcDbEntity
  8
TRMODEL1
  6
Continuous
 62
     2
100
AcDbLine
 10
0.4584633245
 20
14.6944320855
 30
0.0
 11
0.5450752494
 21
14.7444320855
 31
0.0
  0
LINE
  5
342
330
1F
100
AcDbEntity
  8
TRMODEL1
  6
Continuous
 62
     2
100
AcDbLine
 10
0.6208342918
 20
14.7006973213
 30
0.0
 11
0.5450611737
 21
14.7444402112
 31
0.0
  0
LINE
  5
343
330
1F
100
AcDbEntity
  8
TRMODEL1
  6
Continuous
 62
     2
100
AcDbLine
 10
0.6641332164
 20
14.8007013841
 30
0.0
 11
0.6641332164
 21
14.7257013841
 31
0.0
  0
LINE
  5
344
330
1F
100
AcDbEntity
  8
TRMODEL1
  6
Continuous
 62
     2
100
AcDbLine
 10
1.6130184726
 20
16.2839077527
 30
0.0
 11
1.581644804
 21
16.3116878753
 31
0.0
  0
LINE
  5
345
330
1F
100
AcDbEntity
  8
TRMODEL1
  6
Continuous
 62
     2
100
AcDbLine
 10
1.581644804
 20
16.3116878753
 30
0.0
 11
1.5602690165
 21
16.3527205691
 31
0.0
  0
LINE
  5
346
330
1F
100
AcDbEntity
  8
TRMODEL1
  6
Continuous
 62
     2
100
AcDbLine
 10
1.5602690165
 20
16.3527205691
 30
0.0
 11
1.5502807438
 21
16.4046164551
 31
0.0
  0
LINE
  5
347
330
1F
100
AcDbEntity
  8
TRMODEL1
  6
Continuous
 62
     2
100
AcDbLine
 10
1.5502807438
 20
16.4046164551
 30
0.0
 11
1.5522326077
 21
16.4645042871
 31
0.0
  0
LINE
  5
348
330
1F
100
AcDbEntity
  8
TRMODEL1
  6
Continuous
 62
     2
100
AcDbLine
 10
1.5522326077
 20
16.4645042871
 30
0.0
 11
1.5660166171
 21
16.5290706478
 31
0.0
  0
LINE
  5
349
330
1F
100
AcDbEntity
  8
TRMODEL1
  6
Continuous
 62
     2
100
AcDbLine
 10
1.5660166171
 20
16.5290706478
 30
0.0
 11
1.5908701436
 21
16.5947432711
 31
0.0
  0
LINE
  5
34A
330
1F
100
AcDbEntity
  8
TRMODEL1
  6
Continuous
 62
     2
100
AcDbLine
 10
1.5908701436
 20
16.5947432711
 30
0.0
 11
1.6254181149
 21
16.6578886843
 31
0.0
  0
LINE
  5
34B
330
1F
100
AcDbEntity
  8
TRMODEL1
  6
Continuous
 62
     2
100
AcDbLine
 10
1.6254181149
 20
16.6578886843
 30
0.0
 11
1.6677490935
 21
16.7150132381
 31
0.0
  0
LINE
  5
34C
330
1F
100
AcDbEntity
  8
TRMODEL1
  6
Continuous
 62
     2
100
AcDbLine
 10
1.6677490935
 20
16.7150132381
 30
0.0
 11
1.7155210313
 21
16.7629563993
 31
0.0
  0
LINE
  5
34D
330
1F
100
AcDbEntity
  8
TRMODEL1
  6
Continuous
 62
     2
100
AcDbLine
 10
1.7155210313
 20
16.7629563993
 30
0.0
 11
1.7660908479
 21
16.7990656143
 31
0.0
  0
LINE
  5
34E
330
1F
100
AcDbEntity
  8
TRMODEL1
  6
Continuous
 62
     2
100
AcDbLine
 10
1.7660908479
 20
16.7990656143
 30
0.0
 11
1.8166606644
 21
16.8213430668
 31
0.0
  0
LINE
  5
34F
330
1F
100
AcDbEntity
  8
TRMODEL1
  6
Continuous
 62
     2
100
AcDbLine
 10
1.8166606644
 20
16.8213430668
 30
0.0
 11
1.8644326022
 21
16.8285562109
 31
0.0
  0
LINE
  5
350
330
1F
100
AcDbEntity
  8
TRMODEL1
  6
Continuous
 62
     2
100
AcDbLine
 10
1.8644326022
 20
16.8285562109
 30
0.0
 11
1.9067635809
 21
16.8203059647
 31
0.0
  0
LINE
  5
351
330
1F
100
AcDbEntity
  8
TRMODEL1
  6
Continuous
 62
     2
100
AcDbLine
 10
1.9067635809
 20
16.8203059647
 30
0.0
 11
1.9191632231
 21
16.8142234759
 31
0.0
  0
LINE
  5
352
330
1F
100
AcDbEntity
  8
TRMODEL1
  6
Continuous
 62
     2
100
AcDbLine
 10
1.6262288532
 20
15.977909672
 30
0.0
 11
1.6451966984
 21
15.9669597681
 31
0.0
  0
LINE
  5
353
330
1F
100
AcDbEntity
  8
TRMODEL1
  6
Continuous
 62
     2
100
AcDbLine
 10
1.6262288532
 20
16.2033805053
 30
0.0
 11
1.8404813273
 21
16.0796951847
 31
0.0
  0
LINE
  5
354
330
1F
100
AcDbEntity
  8
TRMODEL1
  6
Continuous
 62
     2
100
AcDbLine
 10
1.6262288532
 20
16.2033805053
 30
0.0
 11
1.6500337085
 21
16.2625393119
 31
0.0
  0
LINE
  5
355
330
1F
100
AcDbEntity
  8
TRMODEL1
  6
Continuous
 62
     2
100
AcDbLine
 10
1.6262288532
 20
15.977909672
 30
0.0
 11
1.6262288532
 21
16.2033805053
 31
0.0
  0
LINE
  5
356
330
1F
100
AcDbEntity
  8
TRMODEL1
  6
Continuous
 62
     2
100
AcDbLine
 10
1.9036223361
 20
16.1161457132
 30
0.0
 11
1.6130184726
 21
16.2839077527
 31
0.0
  0
LINE
  5
357
330
1F
100
AcDbEntity
  8
TRMODEL1
  6
Continuous
 62
     2
100
AcDbLine
 10
3.2440048283
 20
13.1959174908
 30
0.0
 11
3.2620686933
 21
13.2272050228
 31
0.0
  0
LINE
  5
358
330
1F
100
AcDbEntity
  8
TRMODEL1
  6
Continuous
 62
     2
100
AcDbLine
 10
3.1310262734
 20
13.2502328935
 30
0.0
 11
3.1857438649
 21
13.3450065421
 31
0.0
  0
LINE
  5
359
330
1F
100
AcDbEntity
  8
TRMODEL1
  6
Continuous
 62
     2
100
AcDbLine
 10
2.9481514899
 20
12.933484477
 30
0.0
 11
3.0563988014
 21
13.1209743204
 31
0.0
  0
LINE
  5
35A
330
1F
100
AcDbEntity
  8
TRMODEL1
  6
Continuous
 62
     2
100
AcDbLine
 10
2.9481514899
 20
13.183484477
 30
0.0
 11
3.077487757
 21
13.4075014629
 31
0.0
  0
LINE
  5
35B
330
1F
100
AcDbEntity
  8
TRMODEL1
  6
Continuous
 62
     2
100
AcDbLine
 10
2.9083467293
 20
13.3645406093
 30
0.0
 11
2.9692316491
 21
13.4699963838
 31
0.0
  0
LINE
  5
35C
330
1F
100
AcDbEntity
  8
TRMODEL1
  6
Continuous
 62
     2
100
AcDbLine
 10
2.8068474872
 20
13.4387387651
 30
0.0
 11
2.8609755412
 21
13.5324913046
 31
0.0
  0
LINE
  5
35D
330
1F
100
AcDbEntity
  8
TRMODEL1
  6
Continuous
 62
     2
100
AcDbLine
 10
2.7424815979
 20
13.5772537746
 30
0.0
 11
2.7527194332
 21
13.5949862255
 31
0.0
  0
LINE
  5
35E
330
1F
100
AcDbEntity
  8
TRMODEL1
  6
Continuous
 62
     2
100
AcDbLine
 10
2.9251965917
 20
15.4535023915
 30
0.0
 11
2.949001447
 21
15.5126611981
 31
0.0
  0
LINE
  5
35F
330
1F
100
AcDbEntity
  8
TRMODEL1
  6
Continuous
 62
     2
100
AcDbLine
 10
3.2025900746
 20
15.3662675994
 30
0.0
 11
2.9119862111
 21
15.5340296389
 31
0.0
  0
LINE
  5
360
330
1F
100
AcDbEntity
  8
TRMODEL1
  6
Continuous
 62
     2
100
AcDbLine
 10
3.2620686933
 20
13.2259451565
 30
0.0
 11
3.2612367166
 21
13.2166709303
 31
0.0
  0
LINE
  5
361
330
1F
100
AcDbEntity
  8
TRMODEL1
  6
Continuous
 62
     2
100
AcDbLine
 10
3.2612367166
 20
13.2166709303
 30
0.0
 11
3.2587727589
 21
13.2087136873
 31
0.0
  0
LINE
  5
362
330
1F
100
AcDbEntity
  8
TRMODEL1
  6
Continuous
 62
     2
100
AcDbLine
 10
3.2587727589
 20
13.2087136873
 30
0.0
 11
3.2547715088
 21
13.2023792198
 31
0.0
  0
LINE
  5
363
330
1F
100
AcDbEntity
  8
TRMODEL1
  6
Continuous
 62
     2
100
AcDbLine
 10
3.2547715088
 20
13.2023792198
 30
0.0
 11
3.2493867319
 21
13.1979109579
 31
0.0
  0
LINE
  5
364
330
1F
100
AcDbEntity
  8
TRMODEL1
  6
Continuous
 62
     2
100
AcDbLine
 10
3.2493867319
 20
13.1979109579
 30
0.0
 11
3.2428253623
 21
13.1954806144
 31
0.0
  0
LINE
  5
365
330
1F
100
AcDbEntity
  8
TRMODEL1
  6
Continuous
 62
     2
100
AcDbLine
 10
3.2428253623
 20
13.1954806144
 30
0.0
 11
3.2353395498
 21
13.195181586
 31
0.0
  0
LINE
  5
366
330
1F
100
AcDbEntity
  8
TRMODEL1
  6
Continuous
 62
     2
100
AcDbLine
 10
3.2353395498
 20
13.195181586
 30
0.0
 11
3.2272169699
 21
13.1970253642
 31
0.0
  0
LINE
  5
367
330
1F
100
AcDbEntity
  8
TRMODEL1
  6
Continuous
 62
     2
100
AcDbLine
 10
3.2272169699
 20
13.1970253642
 30
0.0
 11
3.2187697687
 21
13.2009410936
 31
0.0
  0
LINE
  5
368
330
1F
100
AcDbEntity
  8
TRMODEL1
  6
Continuous
 62
     2
100
AcDbLine
 10
3.1429966506
 20
13.2446839836
 30
0.0
 11
3.1261022483
 21
13.2525154425
 31
0.0
  0
LINE
  5
369
330
1F
100
AcDbEntity
  8
TRMODEL1
  6
Continuous
 62
     2
100
AcDbLine
 10
3.1261022483
 20
13.2525154425
 30
0.0
 11
3.1098570885
 21
13.2562029989
 31
0.0
  0
LINE
  5
36A
330
1F
100
AcDbEntity
  8
TRMODEL1
  6
Continuous
 62
     2
100
AcDbLine
 10
3.1098570885
 20
13.2562029989
 30
0.0
 11
3.0948854634
 21
13.2556049421
 31
0.0
  0
LINE
  5
36B
330
1F
100
AcDbEntity
  8
TRMODEL1
  6
Continuous
 62
     2
100
AcDbLine
 10
3.0948854634
 20
13.2556049421
 30
0.0
 11
3.0817627242
 21
13.250744255
 31
0.0
  0
LINE
  5
36C
330
1F
100
AcDbEntity
  8
TRMODEL1
  6
Continuous
 62
     2
100
AcDbLine
 10
3.0817627242
 20
13.250744255
 30
0.0
 11
3.0709931705
 21
13.2418077312
 31
0.0
  0
LINE
  5
36D
330
1F
100
AcDbEntity
  8
TRMODEL1
  6
Continuous
 62
     2
100
AcDbLine
 10
3.0709931705
 20
13.2418077312
 30
0.0
 11
3.0629906702
 21
13.2291387963
 31
0.0
  0
LINE
  5
36E
330
1F
100
AcDbEntity
  8
TRMODEL1
  6
Continuous
 62
     2
100
AcDbLine
 10
3.0629906702
 20
13.2291387963
 30
0.0
 11
3.0580627548
 21
13.2132243102
 31
0.0
  0
LINE
  5
36F
330
1F
100
AcDbEntity
  8
TRMODEL1
  6
Continuous
 62
     2
100
AcDbLine
 10
3.0580627548
 20
13.2132243102
 30
0.0
 11
3.0563988014
 21
13.1946758579
 31
0.0
  0
LINE
  5
370
330
1F
100
AcDbEntity
  8
TRMODEL1
  6
Continuous
 62
     2
100
AcDbLine
 10
2.9481514899
 20
13.2571657007
 30
0.0
 11
2.9464875365
 21
13.2776353127
 31
0.0
  0
LINE
  5
371
330
1F
100
AcDbEntity
  8
TRMODEL1
  6
Continuous
 62
     2
100
AcDbLine
 10
2.9464875365
 20
13.2776353127
 30
0.0
 11
2.9415596211
 21
13.2992394487
 31
0.0
  0
LINE
  5
372
330
1F
100
AcDbEntity
  8
TRMODEL1
  6
Continuous
 62
     2
100
AcDbLine
 10
2.9415596211
 20
13.2992394487
 30
0.0
 11
2.9335571208
 21
13.3211478739
 31
0.0
  0
LINE
  5
373
330
1F
100
AcDbEntity
  8
TRMODEL1
  6
Continuous
 62
     2
100
AcDbLine
 10
2.9335571208
 20
13.3211478739
 30
0.0
 11
2.9227875671
 21
13.3425186598
 31
0.0
  0
LINE
  5
374
330
1F
100
AcDbEntity
  8
TRMODEL1
  6
Continuous
 62
     2
100
AcDbLine
 10
2.9227875671
 20
13.3425186598
 30
0.0
 11
2.9096648279
 21
13.3625305389
 31
0.0
  0
LINE
  5
375
330
1F
100
AcDbEntity
  8
TRMODEL1
  6
Continuous
 62
     2
100
AcDbLine
 10
2.9096648279
 20
13.3625305389
 30
0.0
 11
2.8946932028
 21
13.3804144661
 31
0.0
  0
LINE
  5
376
330
1F
100
AcDbEntity
  8
TRMODEL1
  6
Continuous
 62
     2
100
AcDbLine
 10
2.8946932028
 20
13.3804144661
 30
0.0
 11
2.8784480429
 21
13.3954831721
 31
0.0
  0
LINE
  5
377
330
1F
100
AcDbEntity
  8
TRMODEL1
  6
Continuous
 62
     2
100
AcDbLine
 10
2.8784480429
 20
13.3954831721
 30
0.0
 11
2.8615536406
 21
13.4071575749
 31
0.0
  0
LINE
  5
378
330
1F
100
AcDbEntity
  8
TRMODEL1
  6
Continuous
 62
     2
100
AcDbLine
 10
2.7857805226
 20
13.4509004649
 30
0.0
 11
2.7773333214
 21
13.4567376663
 31
0.0
  0
LINE
  5
379
330
1F
100
AcDbEntity
  8
TRMODEL1
  6
Continuous
 62
     2
100
AcDbLine
 10
2.7773333214
 20
13.4567376663
 30
0.0
 11
2.7692107415
 21
13.4642720193
 31
0.0
  0
LINE
  5
37A
330
1F
100
AcDbEntity
  8
TRMODEL1
  6
Continuous
 62
     2
100
AcDbLine
 10
2.7692107415
 20
13.4642720193
 30
0.0
 11
2.7617249289
 21
13.4732139829
 31
0.0
  0
LINE
  5
37B
330
1F
100
AcDbEntity
  8
TRMODEL1
  6
Continuous
 62
     2
100
AcDbLine
 10
2.7617249289
 20
13.4732139829
 30
0.0
 11
2.7551635593
 21
13.4832199225
 31
0.0
  0
LINE
  5
37C
330
1F
100
AcDbEntity
  8
TRMODEL1
  6
Continuous
 62
     2
100
AcDbLine
 10
2.7551635593
 20
13.4832199225
 30
0.0
 11
2.7497787825
 21
13.4939053154
 31
0.0
  0
LINE
  5
37D
330
1F
100
AcDbEntity
  8
TRMODEL1
  6
Continuous
 62
     2
100
AcDbLine
 10
2.7497787825
 20
13.4939053154
 30
0.0
 11
2.7457775323
 21
13.504859528
 31
0.0
  0
LINE
  5
37E
330
1F
100
AcDbEntity
  8
TRMODEL1
  6
Continuous
 62
     2
100
AcDbLine
 10
2.7457775323
 20
13.504859528
 30
0.0
 11
2.7433135746
 21
13.515661596
 31
0.0
  0
LINE
  5
37F
330
1F
100
AcDbEntity
  8
TRMODEL1
  6
Continuous
 62
     2
100
AcDbLine
 10
2.7433135746
 20
13.515661596
 30
0.0
 11
2.7424815979
 21
13.525896402
 31
0.0
  0
LINE
  5
380
330
1F
100
AcDbEntity
  8
TRMODEL1
  6
Continuous
 62
     2
100
AcDbLine
 10
3.0563988014
 20
13.1946758579
 30
0.0
 11
3.1430107264
 21
13.2446758579
 31
0.0
  0
LINE
  5
381
330
1F
100
AcDbEntity
  8
TRMODEL1
  6
Continuous
 62
     2
100
AcDbLine
 10
2.8615536406
 20
13.4071575749
 30
0.0
 11
2.7857805226
 21
13.4509004649
 31
0.0
  0
LINE
  5
382
330
1F
100
AcDbEntity
  8
TRMODEL1
  6
Continuous
 62
     2
100
AcDbLine
 10
3.2187697687
 20
13.2009410936
 30
0.0
 11
3.1429966506
 21
13.2446839836
 31
0.0
  0
LINE
  5
383
330
1F
100
AcDbEntity
  8
TRMODEL1
  6
Continuous
 62
     2
100
AcDbLine
 10
2.7424815979
 20
13.525896402
 30
0.0
 11
2.7424815979
 21
13.600896402
 31
0.0
  0
LINE
  5
384
330
1F
100
AcDbEntity
  8
TRMODEL1
  6
Continuous
 62
     2
100
AcDbLine
 10
3.2620686933
 20
13.3009451565
 30
0.0
 11
3.2620686933
 21
13.2259451565
 31
0.0
  0
LINE
  5
385
330
1F
100
AcDbEntity
  8
TRMODEL1
  6
Continuous
 62
     2
100
AcDbLine
 10
2.7424815979
 20
13.600896402
 30
0.0
 11
3.2620686933
 21
13.3009451565
 31
0.0
  0
LINE
  5
386
330
1F
100
AcDbEntity
  8
TRMODEL1
  6
Continuous
 62
     2
100
AcDbLine
 10
2.9251965917
 20
15.2280315582
 30
0.0
 11
2.9441644369
 21
15.2170816543
 31
0.0
  0
LINE
  5
387
330
1F
100
AcDbEntity
  8
TRMODEL1
  6
Continuous
 62
     2
100
AcDbLine
 10
2.9251965917
 20
15.4535023915
 30
0.0
 11
3.1394490658
 21
15.3298170709
 31
0.0
  0
LINE
  5
388
330
1F
100
AcDbEntity
  8
TRMODEL1
  6
Continuous
 62
     2
100
AcDbLine
 10
2.9251965917
 20
15.2280315582
 30
0.0
 11
2.9251965917
 21
15.4535023915
 31
0.0
  0
LINE
  5
389
330
1F
100
AcDbEntity
  8
TRMODEL1
  6
Continuous
 62
     2
100
AcDbLine
 10
3.2181309616
 20
16.0643453621
 30
0.0
 11
3.8149791061
 21
15.7197922623
 31
0.0
  0
LINE
  5
38A
330
1F
100
AcDbEntity
  8
TRMODEL1
  6
Continuous
 62
     2
100
AcDbLine
 10
2.9119862111
 20
15.5340296389
 30
0.0
 11
2.8806125424
 21
15.5618097615
 31
0.0
  0
LINE
  5
38B
330
1F
100
AcDbEntity
  8
TRMODEL1
  6
Continuous
 62
     2
100
AcDbLine
 10
2.8806125424
 20
15.5618097615
 30
0.0
 11
2.8592367549
 21
15.6028424553
 31
0.0
  0
LINE
  5
38C
330
1F
100
AcDbEntity
  8
TRMODEL1
  6
Continuous
 62
     2
100
AcDbLine
 10
2.8592367549
 20
15.6028424553
 30
0.0
 11
2.8492484823
 21
15.6547383413
 31
0.0
  0
LINE
  5
38D
330
1F
100
AcDbEntity
  8
TRMODEL1
  6
Continuous
 62
     2
100
AcDbLine
 10
2.8492484823
 20
15.6547383413
 30
0.0
 11
2.8512003461
 21
15.7146261733
 31
0.0
  0
LINE
  5
38E
330
1F
100
AcDbEntity
  8
TRMODEL1
  6
Continuous
 62
     2
100
AcDbLine
 10
2.8512003461
 20
15.7146261733
 30
0.0
 11
2.8649843556
 21
15.779192534
 31
0.0
  0
LINE
  5
38F
330
1F
100
AcDbEntity
  8
TRMODEL1
  6
Continuous
 62
     2
100
AcDbLine
 10
2.8649843556
 20
15.779192534
 30
0.0
 11
2.8898378821
 21
15.8448651572
 31
0.0
  0
LINE
  5
390
330
1F
100
AcDbEntity
  8
TRMODEL1
  6
Continuous
 62
     2
100
AcDbLine
 10
2.8898378821
 20
15.8448651572
 30
0.0
 11
2.9243858533
 21
15.9080105705
 31
0.0
  0
LINE
  5
391
330
1F
100
AcDbEntity
  8
TRMODEL1
  6
Continuous
 62
     2
100
AcDbLine
 10
2.9243858533
 20
15.9080105705
 30
0.0
 11
2.9667168319
 21
15.9651351243
 31
0.0
  0
LINE
  5
392
330
1F
100
AcDbEntity
  8
TRMODEL1
  6
Continuous
 62
     2
100
AcDbLine
 10
2.9667168319
 20
15.9651351243
 30
0.0
 11
3.0144887697
 21
16.0130782855
 31
0.0
  0
LINE
  5
393
330
1F
100
AcDbEntity
  8
TRMODEL1
  6
Continuous
 62
     2
100
AcDbLine
 10
3.0144887697
 20
16.0130782855
 30
0.0
 11
3.0650585863
 21
16.0491875005
 31
0.0
  0
LINE
  5
394
330
1F
100
AcDbEntity
  8
TRMODEL1
  6
Continuous
 62
     2
100
AcDbLine
 10
3.0650585863
 20
16.0491875005
 30
0.0
 11
3.1156284029
 21
16.071464953
 31
0.0
  0
LINE
  5
395
330
1F
100
AcDbEntity
  8
TRMODEL1
  6
Continuous
 62
     2
100
AcDbLine
 10
3.1156284029
 20
16.071464953
 30
0.0
 11
3.1634003407
 21
16.0786780971
 31
0.0
  0
LINE
  5
396
330
1F
100
AcDbEntity
  8
TRMODEL1
  6
Continuous
 62
     2
100
AcDbLine
 10
3.1634003407
 20
16.0786780971
 30
0.0
 11
3.2057313193
 21
16.0704278509
 31
0.0
  0
LINE
  5
397
330
1F
100
AcDbEntity
  8
TRMODEL1
  6
Continuous
 62
     2
100
AcDbLine
 10
3.2057313193
 20
16.0704278509
 30
0.0
 11
3.2181309616
 21
16.0643453621
 31
0.0
  0
LINE
  5
398
330
1F
100
AcDbEntity
  8
TRMODEL1
  6
Continuous
 62
     4
100
AcDbLine
 10
4.2609740122
 20
14.183341939
 30
0.0
 11
6.1659743584
 21
13.0837721396
 31
0.0
  0
LINE
  5
399
330
1F
100
AcDbEntity
  8
TRMODEL1
  6
Continuous
 62
     4
100
AcDbLine
 10
4.3085406991
 20
14.0782083049
 30
0.0
 11
6.1659743584
 21
13.006094087
 31
0.0
  0
LINE
  5
39A
330
1F
100
AcDbEntity
  8
TRMODEL1
  6
Continuous
 62
     4
100
AcDbLine
 10
6.1659743584
 20
16.3363496006
 30
0.0
 11
4.581448192
 21
17.2509410979
 31
0.0
  0
LINE
  5
39B
330
1F
100
AcDbEntity
  8
TRMODEL1
  6
Continuous
 62
     4
100
AcDbLine
 10
4.196025624
 20
16.9583480888
 30
0.0
 11
6.1659743584
 21
15.821289957
 31
0.0
  0
LINE
  5
39C
330
1F
100
AcDbEntity
  8
TRMODEL1
  6
Continuous
 62
     4
100
AcDbLine
 10
4.4666439083
 20
17.2395727015
 30
0.0
 11
6.1659743584
 21
16.2587159547
 31
0.0
  0
LINE
  5
39D
330
1F
100
AcDbEntity
  8
TRMODEL1
  6
Continuous
 62
     4
100
AcDbLine
 10
4.196025624
 20
17.0833480913
 30
0.0
 11
6.1659743584
 21
15.9462899595
 31
0.0
  0
LINE
  5
39E
330
1F
100
AcDbEntity
  8
TRMODEL1
  6
Continuous
 62
     4
100
AcDbLine
 10
4.4666439083
 20
16.364572684
 30
0.0
 11
6.1659743584
 21
15.3837159372
 31
0.0
  0
LINE
  5
39F
330
1F
100
AcDbEntity
  8
TRMODEL1
  6
Continuous
 62
     4
100
AcDbLine
 10
4.4233449828
 20
16.3395767464
 30
0.0
 11
6.1659743584
 21
15.333727778
 31
0.0
  0
LINE
  5
3A0
330
1F
100
AcDbEntity
  8
TRMODEL1
  6
Continuous
 62
     4
100
AcDbLine
 10
4.2609740122
 20
16.0583419765
 30
0.0
 11
6.1659743584
 21
14.9587721771
 31
0.0
  0
LINE
  5
3A1
330
1F
100
AcDbEntity
  8
TRMODEL1
  6
Continuous
 62
     4
100
AcDbLine
 10
4.5207675651
 20
16.4583176073
 30
0.0
 11
6.1659743584
 21
15.5087011375
 31
0.0
  0
LINE
  5
3A2
330
1F
100
AcDbEntity
  8
TRMODEL1
  6
Continuous
 62
     2
100
AcDbLine
 10
5.5244412246
 20
16.7066437377
 30
0.0
 11
6.1659743584
 21
17.0769929327
 31
0.0
  0
LINE
  5
3A3
330
1F
100
AcDbEntity
  8
TRMODEL1
  6
Continuous
 62
     2
100
AcDbLine
 10
6.1659743584
 20
17.8811336109
 30
0.0
 11
4.8279077287
 21
17.1086841877
 31
0.0
  0
LINE
  5
3A4
330
1F
100
AcDbEntity
  8
TRMODEL1
  6
Continuous
 62
     2
100
AcDbLine
 10
4.8099664165
 20
17.1190399469
 30
0.0
 11
6.1659743584
 21
17.9018466692
 31
0.0
  0
LINE
  5
3A5
330
1F
100
AcDbEntity
  8
TRMODEL1
  6
Continuous
 62
     2
100
AcDbLine
 10
4.7450026439
 20
17.1565371593
 30
0.0
 11
6.1659743584
 21
17.9768466692
 31
0.0
  0
LINE
  5
3A6
330
1F
100
AcDbEntity
  8
TRMODEL1
  6
Continuous
 62
     2
100
AcDbLine
 10
4.0414493364
 20
12.827131895
 30
0.0
 11
4.0517927282
 21
12.8450471752
 31
0.0
  0
LINE
  5
3A7
330
1F
100
AcDbEntity
  8
TRMODEL1
  6
Continuous
 62
     4
100
AcDbLine
 10
4.5207675651
 20
13.955692343
 30
0.0
 11
4.5207675651
 21
13.4583175473
 31
0.0
  0
LINE
  5
3A8
330
1F
100
AcDbEntity
  8
TRMODEL1
  6
Continuous
 62
     4
100
AcDbLine
 10
4.4666439083
 20
13.364572624
 30
0.0
 11
4.196025624
 21
13.2083480138
 31
0.0
  0
LINE
  5
3A9
330
1F
100
AcDbEntity
  8
TRMODEL1
  6
Continuous
 62
     4
100
AcDbLine
 10
4.196025624
 20
13.0833480113
 30
0.0
 11
4.196025624
 21
13.2083480138
 31
0.0
  0
LINE
  5
3AA
330
1F
100
AcDbEntity
  8
TRMODEL1
  6
Continuous
 62
     4
100
AcDbLine
 10
4.5207675651
 20
13.4583175473
 30
0.0
 11
4.5197275942
 21
13.4455240395
 31
0.0
  0
LINE
  5
3AB
330
1F
100
AcDbEntity
  8
TRMODEL1
  6
Continuous
 62
     4
100
AcDbLine
 10
4.5197275942
 20
13.4455240395
 30
0.0
 11
4.5166476471
 21
13.4320214542
 31
0.0
  0
LINE
  5
3AC
330
1F
100
AcDbEntity
  8
TRMODEL1
  6
Continuous
 62
     4
100
AcDbLine
 10
4.5166476471
 20
13.4320214542
 30
0.0
 11
4.5116460843
 21
13.4183286882
 31
0.0
  0
LINE
  5
3AD
330
1F
100
AcDbEntity
  8
TRMODEL1
  6
Continuous
 62
     4
100
AcDbLine
 10
4.5116460843
 20
13.4183286882
 30
0.0
 11
4.5049151131
 21
13.4049719468
 31
0.0
  0
LINE
  5
3AE
330
1F
100
AcDbEntity
  8
TRMODEL1
  6
Continuous
 62
     4
100
AcDbLine
 10
4.5049151131
 20
13.4049719468
 30
0.0
 11
4.4967134009
 21
13.392464522
 31
0.0
  0
LINE
  5
3AF
330
1F
100
AcDbEntity
  8
TRMODEL1
  6
Continuous
 62
     4
100
AcDbLine
 10
4.4967134009
 20
13.392464522
 30
0.0
 11
4.4873561351
 21
13.3812870673
 31
0.0
  0
LINE
  5
3B0
330
1F
100
AcDbEntity
  8
TRMODEL1
  6
Continuous
 62
     4
100
AcDbLine
 10
4.4873561351
 20
13.3812870673
 30
0.0
 11
4.4772029099
 21
13.3718691259
 31
0.0
  0
LINE
  5
3B1
330
1F
100
AcDbEntity
  8
TRMODEL1
  6
Continuous
 62
     4
100
AcDbLine
 10
4.4772029099
 20
13.3718691259
 30
0.0
 11
4.4666439083
 21
13.364572624
 31
0.0
  0
LINE
  5
3B2
330
1F
100
AcDbEntity
  8
TRMODEL1
  6
Continuous
 62
     4
100
AcDbLine
 10
4.5207675651
 20
16.7708785566
 30
0.0
 11
4.5207675651
 21
16.4583176073
 31
0.0
  0
LINE
  5
3B3
330
1F
100
AcDbEntity
  8
TRMODEL1
  6
Continuous
 62
     4
100
AcDbLine
 10
4.2609740122
 20
16.0583419765
 30
0.0
 11
4.2609740122
 21
14.183341939
 31
0.0
  0
LINE
  5
3B4
330
1F
100
AcDbEntity
  8
TRMODEL1
  6
Continuous
 62
     4
100
AcDbLine
 10
4.4666439083
 20
16.364572684
 30
0.0
 11
4.4233449828
 21
16.3395767464
 31
0.0
  0
LINE
  5
3B5
330
1F
100
AcDbEntity
  8
TRMODEL1
  6
Continuous
 62
     4
100
AcDbLine
 10
4.2609740122
 20
14.183341939
 30
0.0
 11
4.2640939249
 21
14.1485635902
 31
0.0
  0
LINE
  5
3B6
330
1F
100
AcDbEntity
  8
TRMODEL1
  6
Continuous
 62
     4
100
AcDbLine
 10
4.2640939249
 20
14.1485635902
 30
0.0
 11
4.2733337664
 21
14.1187239282
 31
0.0
  0
LINE
  5
3B7
330
1F
100
AcDbEntity
  8
TRMODEL1
  6
Continuous
 62
     4
100
AcDbLine
 10
4.2733337664
 20
14.1187239282
 30
0.0
 11
4.2883384549
 21
14.0949696747
 31
0.0
  0
LINE
  5
3B8
330
1F
100
AcDbEntity
  8
TRMODEL1
  6
Continuous
 62
     4
100
AcDbLine
 10
4.2883384549
 20
14.0949696747
 30
0.0
 11
4.3085313685
 21
14.0782136922
 31
0.0
  0
LINE
  5
3B9
330
1F
100
AcDbEntity
  8
TRMODEL1
  6
Continuous
 62
     4
100
AcDbLine
 10
4.3085313685
 20
14.0782136922
 30
0.0
 11
4.3085406991
 21
14.0782083049
 31
0.0
  0
LINE
  5
3BA
330
1F
100
AcDbEntity
  8
TRMODEL1
  6
Continuous
 62
     4
100
AcDbLine
 10
4.4233449828
 20
16.3395767464
 30
0.0
 11
4.3916679779
 21
16.3176872407
 31
0.0
  0
LINE
  5
3BB
330
1F
100
AcDbEntity
  8
TRMODEL1
  6
Continuous
 62
     4
100
AcDbLine
 10
4.3916679779
 20
16.3176872407
 30
0.0
 11
4.3612083025
 21
16.2894334164
 31
0.0
  0
LINE
  5
3BC
330
1F
100
AcDbEntity
  8
TRMODEL1
  6
Continuous
 62
     4
100
AcDbLine
 10
4.3612083025
 20
16.2894334164
 30
0.0
 11
4.3331365049
 21
16.2559010522
 31
0.0
  0
LINE
  5
3BD
330
1F
100
AcDbEntity
  8
TRMODEL1
  6
Continuous
 62
     4
100
AcDbLine
 10
4.3331365049
 20
16.2559010522
 30
0.0
 11
4.3085313685
 21
16.218378778
 31
0.0
  0
LINE
  5
3BE
330
1F
100
AcDbEntity
  8
TRMODEL1
  6
Continuous
 62
     4
100
AcDbLine
 10
4.3085313685
 20
16.218378778
 30
0.0
 11
4.2883384549
 21
16.1783085538
 31
0.0
  0
LINE
  5
3BF
330
1F
100
AcDbEntity
  8
TRMODEL1
  6
Continuous
 62
     4
100
AcDbLine
 10
4.2883384549
 20
16.1783085538
 30
0.0
 11
4.2733337664
 21
16.1372302557
 31
0.0
  0
LINE
  5
3C0
330
1F
100
AcDbEntity
  8
TRMODEL1
  6
Continuous
 62
     4
100
AcDbLine
 10
4.2733337664
 20
16.1372302557
 30
0.0
 11
4.2640939249
 21
16.0967224999
 31
0.0
  0
LINE
  5
3C1
330
1F
100
AcDbEntity
  8
TRMODEL1
  6
Continuous
 62
     4
100
AcDbLine
 10
4.2640939249
 20
16.0967224999
 30
0.0
 11
4.2609740122
 21
16.0583419765
 31
0.0
  0
LINE
  5
3C2
330
1F
100
AcDbEntity
  8
TRMODEL1
  6
Continuous
 62
     4
100
AcDbLine
 10
4.5207675651
 20
16.4583176073
 30
0.0
 11
4.5197275942
 21
16.4455240995
 31
0.0
  0
LINE
  5
3C3
330
1F
100
AcDbEntity
  8
TRMODEL1
  6
Continuous
 62
     4
100
AcDbLine
 10
4.5197275942
 20
16.4455240995
 30
0.0
 11
4.5166476471
 21
16.4320215142
 31
0.0
  0
LINE
  5
3C4
330
1F
100
AcDbEntity
  8
TRMODEL1
  6
Continuous
 62
     4
100
AcDbLine
 10
4.5166476471
 20
16.4320215142
 30
0.0
 11
4.5116460843
 21
16.4183287482
 31
0.0
  0
LINE
  5
3C5
330
1F
100
AcDbEntity
  8
TRMODEL1
  6
Continuous
 62
     4
100
AcDbLine
 10
4.5116460843
 20
16.4183287482
 30
0.0
 11
4.5049151131
 21
16.4049720068
 31
0.0
  0
LINE
  5
3C6
330
1F
100
AcDbEntity
  8
TRMODEL1
  6
Continuous
 62
     4
100
AcDbLine
 10
4.5049151131
 20
16.4049720068
 30
0.0
 11
4.4967134009
 21
16.392464582
 31
0.0
  0
LINE
  5
3C7
330
1F
100
AcDbEntity
  8
TRMODEL1
  6
Continuous
 62
     4
100
AcDbLine
 10
4.4967134009
 20
16.392464582
 30
0.0
 11
4.4873561351
 21
16.3812871273
 31
0.0
  0
LINE
  5
3C8
330
1F
100
AcDbEntity
  8
TRMODEL1
  6
Continuous
 62
     4
100
AcDbLine
 10
4.4873561351
 20
16.3812871273
 30
0.0
 11
4.4772029099
 21
16.3718691859
 31
0.0
  0
LINE
  5
3C9
330
1F
100
AcDbEntity
  8
TRMODEL1
  6
Continuous
 62
     4
100
AcDbLine
 10
4.4772029099
 20
16.3718691859
 30
0.0
 11
4.4666439083
 21
16.364572684
 31
0.0
  0
LINE
  5
3CA
330
1F
100
AcDbEntity
  8
TRMODEL1
  6
Continuous
 62
     4
100
AcDbLine
 10
4.196025624
 20
17.0833480913
 30
0.0
 11
4.4666439083
 21
17.2395727015
 31
0.0
  0
LINE
  5
3CB
330
1F
100
AcDbEntity
  8
TRMODEL1
  6
Continuous
 62
     4
100
AcDbLine
 10
4.196025624
 20
16.9583480888
 30
0.0
 11
4.196025624
 21
17.0833480913
 31
0.0
  0
LINE
  5
3CC
330
1F
100
AcDbEntity
  8
TRMODEL1
  6
Continuous
 62
     4
100
AcDbLine
 10
4.4666439083
 20
17.2395727015
 30
0.0
 11
4.4983209132
 21
17.2542566872
 31
0.0
  0
LINE
  5
3CD
330
1F
100
AcDbEntity
  8
TRMODEL1
  6
Continuous
 62
     4
100
AcDbLine
 10
4.4983209132
 20
17.2542566872
 30
0.0
 11
4.5287805886
 21
17.2611708556
 31
0.0
  0
LINE
  5
3CE
330
1F
100
AcDbEntity
  8
TRMODEL1
  6
Continuous
 62
     4
100
AcDbLine
 10
4.5287805886
 20
17.2611708556
 30
0.0
 11
4.5568523862
 21
17.260049499
 31
0.0
  0
LINE
  5
3CF
330
1F
100
AcDbEntity
  8
TRMODEL1
  6
Continuous
 62
     4
100
AcDbLine
 10
4.5568523862
 20
17.260049499
 30
0.0
 11
4.5814575226
 21
17.2509357106
 31
0.0
  0
LINE
  5
3D0
330
1F
100
AcDbEntity
  8
TRMODEL1
  6
Continuous
 62
     4
100
AcDbLine
 10
4.5814575226
 20
17.2509357106
 30
0.0
 11
4.581448192
 21
17.2509410979
 31
0.0
  0
LINE
  5
3D1
330
1F
100
AcDbEntity
  8
TRMODEL1
  6
Continuous
 62
     2
100
AcDbLine
 10
4.0414493364
 20
12.8510182882
 30
0.0
 11
4.3199719389
 21
13.0118059642
 31
0.0
  0
LINE
  5
3D2
330
1F
100
AcDbEntity
  8
TRMODEL1
  6
Continuous
 62
     2
100
AcDbLine
 10
4.2241643302
 20
14.7036242777
 30
0.0
 11
4.2609740122
 21
14.6823745005
 31
0.0
  0
LINE
  5
3D3
330
1F
100
AcDbEntity
  8
TRMODEL1
  6
Continuous
 62
     2
100
AcDbLine
 10
4.2609740122
 20
14.7552755575
 30
0.0
 11
4.2109539495
 21
14.7841515251
 31
0.0
  0
LINE
  5
3D4
330
1F
100
AcDbEntity
  8
TRMODEL1
  6
Continuous
 62
     2
100
AcDbLine
 10
4.2109539495
 20
14.7841515251
 30
0.0
 11
4.1795802809
 21
14.8119316477
 31
0.0
  0
LINE
  5
3D5
330
1F
100
AcDbEntity
  8
TRMODEL1
  6
Continuous
 62
     2
100
AcDbLine
 10
4.1795802809
 20
14.8119316477
 30
0.0
 11
4.1582044934
 21
14.8529643415
 31
0.0
  0
LINE
  5
3D6
330
1F
100
AcDbEntity
  8
TRMODEL1
  6
Continuous
 62
     2
100
AcDbLine
 10
4.1582044934
 20
14.8529643415
 30
0.0
 11
4.1482162208
 21
14.9048602275
 31
0.0
  0
LINE
  5
3D7
330
1F
100
AcDbEntity
  8
TRMODEL1
  6
Continuous
 62
     2
100
AcDbLine
 10
4.1482162208
 20
14.9048602275
 30
0.0
 11
4.1501680846
 21
14.9647480594
 31
0.0
  0
LINE
  5
3D8
330
1F
100
AcDbEntity
  8
TRMODEL1
  6
Continuous
 62
     2
100
AcDbLine
 10
4.1501680846
 20
14.9647480594
 30
0.0
 11
4.1639520941
 21
15.0293144202
 31
0.0
  0
LINE
  5
3D9
330
1F
100
AcDbEntity
  8
TRMODEL1
  6
Continuous
 62
     2
100
AcDbLine
 10
4.1639520941
 20
15.0293144202
 30
0.0
 11
4.1888056206
 21
15.0949870434
 31
0.0
  0
LINE
  5
3DA
330
1F
100
AcDbEntity
  8
TRMODEL1
  6
Continuous
 62
     2
100
AcDbLine
 10
4.1888056206
 20
15.0949870434
 30
0.0
 11
4.2233535918
 21
15.1581324567
 31
0.0
  0
LINE
  5
3DB
330
1F
100
AcDbEntity
  8
TRMODEL1
  6
Continuous
 62
     2
100
AcDbLine
 10
4.2233535918
 20
15.1581324567
 30
0.0
 11
4.2609740122
 21
15.2089002348
 31
0.0
  0
LINE
  5
3DC
330
1F
100
AcDbEntity
  8
TRMODEL1
  6
Continuous
 62
     2
100
AcDbLine
 10
4.2241643302
 20
14.4781534444
 30
0.0
 11
4.2431321753
 21
14.4672035405
 31
0.0
  0
LINE
  5
3DD
330
1F
100
AcDbEntity
  8
TRMODEL1
  6
Continuous
 62
     2
100
AcDbLine
 10
4.2241643302
 20
14.7036242777
 30
0.0
 11
4.2479691854
 21
14.7627830843
 31
0.0
  0
LINE
  5
3DE
330
1F
100
AcDbEntity
  8
TRMODEL1
  6
Continuous
 62
     2
100
AcDbLine
 10
4.2241643302
 20
14.4781534444
 30
0.0
 11
4.2241643302
 21
14.7036242777
 31
0.0
  0
LINE
  5
3DF
330
1F
100
AcDbEntity
  8
TRMODEL1
  6
Continuous
 62
     2
100
AcDbLine
 10
6.1090307178
 20
16.3692175776
 30
0.0
 11
6.1659743584
 21
16.4020904416
 31
0.0
  0
LINE
  5
3E0
330
1F
100
AcDbEntity
  8
TRMODEL1
  6
Continuous
 62
     2
100
AcDbLine
 10
6.1659743584
 20
16.3813773833
 30
0.0
 11
6.1269720299
 21
16.3588618183
 31
0.0
  0
LINE
  5
3E1
330
1F
100
AcDbEntity
  8
TRMODEL1
  6
Continuous
 62
     2
100
AcDbLine
 10
6.0440669451
 20
16.4067147899
 30
0.0
 11
6.1659743584
 21
16.4770904416
 31
0.0
  0
LINE
  5
3E2
330
1F
100
AcDbEntity
  8
TRMODEL1
  6
Continuous
 62
     2
100
AcDbLine
 10
9.8465823981
 20
18.2368467082
 30
0.0
 11
10.3098177984
 21
17.9694266038
 31
0.0
  0
LINE
  5
3E3
330
1F
100
AcDbEntity
  8
TRMODEL1
  6
Continuous
 62
     2
100
AcDbLine
 10
10.7057926418
 20
17.0337858665
 30
0.0
 11
10.6744189732
 21
17.0615659891
 31
0.0
  0
LINE
  5
3E4
330
1F
100
AcDbEntity
  8
TRMODEL1
  6
Continuous
 62
     2
100
AcDbLine
 10
10.6744189732
 20
17.0615659891
 30
0.0
 11
10.6530431857
 21
17.1025986829
 31
0.0
  0
LINE
  5
3E5
330
1F
100
AcDbEntity
  8
TRMODEL1
  6
Continuous
 62
     2
100
AcDbLine
 10
10.6530431857
 20
17.1025986829
 30
0.0
 11
10.6430549131
 21
17.1544945689
 31
0.0
  0
LINE
  5
3E6
330
1F
100
AcDbEntity
  8
TRMODEL1
  6
Continuous
 62
     2
100
AcDbLine
 10
10.6430549131
 20
17.1544945689
 30
0.0
 11
10.6450067769
 21
17.2143824009
 31
0.0
  0
LINE
  5
3E7
330
1F
100
AcDbEntity
  8
TRMODEL1
  6
Continuous
 62
     2
100
AcDbLine
 10
10.6450067769
 20
17.2143824009
 30
0.0
 11
10.6587907864
 21
17.2789487616
 31
0.0
  0
LINE
  5
3E8
330
1F
100
AcDbEntity
  8
TRMODEL1
  6
Continuous
 62
     2
100
AcDbLine
 10
10.6587907864
 20
17.2789487616
 30
0.0
 11
10.6836443129
 21
17.3446213849
 31
0.0
  0
LINE
  5
3E9
330
1F
100
AcDbEntity
  8
TRMODEL1
  6
Continuous
 62
     2
100
AcDbLine
 10
10.6836443129
 20
17.3446213849
 30
0.0
 11
10.7181922841
 21
17.4077667981
 31
0.0
  0
LINE
  5
3EA
330
1F
100
AcDbEntity
  8
TRMODEL1
  6
Continuous
 62
     2
100
AcDbLine
 10
10.7181922841
 20
17.4077667981
 30
0.0
 11
10.7605232627
 21
17.4648913519
 31
0.0
  0
LINE
  5
3EB
330
1F
100
AcDbEntity
  8
TRMODEL1
  6
Continuous
 62
     2
100
AcDbLine
 10
10.7605232627
 20
17.4648913519
 30
0.0
 11
10.8082952005
 21
17.5128345131
 31
0.0
  0
LINE
  5
3EC
330
1F
100
AcDbEntity
  8
TRMODEL1
  6
Continuous
 62
     2
100
AcDbLine
 10
10.8082952005
 20
17.5128345131
 30
0.0
 11
10.8588650171
 21
17.5489437282
 31
0.0
  0
LINE
  5
3ED
330
1F
100
AcDbEntity
  8
TRMODEL1
  6
Continuous
 62
     2
100
AcDbLine
 10
10.8588650171
 20
17.5489437282
 30
0.0
 11
10.9094348337
 21
17.5712211806
 31
0.0
  0
LINE
  5
3EE
330
1F
100
AcDbEntity
  8
TRMODEL1
  6
Continuous
 62
     2
100
AcDbLine
 10
10.9094348337
 20
17.5712211806
 30
0.0
 11
10.9572067715
 21
17.5784343247
 31
0.0
  0
LINE
  5
3EF
330
1F
100
AcDbEntity
  8
TRMODEL1
  6
Continuous
 62
     2
100
AcDbLine
 10
10.9572067715
 20
17.5784343247
 30
0.0
 11
10.9995377501
 21
17.5701840785
 31
0.0
  0
LINE
  5
3F0
330
1F
100
AcDbEntity
  8
TRMODEL1
  6
Continuous
 62
     2
100
AcDbLine
 10
10.9995377501
 20
17.5701840785
 30
0.0
 11
11.0119373924
 21
17.5641015898
 31
0.0
  0
LINE
  5
3F1
330
1F
100
AcDbEntity
  8
TRMODEL1
  6
Continuous
 62
     2
100
AcDbLine
 10
10.7190030225
 20
16.7277877859
 30
0.0
 11
10.7190030225
 21
16.9532586191
 31
0.0
  0
LINE
  5
3F2
330
1F
100
AcDbEntity
  8
TRMODEL1
  6
Continuous
 62
     2
100
AcDbLine
 10
10.7190030225
 20
16.9532586191
 30
0.0
 11
10.9332554965
 21
16.8295732985
 31
0.0
  0
LINE
  5
3F3
330
1F
100
AcDbEntity
  8
TRMODEL1
  6
Continuous
 62
     2
100
AcDbLine
 10
10.7190030225
 20
16.7277877859
 30
0.0
 11
10.7379708677
 21
16.7168378819
 31
0.0
  0
LINE
  5
3F4
330
1F
100
AcDbEntity
  8
TRMODEL1
  6
Continuous
 62
     2
100
AcDbLine
 10
10.9963965054
 20
16.8660238271
 30
0.0
 11
10.7057926418
 21
17.0337858665
 31
0.0
  0
LINE
  5
3F5
330
1F
100
AcDbEntity
  8
TRMODEL1
  6
Continuous
 62
     2
100
AcDbLine
 10
10.7190030225
 20
16.9532586191
 30
0.0
 11
10.7428078777
 21
17.0124174257
 31
0.0
  0
LINE
  5
3F6
330
1F
100
AcDbEntity
  8
TRMODEL1
  6
Continuous
 62
     2
100
AcDbLine
 10
12.2731937712
 20
11.6040782889
 30
0.0
 11
14.6352002514
 21
12.9676356059
 31
0.0
  0
LINE
  5
3F7
330
1F
100
AcDbEntity
  8
TRMODEL1
  6
Continuous
 62
     2
100
AcDbLine
 10
14.4935824879
 20
13.6900220894
 30
0.0
 11
12.5237953772
 21
12.552888195
 31
0.0
  0
LINE
  5
3F8
330
1F
100
AcDbEntity
  8
TRMODEL1
  6
Continuous
 62
     2
100
AcDbLine
 10
12.5237953772
 20
12.5736012533
 30
0.0
 11
14.5062644502
 21
13.7180562888
 31
0.0
  0
LINE
  5
3F9
330
1F
100
AcDbEntity
  8
TRMODEL1
  6
Continuous
 62
     2
100
AcDbLine
 10
12.514608186
 20
12.6432976007
 30
0.0
 11
14.5062644502
 21
13.7930562888
 31
0.0
  0
LINE
  5
3FA
330
1F
100
AcDbEntity
  8
TRMODEL1
  6
Continuous
 62
     2
100
AcDbLine
 10
14.3005945583
 20
13.5786125291
 30
0.0
 11
14.3005945583
 21
12.7744718508
 31
0.0
  0
LINE
  5
3FB
330
1F
100
AcDbEntity
  8
TRMODEL1
  6
Continuous
 62
     2
100
AcDbLine
 10
14.6352002514
 20
12.9676356059
 30
0.0
 11
15.1547873468
 21
12.6676843603
 31
0.0
  0
LINE
  5
3FC
330
1F
100
AcDbEntity
  8
TRMODEL1
  6
Continuous
 62
     2
100
AcDbLine
 10
14.5002370088
 20
2.6264721524
 30
0.0
 11
14.7654020506
 21
3.0857514771
 31
0.0
  0
LINE
  5
3FD
330
1F
100
AcDbEntity
  8
TRMODEL1
  6
Continuous
 62
     2
100
AcDbLine
 10
14.4687359074
 20
8.8344106443
 30
0.0
 11
14.7339009492
 21
9.293689969
 31
0.0
  0
LINE
  5
3FE
330
1F
100
AcDbEntity
  8
TRMODEL1
  6
Continuous
 62
     4
100
AcDbLine
 10
16.8264210523
 20
10.5016761118
 30
0.0
 11
13.7135518333
 21
8.7046549624
 31
0.0
  0
LINE
  5
3FF
330
1F
100
AcDbEntity
  8
TRMODEL1
  6
Continuous
 62
     4
100
AcDbLine
 10
14.2012871272
 20
8.6800157498
 30
0.0
 11
16.7557103742
 21
10.1546529018
 31
0.0
  0
LINE
  5
400
330
1F
100
AcDbEntity
  8
TRMODEL1
  6
Continuous
 62
     2
100
AcDbLine
 10
14.1059105616
 20
9.1749061702
 30
0.0
 11
15.4121547596
 21
9.9289848947
 31
0.0
  0
LINE
  5
401
330
1F
100
AcDbEntity
  8
TRMODEL1
  6
Continuous
 62
     2
100
AcDbLine
 10
12.5144800963
 20
9.6437112008
 30
0.0
 11
15.50957734
 21
11.3727440362
 31
0.0
  0
LINE
  5
402
330
1F
100
AcDbEntity
  8
TRMODEL1
  6
Continuous
 62
     2
100
AcDbLine
 10
15.50957734
 20
11.2770309778
 30
0.0
 11
12.5237953772
 21
9.5533757397
 31
0.0
  0
LINE
  5
403
330
1F
100
AcDbEntity
  8
TRMODEL1
  6
Continuous
 62
     2
100
AcDbLine
 10
12.5237953772
 20
9.5740887981
 30
0.0
 11
15.50957734
 21
11.2977440362
 31
0.0
  0
LINE
  5
404
330
1F
100
AcDbEntity
  8
TRMODEL1
  6
Continuous
 62
     2
100
AcDbLine
 10
12.2640018243
 20
10.0990156634
 30
0.0
 11
14.9899902446
 21
11.6726952817
 31
0.0
  0
LINE
  5
405
330
1F
100
AcDbEntity
  8
TRMODEL1
  6
Continuous
 62
     2
100
AcDbLine
 10
15.1421053845
 20
12.564650161
 30
0.0
 11
12.2640018243
 21
10.9031563416
 31
0.0
  0
LINE
  5
406
330
1F
100
AcDbEntity
  8
TRMODEL1
  6
Continuous
 62
     2
100
AcDbLine
 10
12.2640018243
 20
10.9238693999
 30
0.0
 11
15.1547873468
 21
12.5926843603
 31
0.0
  0
LINE
  5
407
330
1F
100
AcDbEntity
  8
TRMODEL1
  6
Continuous
 62
     2
100
AcDbLine
 10
12.2640018243
 20
10.9988693999
 30
0.0
 11
15.1547873468
 21
12.6676843603
 31
0.0
  0
LINE
  5
408
330
1F
100
AcDbEntity
  8
TRMODEL1
  6
Continuous
 62
     2
100
AcDbLine
 10
14.1206303871
 20
9.4208956188
 30
0.0
 11
15.368855835
 21
10.1414808318
 31
0.0
  0
LINE
  5
409
330
1F
100
AcDbEntity
  8
TRMODEL1
  6
Continuous
 62
     2
100
AcDbLine
 10
14.1377424813
 20
9.4557701577
 30
0.0
 11
15.3472063727
 21
10.1539788004
 31
0.0
  0
LINE
  5
40A
330
1F
100
AcDbEntity
  8
TRMODEL1
  6
Continuous
 62
     2
100
AcDbLine
 10
14.1767191926
 20
9.5782628084
 30
0.0
 11
15.3039074481
 21
10.2289747375
 31
0.0
  0
LINE
  5
40B
330
1F
100
AcDbEntity
  8
TRMODEL1
  6
Continuous
 62
     4
100
AcDbLine
 10
16.8057103727
 20
4.2396804758
 30
0.0
 11
14.1305764491
 21
5.7840024181
 31
0.0
  0
LINE
  5
40C
330
1F
100
AcDbEntity
  8
TRMODEL1
  6
Continuous
 62
     4
100
AcDbLine
 10
16.8264197969
 20
4.1939123348
 30
0.0
 11
14.1305764491
 21
5.7501895732
 31
0.0
  0
LINE
  5
40D
330
1F
100
AcDbEntity
  8
TRMODEL1
  6
Continuous
 62
     4
100
AcDbLine
 10
16.7557103742
 20
4.2347320156
 30
0.0
 11
14.2012871272
 21
2.7600948636
 31
0.0
  0
LINE
  5
40E
330
1F
100
AcDbEntity
  8
TRMODEL1
  6
Continuous
 62
     4
100
AcDbLine
 10
11.1695668028
 20
0.7037171695
 30
0.0
 11
16.8264210523
 21
3.9693496167
 31
0.0
  0
LINE
  5
40F
330
1F
100
AcDbEntity
  8
TRMODEL1
  6
Continuous
 62
     2
100
AcDbLine
 10
13.8654114061
 20
6.0359219545
 30
0.0
 11
14.1305764491
 21
6.4952012813
 31
0.0
  0
LINE
  5
410
330
1F
100
AcDbEntity
  8
TRMODEL1
  6
Continuous
 62
     2
100
AcDbLine
 10
13.8654114061
 20
6.2864219545
 30
0.0
 11
14.1305764491
 21
6.7457012813
 31
0.0
  0
LINE
  5
411
330
1F
100
AcDbEntity
  8
TRMODEL1
  6
Continuous
 62
     4
100
AcDbLine
 10
13.8654114061
 20
8.4044647421
 30
0.0
 11
13.8654114061
 21
2.6478520183
 31
0.0
  0
LINE
  5
412
330
1F
100
AcDbEntity
  8
TRMODEL1
  6
Continuous
 62
     4
100
AcDbLine
 10
14.1305764491
 20
2.8009285392
 30
0.0
 11
14.1305764491
 21
8.557541263
 31
0.0
  0
LINE
  5
413
330
1F
100
AcDbEntity
  8
TRMODEL1
  6
Continuous
 62
     2
100
AcDbLine
 10
12.7648161179
 20
1.6246349968
 30
0.0
 11
13.0299811597
 21
2.0839143215
 31
0.0
  0
LINE
  5
414
330
1F
100
AcDbEntity
  8
TRMODEL1
  6
Continuous
 62
     4
100
AcDbLine
 10
13.8654114061
 20
2.6478520183
 30
0.0
 11
12.8500108733
 21
3.2340302687
 31
0.0
  0
LINE
  5
415
330
1F
100
AcDbEntity
  8
TRMODEL1
  6
Continuous
 62
     4
100
AcDbLine
 10
13.794700728
 20
2.5253775315
 30
0.0
 11
12.7085856864
 21
3.1523783989
 31
0.0
  0
LINE
  5
416
330
1F
100
AcDbEntity
  8
TRMODEL1
  6
Continuous
 62
     4
100
AcDbLine
 10
13.2565574774
 20
5.5937501025
 30
0.0
 11
12.2822788787
 21
6.1562501138
 31
0.0
  0
LINE
  5
417
330
1F
100
AcDbEntity
  8
TRMODEL1
  6
Continuous
 62
     4
100
AcDbLine
 10
13.794700728
 20
2.5253775315
 30
0.0
 11
11.240277481
 21
1.0507403795
 31
0.0
  0
LINE
  5
418
330
1F
100
AcDbEntity
  8
TRMODEL1
  6
Continuous
 62
     2
100
AcDbLine
 10
12.5478885065
 20
1.4994053523
 30
0.0
 11
12.8130535483
 21
1.958684677
 31
0.0
  0
LINE
  5
419
330
1F
100
AcDbEntity
  8
TRMODEL1
  6
Continuous
 62
     2
100
AcDbLine
 10
12.3309608952
 20
1.3741757078
 30
0.0
 11
12.5961259369
 21
1.8334550326
 31
0.0
  0
LINE
  5
41A
330
1F
100
AcDbEntity
  8
TRMODEL1
  6
Continuous
 62
     2
100
AcDbLine
 10
12.1140332838
 20
1.2489460634
 30
0.0
 11
12.3791983256
 21
1.7082253881
 31
0.0
  0
LINE
  5
41B
330
1F
100
AcDbEntity
  8
TRMODEL1
  6
Continuous
 62
     2
100
AcDbLine
 10
11.8971056724
 20
1.1237164189
 30
0.0
 11
12.1622707142
 21
1.5829957437
 31
0.0
  0
LINE
  5
41C
330
1F
100
AcDbEntity
  8
TRMODEL1
  6
Continuous
 62
     2
100
AcDbLine
 10
11.680178061
 20
0.9984867745
 30
0.0
 11
11.9453431028
 21
1.4577660992
 31
0.0
  0
LINE
  5
41D
330
1F
100
AcDbEntity
  8
TRMODEL1
  6
Continuous
 62
     2
100
AcDbLine
 10
11.4632504497
 20
0.87325713
 30
0.0
 11
11.7284154915
 21
1.3325364548
 31
0.0
  0
LINE
  5
41E
330
1F
100
AcDbEntity
  8
TRMODEL1
  6
Continuous
 62
     2
100
AcDbLine
 10
11.2463228383
 20
0.7480274856
 30
0.0
 11
11.5114878801
 21
1.2073068103
 31
0.0
  0
LINE
  5
41F
330
1F
100
AcDbEntity
  8
TRMODEL1
  6
Continuous
 62
     2
100
AcDbLine
 10
11.1695668028
 20
0.8655821323
 30
0.0
 11
11.2945602687
 21
1.0820771659
 31
0.0
  0
LINE
  5
420
330
1F
100
AcDbEntity
  8
TRMODEL1
  6
Continuous
 62
     4
100
AcDbLine
 10
11.1695668028
 20
0.9282658927
 30
0.0
 11
11.1695668028
 21
0.7037171695
 31
0.0
  0
LINE
  5
421
330
1F
100
AcDbEntity
  8
TRMODEL1
  6
Continuous
 62
     4
100
AcDbLine
 10
11.240277481
 20
1.0507403795
 30
0.0
 11
11.226482512
 21
1.0412077532
 31
0.0
  0
LINE
  5
422
330
1F
100
AcDbEntity
  8
TRMODEL1
  6
Continuous
 62
     4
100
AcDbLine
 10
11.226482512
 20
1.0412077532
 30
0.0
 11
11.2132176759
 21
1.0289035398
 31
0.0
  0
LINE
  5
423
330
1F
100
AcDbEntity
  8
TRMODEL1
  6
Continuous
 62
     4
100
AcDbLine
 10
11.2132176759
 20
1.0289035398
 30
0.0
 11
11.200992733
 21
1.0143005833
 31
0.0
  0
LINE
  5
424
330
1F
100
AcDbEntity
  8
TRMODEL1
  6
Continuous
 62
     4
100
AcDbLine
 10
11.200992733
 20
1.0143005833
 30
0.0
 11
11.190277481
 21
0.9979600672
 31
0.0
  0
LINE
  5
425
330
1F
100
AcDbEntity
  8
TRMODEL1
  6
Continuous
 62
     4
100
AcDbLine
 10
11.190277481
 20
0.9979600672
 30
0.0
 11
11.1814837008
 21
0.9805099484
 31
0.0
  0
LINE
  5
426
330
1F
100
AcDbEntity
  8
TRMODEL1
  6
Continuous
 62
     4
100
AcDbLine
 10
11.1814837008
 20
0.9805099484
 30
0.0
 11
11.1749493327
 21
0.9626208251
 31
0.0
  0
LINE
  5
427
330
1F
100
AcDbEntity
  8
TRMODEL1
  6
Continuous
 62
     4
100
AcDbLine
 10
11.1749493327
 20
0.9626208251
 30
0.0
 11
11.1709254887
 21
0.9449801664
 31
0.0
  0
LINE
  5
428
330
1F
100
AcDbEntity
  8
TRMODEL1
  6
Continuous
 62
     4
100
AcDbLine
 10
11.1709254887
 20
0.9449801664
 30
0.0
 11
11.1695668028
 21
0.9282658927
 31
0.0
  0
LINE
  5
429
330
1F
100
AcDbEntity
  8
TRMODEL1
  6
Continuous
 62
     2
100
AcDbLine
 10
14.2833093975
 20
2.5012425079
 30
0.0
 11
14.5484744393
 21
2.9605218327
 31
0.0
  0
LINE
  5
42A
330
1F
100
AcDbEntity
  8
TRMODEL1
  6
Continuous
 62
     2
100
AcDbLine
 10
14.0663817861
 20
2.3760128635
 30
0.0
 11
14.3315468279
 21
2.8352921882
 31
0.0
  0
LINE
  5
42B
330
1F
100
AcDbEntity
  8
TRMODEL1
  6
Continuous
 62
     2
100
AcDbLine
 10
13.8494541747
 20
2.250783219
 30
0.0
 11
14.144094336
 21
2.7611149482
 31
0.0
  0
LINE
  5
42C
330
1F
100
AcDbEntity
  8
TRMODEL1
  6
Continuous
 62
     2
100
AcDbLine
 10
13.6325265634
 20
2.1255535746
 30
0.0
 11
14.1305764491
 21
2.9882012813
 31
0.0
  0
LINE
  5
42D
330
1F
100
AcDbEntity
  8
TRMODEL1
  6
Continuous
 62
     2
100
AcDbLine
 10
13.8654114061
 20
2.7794219545
 30
0.0
 11
14.1305764491
 21
3.2387012813
 31
0.0
  0
LINE
  5
42E
330
1F
100
AcDbEntity
  8
TRMODEL1
  6
Continuous
 62
     2
100
AcDbLine
 10
13.415598952
 20
2.0003239301
 30
0.0
 11
13.6807639938
 21
2.4596032549
 31
0.0
  0
LINE
  5
42F
330
1F
100
AcDbEntity
  8
TRMODEL1
  6
Continuous
 62
     2
100
AcDbLine
 10
13.8654114061
 20
3.0299219545
 30
0.0
 11
14.1305764491
 21
3.4892012813
 31
0.0
  0
LINE
  5
430
330
1F
100
AcDbEntity
  8
TRMODEL1
  6
Continuous
 62
     2
100
AcDbLine
 10
13.1986713406
 20
1.8750942857
 30
0.0
 11
13.4638363824
 21
2.3343736104
 31
0.0
  0
LINE
  5
431
330
1F
100
AcDbEntity
  8
TRMODEL1
  6
Continuous
 62
     2
100
AcDbLine
 10
13.8654114061
 20
3.2804219545
 30
0.0
 11
14.1305764491
 21
3.7397012813
 31
0.0
  0
LINE
  5
432
330
1F
100
AcDbEntity
  8
TRMODEL1
  6
Continuous
 62
     2
100
AcDbLine
 10
12.9817437293
 20
1.7498646412
 30
0.0
 11
13.246908771
 21
2.209143966
 31
0.0
  0
LINE
  5
433
330
1F
100
AcDbEntity
  8
TRMODEL1
  6
Continuous
 62
     2
100
AcDbLine
 10
13.8654114061
 20
3.5309219545
 30
0.0
 11
14.1305764491
 21
3.9902012813
 31
0.0
  0
LINE
  5
434
330
1F
100
AcDbEntity
  8
TRMODEL1
  6
Continuous
 62
     2
100
AcDbLine
 10
13.8654114061
 20
3.7814219545
 30
0.0
 11
14.1305764491
 21
4.2407012813
 31
0.0
  0
LINE
  5
435
330
1F
100
AcDbEntity
  8
TRMODEL1
  6
Continuous
 62
     2
100
AcDbLine
 10
13.8654114061
 20
4.0319219545
 30
0.0
 11
14.1305764491
 21
4.4912012813
 31
0.0
  0
LINE
  5
436
330
1F
100
AcDbEntity
  8
TRMODEL1
  6
Continuous
 62
     2
100
AcDbLine
 10
13.8654114061
 20
4.2824219545
 30
0.0
 11
14.1305764491
 21
4.7417012813
 31
0.0
  0
LINE
  5
437
330
1F
100
AcDbEntity
  8
TRMODEL1
  6
Continuous
 62
     2
100
AcDbLine
 10
13.8654114061
 20
4.5329219545
 30
0.0
 11
14.1305764491
 21
4.9922012813
 31
0.0
  0
LINE
  5
438
330
1F
100
AcDbEntity
  8
TRMODEL1
  6
Continuous
 62
     2
100
AcDbLine
 10
13.8654114061
 20
4.7834219545
 30
0.0
 11
14.1305764491
 21
5.2427012813
 31
0.0
  0
LINE
  5
439
330
1F
100
AcDbEntity
  8
TRMODEL1
  6
Continuous
 62
     2
100
AcDbLine
 10
13.8654114061
 20
5.0339219545
 30
0.0
 11
14.1305764491
 21
5.4932012813
 31
0.0
  0
LINE
  5
43A
330
1F
100
AcDbEntity
  8
TRMODEL1
  6
Continuous
 62
     2
100
AcDbLine
 10
13.8654114061
 20
5.2844219545
 30
0.0
 11
14.1305764491
 21
5.7437012813
 31
0.0
  0
LINE
  5
43B
330
1F
100
AcDbEntity
  8
TRMODEL1
  6
Continuous
 62
     2
100
AcDbLine
 10
13.8654114061
 20
5.5349219545
 30
0.0
 11
14.1305764491
 21
5.9942012813
 31
0.0
  0
LINE
  5
43C
330
1F
100
AcDbEntity
  8
TRMODEL1
  6
Continuous
 62
     2
100
AcDbLine
 10
13.8654114061
 20
5.7854219545
 30
0.0
 11
14.1305764491
 21
6.2447012813
 31
0.0
  0
LINE
  5
43D
330
1F
100
AcDbEntity
  8
TRMODEL1
  6
Continuous
 62
     4
100
AcDbLine
 10
13.2565574774
 20
3.46875006
 30
0.0
 11
13.2565574774
 21
5.5937501025
 31
0.0
  0
LINE
  5
43E
330
1F
100
AcDbEntity
  8
TRMODEL1
  6
Continuous
 62
     4
100
AcDbLine
 10
14.2012871272
 20
2.7600948636
 30
0.0
 11
14.13057645
 21
2.8009152687
 31
0.0
  0
LINE
  5
43F
330
1F
100
AcDbEntity
  8
TRMODEL1
  6
Continuous
 62
     4
100
AcDbLine
 10
14.2012871272
 20
2.7600948636
 30
0.0
 11
14.1874921582
 21
2.7537001578
 31
0.0
  0
LINE
  5
440
330
1F
100
AcDbEntity
  8
TRMODEL1
  6
Continuous
 62
     4
100
AcDbLine
 10
14.1874921582
 20
2.7537001578
 30
0.0
 11
14.1742273222
 21
2.7506891175
 31
0.0
  0
LINE
  5
441
330
1F
100
AcDbEntity
  8
TRMODEL1
  6
Continuous
 62
     4
100
AcDbLine
 10
14.1742273222
 20
2.7506891175
 30
0.0
 11
14.1620023793
 21
2.7511774553
 31
0.0
  0
LINE
  5
442
330
1F
100
AcDbEntity
  8
TRMODEL1
  6
Continuous
 62
     4
100
AcDbLine
 10
14.1620023793
 20
2.7511774553
 30
0.0
 11
14.1512871272
 21
2.7551464047
 31
0.0
  0
LINE
  5
443
330
1F
100
AcDbEntity
  8
TRMODEL1
  6
Continuous
 62
     4
100
AcDbLine
 10
14.1512871272
 20
2.7551464047
 30
0.0
 11
14.142493347
 21
2.7624434411
 31
0.0
  0
LINE
  5
444
330
1F
100
AcDbEntity
  8
TRMODEL1
  6
Continuous
 62
     4
100
AcDbLine
 10
14.142493347
 20
2.7624434411
 30
0.0
 11
14.1359589789
 21
2.7727881435
 31
0.0
  0
LINE
  5
445
330
1F
100
AcDbEntity
  8
TRMODEL1
  6
Continuous
 62
     4
100
AcDbLine
 10
14.1359589789
 20
2.7727881435
 30
0.0
 11
14.1319351349
 21
2.7857829709
 31
0.0
  0
LINE
  5
446
330
1F
100
AcDbEntity
  8
TRMODEL1
  6
Continuous
 62
     4
100
AcDbLine
 10
14.1319351349
 20
2.7857829709
 30
0.0
 11
14.1305764491
 21
2.8009285392
 31
0.0
  0
LINE
  5
447
330
1F
100
AcDbEntity
  8
TRMODEL1
  6
Continuous
 62
     4
100
AcDbLine
 10
13.8654114061
 20
2.6478520183
 30
0.0
 11
13.8640527203
 21
2.6311377446
 31
0.0
  0
LINE
  5
448
330
1F
100
AcDbEntity
  8
TRMODEL1
  6
Continuous
 62
     4
100
AcDbLine
 10
13.8640527203
 20
2.6311377446
 30
0.0
 11
13.8600288762
 21
2.6134970859
 31
0.0
  0
LINE
  5
449
330
1F
100
AcDbEntity
  8
TRMODEL1
  6
Continuous
 62
     4
100
AcDbLine
 10
13.8600288762
 20
2.6134970859
 30
0.0
 11
13.8534945081
 21
2.5956079626
 31
0.0
  0
LINE
  5
44A
330
1F
100
AcDbEntity
  8
TRMODEL1
  6
Continuous
 62
     4
100
AcDbLine
 10
13.8534945081
 20
2.5956079626
 30
0.0
 11
13.844700728
 21
2.5781578438
 31
0.0
  0
LINE
  5
44B
330
1F
100
AcDbEntity
  8
TRMODEL1
  6
Continuous
 62
     4
100
AcDbLine
 10
13.844700728
 20
2.5781578438
 30
0.0
 11
13.8339854759
 21
2.5618173277
 31
0.0
  0
LINE
  5
44C
330
1F
100
AcDbEntity
  8
TRMODEL1
  6
Continuous
 62
     4
100
AcDbLine
 10
13.8339854759
 20
2.5618173277
 30
0.0
 11
13.821760533
 21
2.5472143712
 31
0.0
  0
LINE
  5
44D
330
1F
100
AcDbEntity
  8
TRMODEL1
  6
Continuous
 62
     4
100
AcDbLine
 10
13.821760533
 20
2.5472143712
 30
0.0
 11
13.808495697
 21
2.5349101578
 31
0.0
  0
LINE
  5
44E
330
1F
100
AcDbEntity
  8
TRMODEL1
  6
Continuous
 62
     4
100
AcDbLine
 10
13.808495697
 20
2.5349101578
 30
0.0
 11
13.794700728
 21
2.5253775315
 31
0.0
  0
LINE
  5
44F
330
1F
100
AcDbEntity
  8
TRMODEL1
  6
Continuous
 62
     2
100
AcDbLine
 10
12.7333150165
 20
7.8325734886
 30
0.0
 11
12.9984800583
 21
8.2918528134
 31
0.0
  0
LINE
  5
450
330
1F
100
AcDbEntity
  8
TRMODEL1
  6
Continuous
 62
     4
100
AcDbLine
 10
11.240277481
 20
6.9706612657
 30
0.0
 11
13.794700728
 21
8.4452984177
 31
0.0
  0
LINE
  5
451
330
1F
100
AcDbEntity
  8
TRMODEL1
  6
Continuous
 62
     4
100
AcDbLine
 10
13.4557418166
 20
8.5558244076
 30
0.0
 11
11.1695668028
 21
7.2360436645
 31
0.0
  0
LINE
  5
452
330
1F
100
AcDbEntity
  8
TRMODEL1
  6
Continuous
 62
     2
100
AcDbLine
 10
12.2640018243
 20
10.842275268
 30
0.0
 11
12.9077532753
 21
10.4706454657
 31
0.0
  0
LINE
  5
453
330
1F
100
AcDbEntity
  8
TRMODEL1
  6
Continuous
 62
     2
100
AcDbLine
 10
12.3955554867
 20
8.7068562599
 30
0.0
 11
12.5199310292
 21
8.9222810189
 31
0.0
  0
LINE
  5
454
330
1F
100
AcDbEntity
  8
TRMODEL1
  6
Continuous
 62
     2
100
AcDbLine
 10
12.4155480635
 20
8.9919844188
 30
0.0
 11
12.5237953772
 21
9.1794742659
 31
0.0
  0
LINE
  5
455
330
1F
100
AcDbEntity
  8
TRMODEL1
  6
Continuous
 62
     2
100
AcDbLine
 10
12.1747635271
 20
8.5749333681
 30
0.0
 11
12.2830108403
 21
8.7624232144
 31
0.0
  0
LINE
  5
456
330
1F
100
AcDbEntity
  8
TRMODEL1
  6
Continuous
 62
     2
100
AcDbLine
 10
12.4155480635
 20
9.2424844188
 30
0.0
 11
12.5237953772
 21
9.4299742659
 31
0.0
  0
LINE
  5
457
330
1F
100
AcDbEntity
  8
TRMODEL1
  6
Continuous
 62
     2
100
AcDbLine
 10
12.4155480635
 20
9.4929844188
 30
0.0
 11
12.5097695409
 21
9.6561808047
 31
0.0
  0
LINE
  5
458
330
1F
100
AcDbEntity
  8
TRMODEL1
  6
Continuous
 62
     2
100
AcDbLine
 10
12.285208071
 20
9.5177289296
 30
0.0
 11
12.3874007521
 21
9.6947318453
 31
0.0
  0
LINE
  5
459
330
1F
100
AcDbEntity
  8
TRMODEL1
  6
Continuous
 62
     2
100
AcDbLine
 10
12.1673937577
 20
9.564168553
 30
0.0
 11
12.2640018243
 21
9.7314986328
 31
0.0
  0
LINE
  5
45A
330
1F
100
AcDbEntity
  8
TRMODEL1
  6
Continuous
 62
     2
100
AcDbLine
 10
12.1557545106
 20
9.7945087857
 30
0.0
 11
12.2640018243
 21
9.9819986328
 31
0.0
  0
LINE
  5
45B
330
1F
100
AcDbEntity
  8
TRMODEL1
  6
Continuous
 62
     2
100
AcDbLine
 10
12.1557545106
 20
10.0450087857
 30
0.0
 11
12.2640018243
 21
10.2324986328
 31
0.0
  0
LINE
  5
45C
330
1F
100
AcDbEntity
  8
TRMODEL1
  6
Continuous
 62
     2
100
AcDbLine
 10
12.1557545106
 20
10.2955087857
 30
0.0
 11
12.2640018243
 21
10.4829986328
 31
0.0
  0
LINE
  5
45D
330
1F
100
AcDbEntity
  8
TRMODEL1
  6
Continuous
 62
     2
100
AcDbLine
 10
12.1557545106
 20
10.5460087857
 30
0.0
 11
12.2640018243
 21
10.7334986328
 31
0.0
  0
LINE
  5
45E
330
1F
100
AcDbEntity
  8
TRMODEL1
  6
Continuous
 62
     2
100
AcDbLine
 10
12.1557545106
 20
10.7965087857
 30
0.0
 11
12.2640018243
 21
10.9839986328
 31
0.0
  0
LINE
  5
45F
330
1F
100
AcDbEntity
  8
TRMODEL1
  6
Continuous
 62
     2
100
AcDbLine
 10
12.1557545106
 20
11.0470087857
 30
0.0
 11
12.2640018243
 21
11.2344986328
 31
0.0
  0
LINE
  5
460
330
1F
100
AcDbEntity
  8
TRMODEL1
  6
Continuous
 62
     2
100
AcDbLine
 10
12.3892343609
 20
11.701907749
 30
0.0
 11
12.5210563359
 21
11.9302301071
 31
0.0
  0
LINE
  5
461
330
1F
100
AcDbEntity
  8
TRMODEL1
  6
Continuous
 62
     2
100
AcDbLine
 10
12.1557545106
 20
11.2975087857
 30
0.0
 11
12.2640018243
 21
11.4849986328
 31
0.0
  0
LINE
  5
462
330
1F
100
AcDbEntity
  8
TRMODEL1
  6
Continuous
 62
     2
100
AcDbLine
 10
12.4155480635
 20
11.9979844188
 30
0.0
 11
12.5237953772
 21
12.1854742659
 31
0.0
  0
LINE
  5
463
330
1F
100
AcDbEntity
  8
TRMODEL1
  6
Continuous
 62
     2
100
AcDbLine
 10
12.1639922413
 20
11.5622769539
 30
0.0
 11
12.2695772905
 21
11.7451556235
 31
0.0
  0
LINE
  5
464
330
1F
100
AcDbEntity
  8
TRMODEL1
  6
Continuous
 62
     2
100
AcDbLine
 10
12.4155480635
 20
12.2484844188
 30
0.0
 11
12.5237953772
 21
12.4359742659
 31
0.0
  0
LINE
  5
465
330
1F
100
AcDbEntity
  8
TRMODEL1
  6
Continuous
 62
     2
100
AcDbLine
 10
12.4155480635
 20
12.4989844188
 30
0.0
 11
12.5079596986
 21
12.659046066
 31
0.0
  0
LINE
  5
466
330
1F
100
AcDbEntity
  8
TRMODEL1
  6
Continuous
 62
     2
100
AcDbLine
 10
12.2765160666
 20
12.5086739363
 30
0.0
 11
12.3826707934
 21
12.6925393166
 31
0.0
  0
LINE
  5
467
330
1F
100
AcDbEntity
  8
TRMODEL1
  6
Continuous
 62
     2
100
AcDbLine
 10
12.0908061224
 20
12.4375148774
 30
0.0
 11
12.1678357685
 21
12.5709341381
 31
0.0
  0
LINE
  5
468
330
1F
100
AcDbEntity
  8
TRMODEL1
  6
Continuous
 62
     2
100
AcDbLine
 10
12.5163874051
 20
7.7073438442
 30
0.0
 11
12.7815524469
 21
8.1666231689
 31
0.0
  0
LINE
  5
469
330
1F
100
AcDbEntity
  8
TRMODEL1
  6
Continuous
 62
     2
100
AcDbLine
 10
12.2994597938
 20
7.5821141997
 30
0.0
 11
12.5646248355
 21
8.0413935245
 31
0.0
  0
LINE
  5
46A
330
1F
100
AcDbEntity
  8
TRMODEL1
  6
Continuous
 62
     2
100
AcDbLine
 10
12.0825321824
 20
7.4568845553
 30
0.0
 11
12.3476972242
 21
7.91616388
 31
0.0
  0
LINE
  5
46B
330
1F
100
AcDbEntity
  8
TRMODEL1
  6
Continuous
 62
     2
100
AcDbLine
 10
11.865604571
 20
7.3316549108
 30
0.0
 11
12.1307696128
 21
7.7909342356
 31
0.0
  0
LINE
  5
46C
330
1F
100
AcDbEntity
  8
TRMODEL1
  6
Continuous
 62
     2
100
AcDbLine
 10
11.6486769596
 20
7.2064252663
 30
0.0
 11
11.9138420014
 21
7.6657045911
 31
0.0
  0
LINE
  5
46D
330
1F
100
AcDbEntity
  8
TRMODEL1
  6
Continuous
 62
     2
100
AcDbLine
 10
11.4317493483
 20
7.0811956219
 30
0.0
 11
11.6969143901
 21
7.5404749466
 31
0.0
  0
LINE
  5
46E
330
1F
100
AcDbEntity
  8
TRMODEL1
  6
Continuous
 62
     2
100
AcDbLine
 10
11.2185781767
 20
6.9624723219
 30
0.0
 11
11.4799867787
 21
7.4152453022
 31
0.0
  0
LINE
  5
46F
330
1F
100
AcDbEntity
  8
TRMODEL1
  6
Continuous
 62
     2
100
AcDbLine
 10
11.1695668028
 20
7.1280821323
 30
0.0
 11
11.2630591673
 21
7.2900156577
 31
0.0
  0
LINE
  5
470
330
1F
100
AcDbEntity
  8
TRMODEL1
  6
Continuous
 62
     4
100
AcDbLine
 10
12.5237953772
 20
12.5889252425
 30
0.0
 11
12.5237953772
 21
11.96392523
 31
0.0
  0
LINE
  5
471
330
1F
100
AcDbEntity
  8
TRMODEL1
  6
Continuous
 62
     4
100
AcDbLine
 10
12.0908061224
 20
12.52646587
 30
0.0
 11
12.3614244067
 21
12.6826904802
 31
0.0
  0
LINE
  5
472
330
1F
100
AcDbEntity
  8
TRMODEL1
  6
Continuous
 62
     4
100
AcDbLine
 10
11.1695668028
 20
7.2360436645
 30
0.0
 11
11.1695668028
 21
7.0114949413
 31
0.0
  0
LINE
  5
473
330
1F
100
AcDbEntity
  8
TRMODEL1
  6
Continuous
 62
     4
100
AcDbLine
 10
11.1695668028
 20
7.0114949413
 30
0.0
 11
11.1709254887
 21
6.9963493729
 31
0.0
  0
LINE
  5
474
330
1F
100
AcDbEntity
  8
TRMODEL1
  6
Continuous
 62
     4
100
AcDbLine
 10
11.1709254887
 20
6.9963493729
 30
0.0
 11
11.1749493327
 21
6.9833545456
 31
0.0
  0
LINE
  5
475
330
1F
100
AcDbEntity
  8
TRMODEL1
  6
Continuous
 62
     4
100
AcDbLine
 10
11.1749493327
 20
6.9833545456
 30
0.0
 11
11.1814837008
 21
6.9730098431
 31
0.0
  0
LINE
  5
476
330
1F
100
AcDbEntity
  8
TRMODEL1
  6
Continuous
 62
     4
100
AcDbLine
 10
11.1814837008
 20
6.9730098431
 30
0.0
 11
11.1902774825
 21
6.9657128055
 31
0.0
  0
LINE
  5
477
330
1F
100
AcDbEntity
  8
TRMODEL1
  6
Continuous
 62
     4
100
AcDbLine
 10
11.1902774825
 20
6.9657128055
 30
0.0
 11
11.200992733
 21
6.9617438574
 31
0.0
  0
LINE
  5
478
330
1F
100
AcDbEntity
  8
TRMODEL1
  6
Continuous
 62
     4
100
AcDbLine
 10
11.200992733
 20
6.9617438574
 30
0.0
 11
11.2132176759
 21
6.9612555196
 31
0.0
  0
LINE
  5
479
330
1F
100
AcDbEntity
  8
TRMODEL1
  6
Continuous
 62
     4
100
AcDbLine
 10
11.2132176759
 20
6.9612555196
 30
0.0
 11
11.226482512
 21
6.9642665599
 31
0.0
  0
LINE
  5
47A
330
1F
100
AcDbEntity
  8
TRMODEL1
  6
Continuous
 62
     4
100
AcDbLine
 10
11.226482512
 20
6.9642665599
 30
0.0
 11
11.240277481
 21
6.9706612657
 31
0.0
  0
LINE
  5
47B
330
1F
100
AcDbEntity
  8
TRMODEL1
  6
Continuous
 62
     4
100
AcDbLine
 10
12.2640018243
 20
11.5639495992
 30
0.0
 11
12.2640018243
 21
9.6889495617
 31
0.0
  0
LINE
  5
47C
330
1F
100
AcDbEntity
  8
TRMODEL1
  6
Continuous
 62
     4
100
AcDbLine
 10
12.1557545106
 20
11.5014597552
 30
0.0
 11
12.1557545106
 21
9.6264597177
 31
0.0
  0
LINE
  5
47D
330
1F
100
AcDbEntity
  8
TRMODEL1
  6
Continuous
 62
     4
100
AcDbLine
 10
12.3614244067
 20
8.8076904027
 30
0.0
 11
12.0908061224
 21
8.6514657925
 31
0.0
  0
LINE
  5
47E
330
1F
100
AcDbEntity
  8
TRMODEL1
  6
Continuous
 62
     4
100
AcDbLine
 10
12.5237953772
 20
8.96392517
 30
0.0
 11
12.5206754645
 21
8.9255446466
 31
0.0
  0
LINE
  5
47F
330
1F
100
AcDbEntity
  8
TRMODEL1
  6
Continuous
 62
     4
100
AcDbLine
 10
12.5206754645
 20
8.9255446466
 30
0.0
 11
12.511435623
 21
8.8850368908
 31
0.0
  0
LINE
  5
480
330
1F
100
AcDbEntity
  8
TRMODEL1
  6
Continuous
 62
     4
100
AcDbLine
 10
12.511435623
 20
8.8850368908
 30
0.0
 11
12.4964309346
 21
8.8439585928
 31
0.0
  0
LINE
  5
481
330
1F
100
AcDbEntity
  8
TRMODEL1
  6
Continuous
 62
     4
100
AcDbLine
 10
12.4964309346
 20
8.8439585928
 30
0.0
 11
12.476238021
 21
8.8038883685
 31
0.0
  0
LINE
  5
482
330
1F
100
AcDbEntity
  8
TRMODEL1
  6
Continuous
 62
     4
100
AcDbLine
 10
12.476238021
 20
8.8038883685
 30
0.0
 11
12.4516328846
 21
8.7663660943
 31
0.0
  0
LINE
  5
483
330
1F
100
AcDbEntity
  8
TRMODEL1
  6
Continuous
 62
     4
100
AcDbLine
 10
12.4516328846
 20
8.7663660943
 30
0.0
 11
12.423561087
 21
8.7328337301
 31
0.0
  0
LINE
  5
484
330
1F
100
AcDbEntity
  8
TRMODEL1
  6
Continuous
 62
     4
100
AcDbLine
 10
12.423561087
 20
8.7328337301
 30
0.0
 11
12.3931014116
 21
8.7045799059
 31
0.0
  0
LINE
  5
485
330
1F
100
AcDbEntity
  8
TRMODEL1
  6
Continuous
 62
     4
100
AcDbLine
 10
12.3931014116
 20
8.7045799059
 30
0.0
 11
12.3614244067
 21
8.6826904002
 31
0.0
  0
LINE
  5
486
330
1F
100
AcDbEntity
  8
TRMODEL1
  6
Continuous
 62
     4
100
AcDbLine
 10
12.0908061224
 20
8.52646579
 30
0.0
 11
12.0908061224
 21
8.6514657925
 31
0.0
  0
LINE
  5
487
330
1F
100
AcDbEntity
  8
TRMODEL1
  6
Continuous
 62
     4
100
AcDbLine
 10
12.3614244067
 20
8.6826904002
 30
0.0
 11
12.0908061224
 21
8.52646579
 31
0.0
  0
LINE
  5
488
330
1F
100
AcDbEntity
  8
TRMODEL1
  6
Continuous
 62
     4
100
AcDbLine
 10
12.2640018243
 20
9.7389312798
 30
0.0
 11
12.3614244067
 21
9.6826904202
 31
0.0
  0
LINE
  5
489
330
1F
100
AcDbEntity
  8
TRMODEL1
  6
Continuous
 62
     4
100
AcDbLine
 10
12.4762286904
 20
9.6940588166
 30
0.0
 11
12.2640018243
 21
9.8165747786
 31
0.0
  0
LINE
  5
48A
330
1F
100
AcDbEntity
  8
TRMODEL1
  6
Continuous
 62
     4
100
AcDbLine
 10
12.3614156093
 20
9.5576853391
 30
0.0
 11
12.4155480635
 21
9.5264353384
 31
0.0
  0
LINE
  5
48B
330
1F
100
AcDbEntity
  8
TRMODEL1
  6
Continuous
 62
     4
100
AcDbLine
 10
12.264001825
 20
9.6889394041
 30
0.0
 11
12.3181254812
 21
9.6576944825
 31
0.0
  0
LINE
  5
48C
330
1F
100
AcDbEntity
  8
TRMODEL1
  6
Continuous
 62
     4
100
AcDbLine
 10
12.5237953772
 20
9.5889251825
 30
0.0
 11
12.5237953772
 21
8.96392517
 31
0.0
  0
LINE
  5
48D
330
1F
100
AcDbEntity
  8
TRMODEL1
  6
Continuous
 62
     4
100
AcDbLine
 10
12.3181254812
 20
9.6576944825
 30
0.0
 11
12.3614244067
 21
9.6826904202
 31
0.0
  0
LINE
  5
48E
330
1F
100
AcDbEntity
  8
TRMODEL1
  6
Continuous
 62
     4
100
AcDbLine
 10
12.3181254812
 20
9.53269448
 30
0.0
 11
12.3614244067
 21
9.5576904177
 31
0.0
  0
LINE
  5
48F
330
1F
100
AcDbEntity
  8
TRMODEL1
  6
Continuous
 62
     4
100
AcDbLine
 10
12.4155480635
 20
9.5264353384
 30
0.0
 11
12.4155480635
 21
8.9014353259
 31
0.0
  0
LINE
  5
490
330
1F
100
AcDbEntity
  8
TRMODEL1
  6
Continuous
 62
     4
100
AcDbLine
 10
12.4155480635
 20
8.9014353259
 30
0.0
 11
12.4145080926
 21
8.8886418182
 31
0.0
  0
LINE
  5
491
330
1F
100
AcDbEntity
  8
TRMODEL1
  6
Continuous
 62
     4
100
AcDbLine
 10
12.4145080926
 20
8.8886418182
 30
0.0
 11
12.4114281454
 21
8.8751392329
 31
0.0
  0
LINE
  5
492
330
1F
100
AcDbEntity
  8
TRMODEL1
  6
Continuous
 62
     4
100
AcDbLine
 10
12.4114281454
 20
8.8751392329
 30
0.0
 11
12.4064265826
 21
8.8614464669
 31
0.0
  0
LINE
  5
493
330
1F
100
AcDbEntity
  8
TRMODEL1
  6
Continuous
 62
     4
100
AcDbLine
 10
12.4064265826
 20
8.8614464669
 30
0.0
 11
12.3996956114
 21
8.8480897254
 31
0.0
  0
LINE
  5
494
330
1F
100
AcDbEntity
  8
TRMODEL1
  6
Continuous
 62
     4
100
AcDbLine
 10
12.3996956114
 20
8.8480897254
 30
0.0
 11
12.3914938993
 21
8.8355823007
 31
0.0
  0
LINE
  5
495
330
1F
100
AcDbEntity
  8
TRMODEL1
  6
Continuous
 62
     4
100
AcDbLine
 10
12.3914938993
 20
8.8355823007
 30
0.0
 11
12.3821366334
 21
8.824404846
 31
0.0
  0
LINE
  5
496
330
1F
100
AcDbEntity
  8
TRMODEL1
  6
Continuous
 62
     4
100
AcDbLine
 10
12.3821366334
 20
8.824404846
 30
0.0
 11
12.3719834083
 21
8.8149869046
 31
0.0
  0
LINE
  5
497
330
1F
100
AcDbEntity
  8
TRMODEL1
  6
Continuous
 62
     4
100
AcDbLine
 10
12.3719834083
 20
8.8149869046
 30
0.0
 11
12.3614244067
 21
8.8076904027
 31
0.0
  0
LINE
  5
498
330
1F
100
AcDbEntity
  8
TRMODEL1
  6
Continuous
 62
     4
100
AcDbLine
 10
12.3614244067
 20
9.5576904177
 30
0.0
 11
12.3719834083
 21
9.5625850796
 31
0.0
  0
LINE
  5
499
330
1F
100
AcDbEntity
  8
TRMODEL1
  6
Continuous
 62
     4
100
AcDbLine
 10
12.3719834083
 20
9.5625850796
 30
0.0
 11
12.3821366334
 21
9.5648898023
 31
0.0
  0
LINE
  5
49A
330
1F
100
AcDbEntity
  8
TRMODEL1
  6
Continuous
 62
     4
100
AcDbLine
 10
12.3821366334
 20
9.5648898023
 30
0.0
 11
12.3914938993
 21
9.5645160168
 31
0.0
  0
LINE
  5
49B
330
1F
100
AcDbEntity
  8
TRMODEL1
  6
Continuous
 62
     4
100
AcDbLine
 10
12.3914938993
 20
9.5645160168
 30
0.0
 11
12.3996956114
 21
9.5614780874
 31
0.0
  0
LINE
  5
49C
330
1F
100
AcDbEntity
  8
TRMODEL1
  6
Continuous
 62
     4
100
AcDbLine
 10
12.3996956114
 20
9.5614780874
 30
0.0
 11
12.4064265826
 21
9.5558927599
 31
0.0
  0
LINE
  5
49D
330
1F
100
AcDbEntity
  8
TRMODEL1
  6
Continuous
 62
     4
100
AcDbLine
 10
12.4064265826
 20
9.5558927599
 30
0.0
 11
12.4114281454
 21
9.5479746754
 31
0.0
  0
LINE
  5
49E
330
1F
100
AcDbEntity
  8
TRMODEL1
  6
Continuous
 62
     4
100
AcDbLine
 10
12.4114281454
 20
9.5479746754
 30
0.0
 11
12.4145080926
 21
9.5380281214
 31
0.0
  0
LINE
  5
49F
330
1F
100
AcDbEntity
  8
TRMODEL1
  6
Continuous
 62
     4
100
AcDbLine
 10
12.4145080926
 20
9.5380281214
 30
0.0
 11
12.4155480635
 21
9.5264353384
 31
0.0
  0
LINE
  5
4A0
330
1F
100
AcDbEntity
  8
TRMODEL1
  6
Continuous
 62
     4
100
AcDbLine
 10
12.1557545106
 20
9.6264597177
 30
0.0
 11
12.1588744233
 21
9.5916813688
 31
0.0
  0
LINE
  5
4A1
330
1F
100
AcDbEntity
  8
TRMODEL1
  6
Continuous
 62
     4
100
AcDbLine
 10
12.1588744233
 20
9.5916813688
 30
0.0
 11
12.1681142648
 21
9.5618417069
 31
0.0
  0
LINE
  5
4A2
330
1F
100
AcDbEntity
  8
TRMODEL1
  6
Continuous
 62
     4
100
AcDbLine
 10
12.1681142648
 20
9.5618417069
 30
0.0
 11
12.1831189532
 21
9.5380874534
 31
0.0
  0
LINE
  5
4A3
330
1F
100
AcDbEntity
  8
TRMODEL1
  6
Continuous
 62
     4
100
AcDbLine
 10
12.1831189532
 20
9.5380874534
 30
0.0
 11
12.2033118668
 21
9.5213314709
 31
0.0
  0
LINE
  5
4A4
330
1F
100
AcDbEntity
  8
TRMODEL1
  6
Continuous
 62
     4
100
AcDbLine
 10
12.2033118668
 20
9.5213314709
 30
0.0
 11
12.2279170032
 21
9.5122176825
 31
0.0
  0
LINE
  5
4A5
330
1F
100
AcDbEntity
  8
TRMODEL1
  6
Continuous
 62
     4
100
AcDbLine
 10
12.2279170032
 20
9.5122176825
 30
0.0
 11
12.2559888008
 21
9.5110963259
 31
0.0
  0
LINE
  5
4A6
330
1F
100
AcDbEntity
  8
TRMODEL1
  6
Continuous
 62
     4
100
AcDbLine
 10
12.2559888008
 20
9.5110963259
 30
0.0
 11
12.2864484762
 21
9.5180104943
 31
0.0
  0
LINE
  5
4A7
330
1F
100
AcDbEntity
  8
TRMODEL1
  6
Continuous
 62
     4
100
AcDbLine
 10
12.2864484762
 20
9.5180104943
 30
0.0
 11
12.3181254812
 21
9.53269448
 31
0.0
  0
LINE
  5
4A8
330
1F
100
AcDbEntity
  8
TRMODEL1
  6
Continuous
 62
     4
100
AcDbLine
 10
12.2640018243
 20
9.6889495617
 30
0.0
 11
12.2650417952
 21
9.6773567788
 31
0.0
  0
LINE
  5
4A9
330
1F
100
AcDbEntity
  8
TRMODEL1
  6
Continuous
 62
     4
100
AcDbLine
 10
12.2650417952
 20
9.6773567788
 30
0.0
 11
12.2681217424
 21
9.6674102248
 31
0.0
  0
LINE
  5
4AA
330
1F
100
AcDbEntity
  8
TRMODEL1
  6
Continuous
 62
     4
100
AcDbLine
 10
12.2681217424
 20
9.6674102248
 30
0.0
 11
12.2731233052
 21
9.6594921403
 31
0.0
  0
LINE
  5
4AB
330
1F
100
AcDbEntity
  8
TRMODEL1
  6
Continuous
 62
     4
100
AcDbLine
 10
12.2731233052
 20
9.6594921403
 30
0.0
 11
12.2798542764
 21
9.6539068128
 31
0.0
  0
LINE
  5
4AC
330
1F
100
AcDbEntity
  8
TRMODEL1
  6
Continuous
 62
     4
100
AcDbLine
 10
12.2798542764
 20
9.6539068128
 30
0.0
 11
12.2880559885
 21
9.6508688834
 31
0.0
  0
LINE
  5
4AD
330
1F
100
AcDbEntity
  8
TRMODEL1
  6
Continuous
 62
     4
100
AcDbLine
 10
12.2880559885
 20
9.6508688834
 30
0.0
 11
12.2974132544
 21
9.6504950978
 31
0.0
  0
LINE
  5
4AE
330
1F
100
AcDbEntity
  8
TRMODEL1
  6
Continuous
 62
     4
100
AcDbLine
 10
12.2974132544
 20
9.6504950978
 30
0.0
 11
12.3075664795
 21
9.6527998206
 31
0.0
  0
LINE
  5
4AF
330
1F
100
AcDbEntity
  8
TRMODEL1
  6
Continuous
 62
     4
100
AcDbLine
 10
12.3075664795
 20
9.6527998206
 30
0.0
 11
12.3181254812
 21
9.6576944825
 31
0.0
  0
LINE
  5
4B0
330
1F
100
AcDbEntity
  8
TRMODEL1
  6
Continuous
 62
     4
100
AcDbLine
 10
12.3614244067
 20
9.6826904202
 30
0.0
 11
12.3931014116
 21
9.6973744059
 31
0.0
  0
LINE
  5
4B1
330
1F
100
AcDbEntity
  8
TRMODEL1
  6
Continuous
 62
     4
100
AcDbLine
 10
12.3931014116
 20
9.6973744059
 30
0.0
 11
12.423561087
 21
9.7042885742
 31
0.0
  0
LINE
  5
4B2
330
1F
100
AcDbEntity
  8
TRMODEL1
  6
Continuous
 62
     4
100
AcDbLine
 10
12.423561087
 20
9.7042885742
 30
0.0
 11
12.4516328846
 21
9.7031672177
 31
0.0
  0
LINE
  5
4B3
330
1F
100
AcDbEntity
  8
TRMODEL1
  6
Continuous
 62
     4
100
AcDbLine
 10
12.4516328846
 20
9.7031672177
 30
0.0
 11
12.476238021
 21
9.6940534293
 31
0.0
  0
LINE
  5
4B4
330
1F
100
AcDbEntity
  8
TRMODEL1
  6
Continuous
 62
     4
100
AcDbLine
 10
12.476238021
 20
9.6940534293
 30
0.0
 11
12.4964309346
 21
9.6772974468
 31
0.0
  0
LINE
  5
4B5
330
1F
100
AcDbEntity
  8
TRMODEL1
  6
Continuous
 62
     4
100
AcDbLine
 10
12.4964309346
 20
9.6772974468
 30
0.0
 11
12.511435623
 21
9.6535431933
 31
0.0
  0
LINE
  5
4B6
330
1F
100
AcDbEntity
  8
TRMODEL1
  6
Continuous
 62
     4
100
AcDbLine
 10
12.511435623
 20
9.6535431933
 30
0.0
 11
12.5206754645
 21
9.6237035314
 31
0.0
  0
LINE
  5
4B7
330
1F
100
AcDbEntity
  8
TRMODEL1
  6
Continuous
 62
     4
100
AcDbLine
 10
12.5206754645
 20
9.6237035314
 30
0.0
 11
12.5237953772
 21
9.5889251825
 31
0.0
  0
LINE
  5
4B8
330
1F
100
AcDbEntity
  8
TRMODEL1
  6
Continuous
 62
     4
100
AcDbLine
 10
12.3614156093
 20
12.5576853991
 30
0.0
 11
12.4155480635
 21
12.5264353984
 31
0.0
  0
LINE
  5
4B9
330
1F
100
AcDbEntity
  8
TRMODEL1
  6
Continuous
 62
     4
100
AcDbLine
 10
12.3614244067
 20
11.6826904602
 30
0.0
 11
12.3181254812
 21
11.6576945225
 31
0.0
  0
LINE
  5
4BA
330
1F
100
AcDbEntity
  8
TRMODEL1
  6
Continuous
 62
     4
100
AcDbLine
 10
12.0908061224
 20
12.4014658675
 30
0.0
 11
12.0908061224
 21
12.52646587
 31
0.0
  0
LINE
  5
4BB
330
1F
100
AcDbEntity
  8
TRMODEL1
  6
Continuous
 62
     4
100
AcDbLine
 10
12.0908061224
 20
12.4014658675
 30
0.0
 11
12.3614244067
 21
12.5576904777
 31
0.0
  0
LINE
  5
4BC
330
1F
100
AcDbEntity
  8
TRMODEL1
  6
Continuous
 62
     4
100
AcDbLine
 10
12.4155480635
 20
12.5264353984
 30
0.0
 11
12.4155480635
 21
11.9014353859
 31
0.0
  0
LINE
  5
4BD
330
1F
100
AcDbEntity
  8
TRMODEL1
  6
Continuous
 62
     4
100
AcDbLine
 10
12.3614244067
 20
11.8076904627
 30
0.0
 11
12.3181254812
 21
11.782694525
 31
0.0
  0
LINE
  5
4BE
330
1F
100
AcDbEntity
  8
TRMODEL1
  6
Continuous
 62
     4
100
AcDbLine
 10
12.3181254812
 20
11.782694525
 30
0.0
 11
12.2864484762
 21
11.7608050193
 31
0.0
  0
LINE
  5
4BF
330
1F
100
AcDbEntity
  8
TRMODEL1
  6
Continuous
 62
     4
100
AcDbLine
 10
12.2864484762
 20
11.7608050193
 30
0.0
 11
12.2559888008
 21
11.7325511951
 31
0.0
  0
LINE
  5
4C0
330
1F
100
AcDbEntity
  8
TRMODEL1
  6
Continuous
 62
     4
100
AcDbLine
 10
12.2559888008
 20
11.7325511951
 30
0.0
 11
12.2279170032
 21
11.6990188309
 31
0.0
  0
LINE
  5
4C1
330
1F
100
AcDbEntity
  8
TRMODEL1
  6
Continuous
 62
     4
100
AcDbLine
 10
12.2279170032
 20
11.6990188309
 30
0.0
 11
12.2033118668
 21
11.6614965567
 31
0.0
  0
LINE
  5
4C2
330
1F
100
AcDbEntity
  8
TRMODEL1
  6
Continuous
 62
     4
100
AcDbLine
 10
12.2033118668
 20
11.6614965567
 30
0.0
 11
12.1831189532
 21
11.6214263324
 31
0.0
  0
LINE
  5
4C3
330
1F
100
AcDbEntity
  8
TRMODEL1
  6
Continuous
 62
     4
100
AcDbLine
 10
12.1831189532
 20
11.6214263324
 30
0.0
 11
12.1681142648
 21
11.5803480344
 31
0.0
  0
LINE
  5
4C4
330
1F
100
AcDbEntity
  8
TRMODEL1
  6
Continuous
 62
     4
100
AcDbLine
 10
12.1681142648
 20
11.5803480344
 30
0.0
 11
12.1588744233
 21
11.5398402785
 31
0.0
  0
LINE
  5
4C5
330
1F
100
AcDbEntity
  8
TRMODEL1
  6
Continuous
 62
     4
100
AcDbLine
 10
12.1588744233
 20
11.5398402785
 30
0.0
 11
12.1557545106
 21
11.5014597552
 31
0.0
  0
LINE
  5
4C6
330
1F
100
AcDbEntity
  8
TRMODEL1
  6
Continuous
 62
     4
100
AcDbLine
 10
12.4155480635
 20
11.9014353859
 30
0.0
 11
12.4145080926
 21
11.8886418782
 31
0.0
  0
LINE
  5
4C7
330
1F
100
AcDbEntity
  8
TRMODEL1
  6
Continuous
 62
     4
100
AcDbLine
 10
12.4145080926
 20
11.8886418782
 30
0.0
 11
12.4114281454
 21
11.8751392929
 31
0.0
  0
LINE
  5
4C8
330
1F
100
AcDbEntity
  8
TRMODEL1
  6
Continuous
 62
     4
100
AcDbLine
 10
12.4114281454
 20
11.8751392929
 30
0.0
 11
12.4064265826
 21
11.8614465269
 31
0.0
  0
LINE
  5
4C9
330
1F
100
AcDbEntity
  8
TRMODEL1
  6
Continuous
 62
     4
100
AcDbLine
 10
12.4064265826
 20
11.8614465269
 30
0.0
 11
12.3996956114
 21
11.8480897854
 31
0.0
  0
LINE
  5
4CA
330
1F
100
AcDbEntity
  8
TRMODEL1
  6
Continuous
 62
     4
100
AcDbLine
 10
12.3996956114
 20
11.8480897854
 30
0.0
 11
12.3914938993
 21
11.8355823607
 31
0.0
  0
LINE
  5
4CB
330
1F
100
AcDbEntity
  8
TRMODEL1
  6
Continuous
 62
     4
100
AcDbLine
 10
12.3914938993
 20
11.8355823607
 30
0.0
 11
12.3821366334
 21
11.824404906
 31
0.0
  0
LINE
  5
4CC
330
1F
100
AcDbEntity
  8
TRMODEL1
  6
Continuous
 62
     4
100
AcDbLine
 10
12.3821366334
 20
11.824404906
 30
0.0
 11
12.3719834083
 21
11.8149869646
 31
0.0
  0
LINE
  5
4CD
330
1F
100
AcDbEntity
  8
TRMODEL1
  6
Continuous
 62
     4
100
AcDbLine
 10
12.3719834083
 20
11.8149869646
 30
0.0
 11
12.3614244067
 21
11.8076904627
 31
0.0
  0
LINE
  5
4CE
330
1F
100
AcDbEntity
  8
TRMODEL1
  6
Continuous
 62
     4
100
AcDbLine
 10
12.3614244067
 20
12.5576904777
 30
0.0
 11
12.3719834083
 21
12.5625851396
 31
0.0
  0
LINE
  5
4CF
330
1F
100
AcDbEntity
  8
TRMODEL1
  6
Continuous
 62
     4
100
AcDbLine
 10
12.3719834083
 20
12.5625851396
 30
0.0
 11
12.3821366334
 21
12.5648898623
 31
0.0
  0
LINE
  5
4D0
330
1F
100
AcDbEntity
  8
TRMODEL1
  6
Continuous
 62
     4
100
AcDbLine
 10
12.3821366334
 20
12.5648898623
 30
0.0
 11
12.3914938993
 21
12.5645160768
 31
0.0
  0
LINE
  5
4D1
330
1F
100
AcDbEntity
  8
TRMODEL1
  6
Continuous
 62
     4
100
AcDbLine
 10
12.3914938993
 20
12.5645160768
 30
0.0
 11
12.3996956114
 21
12.5614781474
 31
0.0
  0
LINE
  5
4D2
330
1F
100
AcDbEntity
  8
TRMODEL1
  6
Continuous
 62
     4
100
AcDbLine
 10
12.3996956114
 20
12.5614781474
 30
0.0
 11
12.4064265826
 21
12.5558928199
 31
0.0
  0
LINE
  5
4D3
330
1F
100
AcDbEntity
  8
TRMODEL1
  6
Continuous
 62
     4
100
AcDbLine
 10
12.4064265826
 20
12.5558928199
 30
0.0
 11
12.4114281454
 21
12.5479747354
 31
0.0
  0
LINE
  5
4D4
330
1F
100
AcDbEntity
  8
TRMODEL1
  6
Continuous
 62
     4
100
AcDbLine
 10
12.4114281454
 20
12.5479747354
 30
0.0
 11
12.4145080926
 21
12.5380281814
 31
0.0
  0
LINE
  5
4D5
330
1F
100
AcDbEntity
  8
TRMODEL1
  6
Continuous
 62
     4
100
AcDbLine
 10
12.4145080926
 20
12.5380281814
 30
0.0
 11
12.4155480635
 21
12.5264353984
 31
0.0
  0
LINE
  5
4D6
330
1F
100
AcDbEntity
  8
TRMODEL1
  6
Continuous
 62
     4
100
AcDbLine
 10
12.5237953772
 20
11.96392523
 30
0.0
 11
12.5206754645
 21
11.9255447066
 31
0.0
  0
LINE
  5
4D7
330
1F
100
AcDbEntity
  8
TRMODEL1
  6
Continuous
 62
     4
100
AcDbLine
 10
12.5206754645
 20
11.9255447066
 30
0.0
 11
12.511435623
 21
11.8850369508
 31
0.0
  0
LINE
  5
4D8
330
1F
100
AcDbEntity
  8
TRMODEL1
  6
Continuous
 62
     4
100
AcDbLine
 10
12.511435623
 20
11.8850369508
 30
0.0
 11
12.4964309346
 21
11.8439586528
 31
0.0
  0
LINE
  5
4D9
330
1F
100
AcDbEntity
  8
TRMODEL1
  6
Continuous
 62
     4
100
AcDbLine
 10
12.4964309346
 20
11.8439586528
 30
0.0
 11
12.476238021
 21
11.8038884285
 31
0.0
  0
LINE
  5
4DA
330
1F
100
AcDbEntity
  8
TRMODEL1
  6
Continuous
 62
     4
100
AcDbLine
 10
12.476238021
 20
11.8038884285
 30
0.0
 11
12.4516328846
 21
11.7663661543
 31
0.0
  0
LINE
  5
4DB
330
1F
100
AcDbEntity
  8
TRMODEL1
  6
Continuous
 62
     4
100
AcDbLine
 10
12.4516328846
 20
11.7663661543
 30
0.0
 11
12.423561087
 21
11.7328337901
 31
0.0
  0
LINE
  5
4DC
330
1F
100
AcDbEntity
  8
TRMODEL1
  6
Continuous
 62
     4
100
AcDbLine
 10
12.423561087
 20
11.7328337901
 30
0.0
 11
12.3931014116
 21
11.7045799659
 31
0.0
  0
LINE
  5
4DD
330
1F
100
AcDbEntity
  8
TRMODEL1
  6
Continuous
 62
     4
100
AcDbLine
 10
12.3931014116
 20
11.7045799659
 30
0.0
 11
12.3614244067
 21
11.6826904602
 31
0.0
  0
LINE
  5
4DE
330
1F
100
AcDbEntity
  8
TRMODEL1
  6
Continuous
 62
     4
100
AcDbLine
 10
12.3181254812
 20
11.6576945225
 30
0.0
 11
12.3075664795
 21
11.6503980206
 31
0.0
  0
LINE
  5
4DF
330
1F
100
AcDbEntity
  8
TRMODEL1
  6
Continuous
 62
     4
100
AcDbLine
 10
12.3075664795
 20
11.6503980206
 30
0.0
 11
12.2974132544
 21
11.6409800792
 31
0.0
  0
LINE
  5
4E0
330
1F
100
AcDbEntity
  8
TRMODEL1
  6
Continuous
 62
     4
100
AcDbLine
 10
12.2974132544
 20
11.6409800792
 30
0.0
 11
12.2880559885
 21
11.6298026245
 31
0.0
  0
LINE
  5
4E1
330
1F
100
AcDbEntity
  8
TRMODEL1
  6
Continuous
 62
     4
100
AcDbLine
 10
12.2880559885
 20
11.6298026245
 30
0.0
 11
12.2798542764
 21
11.6172951997
 31
0.0
  0
LINE
  5
4E2
330
1F
100
AcDbEntity
  8
TRMODEL1
  6
Continuous
 62
     4
100
AcDbLine
 10
12.2798542764
 20
11.6172951997
 30
0.0
 11
12.2731233052
 21
11.6039384583
 31
0.0
  0
LINE
  5
4E3
330
1F
100
AcDbEntity
  8
TRMODEL1
  6
Continuous
 62
     4
100
AcDbLine
 10
12.2731233052
 20
11.6039384583
 30
0.0
 11
12.2681217424
 21
11.5902456923
 31
0.0
  0
LINE
  5
4E4
330
1F
100
AcDbEntity
  8
TRMODEL1
  6
Continuous
 62
     4
100
AcDbLine
 10
12.2681217424
 20
11.5902456923
 30
0.0
 11
12.2650417952
 21
11.576743107
 31
0.0
  0
LINE
  5
4E5
330
1F
100
AcDbEntity
  8
TRMODEL1
  6
Continuous
 62
     4
100
AcDbLine
 10
12.2650417952
 20
11.576743107
 30
0.0
 11
12.2640018243
 21
11.5639495992
 31
0.0
  0
LINE
  5
4E6
330
1F
100
AcDbEntity
  8
TRMODEL1
  6
Continuous
 62
     4
100
AcDbLine
 10
12.3614244067
 20
12.6826904802
 30
0.0
 11
12.3931014116
 21
12.6973744659
 31
0.0
  0
LINE
  5
4E7
330
1F
100
AcDbEntity
  8
TRMODEL1
  6
Continuous
 62
     4
100
AcDbLine
 10
12.3931014116
 20
12.6973744659
 30
0.0
 11
12.423561087
 21
12.7042886342
 31
0.0
  0
LINE
  5
4E8
330
1F
100
AcDbEntity
  8
TRMODEL1
  6
Continuous
 62
     4
100
AcDbLine
 10
12.423561087
 20
12.7042886342
 30
0.0
 11
12.4516328846
 21
12.7031672777
 31
0.0
  0
LINE
  5
4E9
330
1F
100
AcDbEntity
  8
TRMODEL1
  6
Continuous
 62
     4
100
AcDbLine
 10
12.4516328846
 20
12.7031672777
 30
0.0
 11
12.476238021
 21
12.6940534893
 31
0.0
  0
LINE
  5
4EA
330
1F
100
AcDbEntity
  8
TRMODEL1
  6
Continuous
 62
     4
100
AcDbLine
 10
12.476238021
 20
12.6940534893
 30
0.0
 11
12.4964309346
 21
12.6772975068
 31
0.0
  0
LINE
  5
4EB
330
1F
100
AcDbEntity
  8
TRMODEL1
  6
Continuous
 62
     4
100
AcDbLine
 10
12.4964309346
 20
12.6772975068
 30
0.0
 11
12.511435623
 21
12.6535432533
 31
0.0
  0
LINE
  5
4EC
330
1F
100
AcDbEntity
  8
TRMODEL1
  6
Continuous
 62
     4
100
AcDbLine
 10
12.511435623
 20
12.6535432533
 30
0.0
 11
12.5206754645
 21
12.6237035914
 31
0.0
  0
LINE
  5
4ED
330
1F
100
AcDbEntity
  8
TRMODEL1
  6
Continuous
 62
     4
100
AcDbLine
 10
12.5206754645
 20
12.6237035914
 30
0.0
 11
12.5237953772
 21
12.5889252425
 31
0.0
  0
LINE
  5
4EE
330
1F
100
AcDbEntity
  8
TRMODEL1
  6
Continuous
 62
     2
100
AcDbLine
 10
13.9649423631
 20
9.0151260057
 30
0.0
 11
14.1059105616
 21
9.2592900879
 31
0.0
  0
LINE
  5
4EF
330
1F
100
AcDbEntity
  8
TRMODEL1
  6
Continuous
 62
     2
100
AcDbLine
 10
13.8261865724
 20
9.0247939265
 30
0.0
 11
14.180901013
 21
9.6391773598
 31
0.0
  0
LINE
  5
4F0
330
1F
100
AcDbEntity
  8
TRMODEL1
  6
Continuous
 62
     2
100
AcDbLine
 10
13.8088365641
 20
9.2447428305
 30
0.0
 11
14.1136752784
 21
9.7727389718
 31
0.0
  0
LINE
  5
4F1
330
1F
100
AcDbEntity
  8
TRMODEL1
  6
Continuous
 62
     2
100
AcDbLine
 10
13.7513271264
 20
9.3951335626
 30
0.0
 11
13.9553785973
 21
9.7485610775
 31
0.0
  0
LINE
  5
4F2
330
1F
100
AcDbEntity
  8
TRMODEL1
  6
Continuous
 62
     2
100
AcDbLine
 10
13.8654114061
 20
6.5369219545
 30
0.0
 11
14.1305764491
 21
6.9962012813
 31
0.0
  0
LINE
  5
4F3
330
1F
100
AcDbEntity
  8
TRMODEL1
  6
Continuous
 62
     2
100
AcDbLine
 10
13.8654114061
 20
6.7874219545
 30
0.0
 11
14.1305764491
 21
7.2467012813
 31
0.0
  0
LINE
  5
4F4
330
1F
100
AcDbEntity
  8
TRMODEL1
  6
Continuous
 62
     2
100
AcDbLine
 10
13.8654114061
 20
7.0379219545
 30
0.0
 11
14.1305764491
 21
7.4972012813
 31
0.0
  0
LINE
  5
4F5
330
1F
100
AcDbEntity
  8
TRMODEL1
  6
Continuous
 62
     2
100
AcDbLine
 10
13.8654114061
 20
7.2884219545
 30
0.0
 11
14.1305764491
 21
7.7477012813
 31
0.0
  0
LINE
  5
4F6
330
1F
100
AcDbEntity
  8
TRMODEL1
  6
Continuous
 62
     2
100
AcDbLine
 10
13.8654114061
 20
7.5389219545
 30
0.0
 11
14.1305764491
 21
7.9982012813
 31
0.0
  0
LINE
  5
4F7
330
1F
100
AcDbEntity
  8
TRMODEL1
  6
Continuous
 62
     2
100
AcDbLine
 10
13.8654114061
 20
7.7894219545
 30
0.0
 11
14.1305764491
 21
8.2487012813
 31
0.0
  0
LINE
  5
4F8
330
1F
100
AcDbEntity
  8
TRMODEL1
  6
Continuous
 62
     2
100
AcDbLine
 10
14.2518082961
 20
8.7091809998
 30
0.0
 11
14.5169733378
 21
9.1684603246
 31
0.0
  0
LINE
  5
4F9
330
1F
100
AcDbEntity
  8
TRMODEL1
  6
Continuous
 62
     2
100
AcDbLine
 10
13.8654114061
 20
8.0399219545
 30
0.0
 11
14.1305764491
 21
8.4992012813
 31
0.0
  0
LINE
  5
4FA
330
1F
100
AcDbEntity
  8
TRMODEL1
  6
Continuous
 62
     2
100
AcDbLine
 10
13.8654114061
 20
8.2904219545
 30
0.0
 11
14.3000457265
 21
9.0432306801
 31
0.0
  0
LINE
  5
4FB
330
1F
100
AcDbEntity
  8
TRMODEL1
  6
Continuous
 62
     2
100
AcDbLine
 10
13.8147094624
 20
8.4531036119
 30
0.0
 11
14.0831181151
 21
8.9180010357
 31
0.0
  0
LINE
  5
4FC
330
1F
100
AcDbEntity
  8
TRMODEL1
  6
Continuous
 62
     2
100
AcDbLine
 10
13.601025462
 20
8.3334920664
 30
0.0
 11
13.8661905037
 21
8.7927713912
 31
0.0
  0
LINE
  5
4FD
330
1F
100
AcDbEntity
  8
TRMODEL1
  6
Continuous
 62
     2
100
AcDbLine
 10
13.3840978506
 20
8.208262422
 30
0.0
 11
13.6198637076
 21
8.616620865
 31
0.0
  0
LINE
  5
4FE
330
1F
100
AcDbEntity
  8
TRMODEL1
  6
Continuous
 62
     2
100
AcDbLine
 10
13.1671702392
 20
8.0830327775
 30
0.0
 11
13.432335281
 21
8.5423121023
 31
0.0
  0
LINE
  5
4FF
330
1F
100
AcDbEntity
  8
TRMODEL1
  6
Continuous
 62
     2
100
AcDbLine
 10
12.9502426279
 20
7.9578031331
 30
0.0
 11
13.2154076696
 21
8.4170824578
 31
0.0
  0
LINE
  5
500
330
1F
100
AcDbEntity
  8
TRMODEL1
  6
Continuous
 62
     4
100
AcDbLine
 10
14.1305764491
 20
8.557541263
 30
0.0
 11
14.1319351349
 21
8.5742555367
 31
0.0
  0
LINE
  5
501
330
1F
100
AcDbEntity
  8
TRMODEL1
  6
Continuous
 62
     4
100
AcDbLine
 10
14.1319351349
 20
8.5742555367
 30
0.0
 11
14.1359589789
 21
8.5918961954
 31
0.0
  0
LINE
  5
502
330
1F
100
AcDbEntity
  8
TRMODEL1
  6
Continuous
 62
     4
100
AcDbLine
 10
14.1359589789
 20
8.5918961954
 30
0.0
 11
14.142493347
 21
8.6097853187
 31
0.0
  0
LINE
  5
503
330
1F
100
AcDbEntity
  8
TRMODEL1
  6
Continuous
 62
     4
100
AcDbLine
 10
14.142493347
 20
8.6097853187
 30
0.0
 11
14.1512871272
 21
8.6272354375
 31
0.0
  0
LINE
  5
504
330
1F
100
AcDbEntity
  8
TRMODEL1
  6
Continuous
 62
     4
100
AcDbLine
 10
14.1512871272
 20
8.6272354375
 30
0.0
 11
14.1620023793
 21
8.6435759536
 31
0.0
  0
LINE
  5
505
330
1F
100
AcDbEntity
  8
TRMODEL1
  6
Continuous
 62
     4
100
AcDbLine
 10
14.1620023793
 20
8.6435759536
 30
0.0
 11
14.1742273222
 21
8.6581789101
 31
0.0
  0
LINE
  5
506
330
1F
100
AcDbEntity
  8
TRMODEL1
  6
Continuous
 62
     4
100
AcDbLine
 10
14.1742273222
 20
8.6581789101
 30
0.0
 11
14.1874921582
 21
8.6704831235
 31
0.0
  0
LINE
  5
507
330
1F
100
AcDbEntity
  8
TRMODEL1
  6
Continuous
 62
     4
100
AcDbLine
 10
14.1874921582
 20
8.6704831235
 30
0.0
 11
14.2012871272
 21
8.6800157498
 31
0.0
  0
LINE
  5
508
330
1F
100
AcDbEntity
  8
TRMODEL1
  6
Continuous
 62
     4
100
AcDbLine
 10
13.8654114061
 20
8.4044647421
 30
0.0
 11
13.7946892346
 21
8.4452917827
 31
0.0
  0
LINE
  5
509
330
1F
100
AcDbEntity
  8
TRMODEL1
  6
Continuous
 62
     4
100
AcDbLine
 10
13.794700728
 20
8.4452984177
 30
0.0
 11
13.808495697
 21
8.4516931235
 31
0.0
  0
LINE
  5
50A
330
1F
100
AcDbEntity
  8
TRMODEL1
  6
Continuous
 62
     4
100
AcDbLine
 10
13.808495697
 20
8.4516931235
 30
0.0
 11
13.821760533
 21
8.4547041637
 31
0.0
  0
LINE
  5
50B
330
1F
100
AcDbEntity
  8
TRMODEL1
  6
Continuous
 62
     4
100
AcDbLine
 10
13.821760533
 20
8.4547041637
 30
0.0
 11
13.8339854759
 21
8.4542158259
 31
0.0
  0
LINE
  5
50C
330
1F
100
AcDbEntity
  8
TRMODEL1
  6
Continuous
 62
     4
100
AcDbLine
 10
13.8339854759
 20
8.4542158259
 30
0.0
 11
13.844700728
 21
8.4502468766
 31
0.0
  0
LINE
  5
50D
330
1F
100
AcDbEntity
  8
TRMODEL1
  6
Continuous
 62
     4
100
AcDbLine
 10
13.844700728
 20
8.4502468766
 30
0.0
 11
13.8534945081
 21
8.4429498402
 31
0.0
  0
LINE
  5
50E
330
1F
100
AcDbEntity
  8
TRMODEL1
  6
Continuous
 62
     4
100
AcDbLine
 10
13.8534945081
 20
8.4429498402
 30
0.0
 11
13.8600288762
 21
8.4326051378
 31
0.0
  0
LINE
  5
50F
330
1F
100
AcDbEntity
  8
TRMODEL1
  6
Continuous
 62
     4
100
AcDbLine
 10
13.8600288762
 20
8.4326051378
 30
0.0
 11
13.8640527203
 21
8.4196103104
 31
0.0
  0
LINE
  5
510
330
1F
100
AcDbEntity
  8
TRMODEL1
  6
Continuous
 62
     4
100
AcDbLine
 10
13.8640527203
 20
8.4196103104
 30
0.0
 11
13.8654114061
 21
8.4044647421
 31
0.0
  0
LINE
  5
511
330
1F
100
AcDbEntity
  8
TRMODEL1
  6
Continuous
 62
     2
100
AcDbLine
 10
13.8532214009
 20
9.2276806238
 30
0.0
 11
13.8261865724
 21
9.1604948261
 31
0.0
  0
LINE
  5
512
330
1F
100
AcDbEntity
  8
TRMODEL1
  6
Continuous
 62
     2
100
AcDbLine
 10
14.1059105616
 20
9.0965052146
 30
0.0
 11
14.1059105616
 21
9.3219760478
 31
0.0
  0
LINE
  5
513
330
1F
100
AcDbEntity
  8
TRMODEL1
  6
Continuous
 62
     2
100
AcDbLine
 10
13.8261865724
 20
9.1604948261
 30
0.0
 11
13.8261865724
 21
8.9350239928
 31
0.0
  0
LINE
  5
514
330
1F
100
AcDbEntity
  8
TRMODEL1
  6
Continuous
 62
     2
100
AcDbLine
 10
13.8261865724
 20
8.9350239928
 30
0.0
 11
14.1059105616
 21
9.0965052146
 31
0.0
  0
LINE
  5
515
330
1F
100
AcDbEntity
  8
TRMODEL1
  6
Continuous
 62
     2
100
AcDbLine
 10
14.0788757331
 20
9.357948097
 30
0.0
 11
14.1189139679
 21
9.4173975474
 31
0.0
  0
LINE
  5
516
330
1F
100
AcDbEntity
  8
TRMODEL1
  6
Continuous
 62
     2
100
AcDbLine
 10
14.1189139679
 20
9.4173975474
 30
0.0
 11
14.1504946109
 21
9.4817590654
 31
0.0
  0
LINE
  5
517
330
1F
100
AcDbEntity
  8
TRMODEL1
  6
Continuous
 62
     2
100
AcDbLine
 10
14.1504946109
 20
9.4817590654
 30
0.0
 11
14.1718703984
 21
9.5474717181
 31
0.0
  0
LINE
  5
518
330
1F
100
AcDbEntity
  8
TRMODEL1
  6
Continuous
 62
     2
100
AcDbLine
 10
14.1718703984
 20
9.5474717181
 30
0.0
 11
14.181858671
 21
9.6108998183
 31
0.0
  0
LINE
  5
519
330
1F
100
AcDbEntity
  8
TRMODEL1
  6
Continuous
 62
     2
100
AcDbLine
 10
14.181858671
 20
9.6108998183
 30
0.0
 11
14.1799068072
 21
9.6685340762
 31
0.0
  0
LINE
  5
51A
330
1F
100
AcDbEntity
  8
TRMODEL1
  6
Continuous
 62
     2
100
AcDbLine
 10
14.1799068072
 20
9.6685340762
 30
0.0
 11
14.1661227977
 21
9.7171857584
 31
0.0
  0
LINE
  5
51B
330
1F
100
AcDbEntity
  8
TRMODEL1
  6
Continuous
 62
     2
100
AcDbLine
 10
14.1661227977
 20
9.7171857584
 30
0.0
 11
14.1412692712
 21
9.7541631107
 31
0.0
  0
LINE
  5
51C
330
1F
100
AcDbEntity
  8
TRMODEL1
  6
Continuous
 62
     2
100
AcDbLine
 10
14.1412692712
 20
9.7541631107
 30
0.0
 11
14.1067213
 21
9.7774202854
 31
0.0
  0
LINE
  5
51D
330
1F
100
AcDbEntity
  8
TRMODEL1
  6
Continuous
 62
     2
100
AcDbLine
 10
14.1067213
 20
9.7774202854
 30
0.0
 11
14.0643903214
 21
9.7856705316
 31
0.0
  0
LINE
  5
51E
330
1F
100
AcDbEntity
  8
TRMODEL1
  6
Continuous
 62
     2
100
AcDbLine
 10
14.0643903214
 20
9.7856705316
 30
0.0
 11
14.0166183836
 21
9.7784573875
 31
0.0
  0
LINE
  5
51F
330
1F
100
AcDbEntity
  8
TRMODEL1
  6
Continuous
 62
     2
100
AcDbLine
 10
14.0166183836
 20
9.7784573875
 30
0.0
 11
13.966048567
 21
9.7561799351
 31
0.0
  0
LINE
  5
520
330
1F
100
AcDbEntity
  8
TRMODEL1
  6
Continuous
 62
     2
100
AcDbLine
 10
13.966048567
 20
9.7561799351
 30
0.0
 11
13.9154787504
 21
9.7200707201
 31
0.0
  0
LINE
  5
521
330
1F
100
AcDbEntity
  8
TRMODEL1
  6
Continuous
 62
     2
100
AcDbLine
 10
13.9154787504
 20
9.7200707201
 30
0.0
 11
13.8677068126
 21
9.6721275589
 31
0.0
  0
LINE
  5
522
330
1F
100
AcDbEntity
  8
TRMODEL1
  6
Continuous
 62
     2
100
AcDbLine
 10
13.8677068126
 20
9.6721275589
 30
0.0
 11
13.825375834
 21
9.6150030051
 31
0.0
  0
LINE
  5
523
330
1F
100
AcDbEntity
  8
TRMODEL1
  6
Continuous
 62
     2
100
AcDbLine
 10
13.825375834
 20
9.6150030051
 30
0.0
 11
13.7908278628
 21
9.5518575918
 31
0.0
  0
LINE
  5
524
330
1F
100
AcDbEntity
  8
TRMODEL1
  6
Continuous
 62
     2
100
AcDbLine
 10
13.7908278628
 20
9.5518575918
 30
0.0
 11
13.7659743363
 21
9.4861849686
 31
0.0
  0
LINE
  5
525
330
1F
100
AcDbEntity
  8
TRMODEL1
  6
Continuous
 62
     2
100
AcDbLine
 10
13.7659743363
 20
9.4861849686
 30
0.0
 11
13.7521903268
 21
9.4216186078
 31
0.0
  0
LINE
  5
526
330
1F
100
AcDbEntity
  8
TRMODEL1
  6
Continuous
 62
     2
100
AcDbLine
 10
13.7521903268
 20
9.4216186078
 30
0.0
 11
13.750238463
 21
9.3617307759
 31
0.0
  0
LINE
  5
527
330
1F
100
AcDbEntity
  8
TRMODEL1
  6
Continuous
 62
     2
100
AcDbLine
 10
13.750238463
 20
9.3617307759
 30
0.0
 11
13.7602267356
 21
9.3098348899
 31
0.0
  0
LINE
  5
528
330
1F
100
AcDbEntity
  8
TRMODEL1
  6
Continuous
 62
     2
100
AcDbLine
 10
13.7602267356
 20
9.3098348899
 30
0.0
 11
13.7816025231
 21
9.2688021961
 31
0.0
  0
LINE
  5
529
330
1F
100
AcDbEntity
  8
TRMODEL1
  6
Continuous
 62
     2
100
AcDbLine
 10
13.7816025231
 20
9.2688021961
 30
0.0
 11
13.8131831661
 21
9.2409029124
 31
0.0
  0
LINE
  5
52A
330
1F
100
AcDbEntity
  8
TRMODEL1
  6
Continuous
 62
     2
100
AcDbLine
 10
13.8131831661
 20
9.2409029124
 30
0.0
 11
13.8532214009
 21
9.2276806238
 31
0.0
  0
LINE
  5
52B
330
1F
100
AcDbEntity
  8
TRMODEL1
  6
Continuous
 62
     2
100
AcDbLine
 10
14.1059105616
 20
9.3219760478
 30
0.0
 11
14.0788757331
 21
9.357948097
 31
0.0
  0
LINE
  5
52C
330
1F
100
AcDbEntity
  8
TRMODEL1
  6
Continuous
 62
     2
100
AcDbLine
 10
13.81318422
 20
9.2409019813
 30
0.0
 11
13.3037281188
 21
9.5350047284
 31
0.0
  0
LINE
  5
52D
330
1F
100
AcDbEntity
  8
TRMODEL1
  6
Continuous
 62
     2
100
AcDbLine
 10
13.3169384994
 20
9.2290066477
 30
0.0
 11
13.3169384994
 21
9.454477481
 31
0.0
  0
LINE
  5
52E
330
1F
100
AcDbEntity
  8
TRMODEL1
  6
Continuous
 62
     2
100
AcDbLine
 10
13.3169384994
 20
9.454477481
 30
0.0
 11
13.3407433547
 21
9.5136362876
 31
0.0
  0
LINE
  5
52F
330
1F
100
AcDbEntity
  8
TRMODEL1
  6
Continuous
 62
     2
100
AcDbLine
 10
13.3169384994
 20
9.454477481
 30
0.0
 11
13.8261865724
 21
9.1604948261
 31
0.0
  0
LINE
  5
530
330
1F
100
AcDbEntity
  8
TRMODEL1
  6
Continuous
 62
     2
100
AcDbLine
 10
13.3169384994
 20
9.2290066477
 30
0.0
 11
13.8261865724
 21
8.9350239928
 31
0.0
  0
LINE
  5
531
330
1F
100
AcDbEntity
  8
TRMODEL1
  6
Continuous
 62
     2
100
AcDbLine
 10
13.6098728693
 20
10.0653204516
 30
0.0
 11
14.1020191749
 21
9.7812104369
 31
0.0
  0
LINE
  5
532
330
1F
100
AcDbEntity
  8
TRMODEL1
  6
Continuous
 62
     2
100
AcDbLine
 10
13.3037281188
 20
9.5350047284
 30
0.0
 11
13.2723544501
 21
9.562784851
 31
0.0
  0
LINE
  5
533
330
1F
100
AcDbEntity
  8
TRMODEL1
  6
Continuous
 62
     2
100
AcDbLine
 10
13.2723544501
 20
9.562784851
 30
0.0
 11
13.2509786627
 21
9.6038175448
 31
0.0
  0
LINE
  5
534
330
1F
100
AcDbEntity
  8
TRMODEL1
  6
Continuous
 62
     2
100
AcDbLine
 10
13.2509786627
 20
9.6038175448
 30
0.0
 11
13.24099039
 21
9.6557134308
 31
0.0
  0
LINE
  5
535
330
1F
100
AcDbEntity
  8
TRMODEL1
  6
Continuous
 62
     2
100
AcDbLine
 10
13.24099039
 20
9.6557134308
 30
0.0
 11
13.2429422539
 21
9.7156012628
 31
0.0
  0
LINE
  5
536
330
1F
100
AcDbEntity
  8
TRMODEL1
  6
Continuous
 62
     2
100
AcDbLine
 10
13.2429422539
 20
9.7156012628
 30
0.0
 11
13.2567262633
 21
9.7801676235
 31
0.0
  0
LINE
  5
537
330
1F
100
AcDbEntity
  8
TRMODEL1
  6
Continuous
 62
     2
100
AcDbLine
 10
13.2567262633
 20
9.7801676235
 30
0.0
 11
13.2815797898
 21
9.8458402468
 31
0.0
  0
LINE
  5
538
330
1F
100
AcDbEntity
  8
TRMODEL1
  6
Continuous
 62
     2
100
AcDbLine
 10
13.2815797898
 20
9.8458402468
 30
0.0
 11
13.316127761
 21
9.90898566
 31
0.0
  0
LINE
  5
539
330
1F
100
AcDbEntity
  8
TRMODEL1
  6
Continuous
 62
     2
100
AcDbLine
 10
13.316127761
 20
9.90898566
 30
0.0
 11
13.3584587397
 21
9.9661102138
 31
0.0
  0
LINE
  5
53A
330
1F
100
AcDbEntity
  8
TRMODEL1
  6
Continuous
 62
     2
100
AcDbLine
 10
13.3584587397
 20
9.9661102138
 30
0.0
 11
13.4062306775
 21
10.014053375
 31
0.0
  0
LINE
  5
53B
330
1F
100
AcDbEntity
  8
TRMODEL1
  6
Continuous
 62
     2
100
AcDbLine
 10
13.4062306775
 20
10.014053375
 30
0.0
 11
13.456800494
 21
10.05016259
 31
0.0
  0
LINE
  5
53C
330
1F
100
AcDbEntity
  8
TRMODEL1
  6
Continuous
 62
     2
100
AcDbLine
 10
13.456800494
 20
10.05016259
 30
0.0
 11
13.5073703106
 21
10.0724400425
 31
0.0
  0
LINE
  5
53D
330
1F
100
AcDbEntity
  8
TRMODEL1
  6
Continuous
 62
     2
100
AcDbLine
 10
13.5073703106
 20
10.0724400425
 30
0.0
 11
13.5551422484
 21
10.0796531866
 31
0.0
  0
LINE
  5
53E
330
1F
100
AcDbEntity
  8
TRMODEL1
  6
Continuous
 62
     2
100
AcDbLine
 10
13.5551422484
 20
10.0796531866
 30
0.0
 11
13.597473227
 21
10.0714029404
 31
0.0
  0
LINE
  5
53F
330
1F
100
AcDbEntity
  8
TRMODEL1
  6
Continuous
 62
     2
100
AcDbLine
 10
13.597473227
 20
10.0714029404
 30
0.0
 11
13.6098728693
 21
10.0653204516
 31
0.0
  0
LINE
  5
540
330
1F
100
AcDbEntity
  8
TRMODEL1
  6
Continuous
 62
     4
100
AcDbLine
 10
13.2565574774
 20
6.718750125
 30
0.0
 11
13.2565574774
 21
8.1346349318
 31
0.0
  0
LINE
  5
541
330
1F
100
AcDbEntity
  8
TRMODEL1
  6
Continuous
 62
     2
100
AcDbLine
 10
16.4525855112
 20
3.7535389525
 30
0.0
 11
16.7177505529
 21
4.2128182772
 31
0.0
  0
LINE
  5
542
330
1F
100
AcDbEntity
  8
TRMODEL1
  6
Continuous
 62
     2
100
AcDbLine
 10
16.2356578998
 20
3.628309308
 30
0.0
 11
16.5008229416
 21
4.0875886328
 31
0.0
  0
LINE
  5
543
330
1F
100
AcDbEntity
  8
TRMODEL1
  6
Continuous
 62
     2
100
AcDbLine
 10
16.0187302884
 20
3.5030796636
 30
0.0
 11
16.2838953302
 21
3.9623589883
 31
0.0
  0
LINE
  5
544
330
1F
100
AcDbEntity
  8
TRMODEL1
  6
Continuous
 62
     2
100
AcDbLine
 10
15.8018026771
 20
3.3778500191
 30
0.0
 11
16.0669677188
 21
3.8371293439
 31
0.0
  0
LINE
  5
545
330
1F
100
AcDbEntity
  8
TRMODEL1
  6
Continuous
 62
     2
100
AcDbLine
 10
15.5848750657
 20
3.2526203747
 30
0.0
 11
15.8500401075
 21
3.7118996994
 31
0.0
  0
LINE
  5
546
330
1F
100
AcDbEntity
  8
TRMODEL1
  6
Continuous
 62
     2
100
AcDbLine
 10
15.3679474543
 20
3.1273907302
 30
0.0
 11
15.6331124961
 21
3.586670055
 31
0.0
  0
LINE
  5
547
330
1F
100
AcDbEntity
  8
TRMODEL1
  6
Continuous
 62
     2
100
AcDbLine
 10
15.151019843
 20
3.0021610858
 30
0.0
 11
15.4161848847
 21
3.4614404105
 31
0.0
  0
LINE
  5
548
330
1F
100
AcDbEntity
  8
TRMODEL1
  6
Continuous
 62
     2
100
AcDbLine
 10
14.9340922316
 20
2.8769314413
 30
0.0
 11
15.1992572734
 21
3.3362107661
 31
0.0
  0
LINE
  5
549
330
1F
100
AcDbEntity
  8
TRMODEL1
  6
Continuous
 62
     2
100
AcDbLine
 10
14.7171646202
 20
2.7517017969
 30
0.0
 11
14.982329662
 21
3.2109811216
 31
0.0
  0
LINE
  5
54A
330
1F
100
AcDbEntity
  8
TRMODEL1
  6
Continuous
 62
     2
100
AcDbLine
 10
16.6695131225
 20
3.8787685969
 30
0.0
 11
16.8264210523
 21
4.1505411035
 31
0.0
  0
LINE
  5
54B
330
1F
100
AcDbEntity
  8
TRMODEL1
  6
Continuous
 62
     4
100
AcDbLine
 10
16.8264210523
 20
3.9693496167
 30
0.0
 11
16.8264210523
 21
4.19389834
 31
0.0
  0
LINE
  5
54C
330
1F
100
AcDbEntity
  8
TRMODEL1
  6
Continuous
 62
     4
100
AcDbLine
 10
16.8264210523
 20
4.19389834
 30
0.0
 11
16.8250623665
 21
4.2090439084
 31
0.0
  0
LINE
  5
54D
330
1F
100
AcDbEntity
  8
TRMODEL1
  6
Continuous
 62
     4
100
AcDbLine
 10
16.8250623665
 20
4.2090439084
 30
0.0
 11
16.8210385225
 21
4.2220387357
 31
0.0
  0
LINE
  5
54E
330
1F
100
AcDbEntity
  8
TRMODEL1
  6
Continuous
 62
     4
100
AcDbLine
 10
16.8210385225
 20
4.2220387357
 30
0.0
 11
16.8145041543
 21
4.2323834381
 31
0.0
  0
LINE
  5
54F
330
1F
100
AcDbEntity
  8
TRMODEL1
  6
Continuous
 62
     4
100
AcDbLine
 10
16.8145041543
 20
4.2323834381
 30
0.0
 11
16.8057103727
 21
4.2396804758
 31
0.0
  0
LINE
  5
550
330
1F
100
AcDbEntity
  8
TRMODEL1
  6
Continuous
 62
     4
100
AcDbLine
 10
16.8057103727
 20
4.2396804758
 30
0.0
 11
16.7949951221
 21
4.2436494239
 31
0.0
  0
LINE
  5
551
330
1F
100
AcDbEntity
  8
TRMODEL1
  6
Continuous
 62
     4
100
AcDbLine
 10
16.7949951221
 20
4.2436494239
 30
0.0
 11
16.7827701792
 21
4.2441377617
 31
0.0
  0
LINE
  5
552
330
1F
100
AcDbEntity
  8
TRMODEL1
  6
Continuous
 62
     4
100
AcDbLine
 10
16.7827701792
 20
4.2441377617
 30
0.0
 11
16.7695053432
 21
4.2411267214
 31
0.0
  0
LINE
  5
553
330
1F
100
AcDbEntity
  8
TRMODEL1
  6
Continuous
 62
     4
100
AcDbLine
 10
16.7695053432
 20
4.2411267214
 30
0.0
 11
16.7557103742
 21
4.2347320156
 31
0.0
  0
LINE
  5
554
330
1F
100
AcDbEntity
  8
TRMODEL1
  6
Continuous
 62
     2
100
AcDbLine
 10
16.4210844098
 20
9.9614774444
 30
0.0
 11
16.6862494515
 21
10.4207567691
 31
0.0
  0
LINE
  5
555
330
1F
100
AcDbEntity
  8
TRMODEL1
  6
Continuous
 62
     2
100
AcDbLine
 10
16.2041567984
 20
9.8362477999
 30
0.0
 11
16.4693218402
 21
10.2955271247
 31
0.0
  0
LINE
  5
556
330
1F
100
AcDbEntity
  8
TRMODEL1
  6
Continuous
 62
     4
100
AcDbLine
 10
16.8264210523
 20
10.5016761118
 30
0.0
 11
15.4964494215
 21
11.2694523918
 31
0.0
  0
LINE
  5
557
330
1F
100
AcDbEntity
  8
TRMODEL1
  6
Continuous
 62
     2
100
AcDbLine
 10
15.987229187
 20
9.7110181555
 30
0.0
 11
16.2523942288
 21
10.1702974802
 31
0.0
  0
LINE
  5
558
330
1F
100
AcDbEntity
  8
TRMODEL1
  6
Continuous
 62
     2
100
AcDbLine
 10
15.7703015757
 20
9.585788511
 30
0.0
 11
16.0354666174
 21
10.0450678357
 31
0.0
  0
LINE
  5
559
330
1F
100
AcDbEntity
  8
TRMODEL1
  6
Continuous
 62
     2
100
AcDbLine
 10
15.5533739643
 20
9.4605588665
 30
0.0
 11
15.8185390061
 21
9.9198381913
 31
0.0
  0
LINE
  5
55A
330
1F
100
AcDbEntity
  8
TRMODEL1
  6
Continuous
 62
     2
100
AcDbLine
 10
15.3364463529
 20
9.3353292221
 30
0.0
 11
15.6016113947
 21
9.7946085468
 31
0.0
  0
LINE
  5
55B
330
1F
100
AcDbEntity
  8
TRMODEL1
  6
Continuous
 62
     2
100
AcDbLine
 10
15.1195187415
 20
9.2100995776
 30
0.0
 11
15.3846837833
 21
9.6693789024
 31
0.0
  0
LINE
  5
55C
330
1F
100
AcDbEntity
  8
TRMODEL1
  6
Continuous
 62
     2
100
AcDbLine
 10
14.9025911302
 20
9.0848699332
 30
0.0
 11
15.167756172
 21
9.5441492579
 31
0.0
  0
LINE
  5
55D
330
1F
100
AcDbEntity
  8
TRMODEL1
  6
Continuous
 62
     2
100
AcDbLine
 10
14.6856635188
 20
8.9596402887
 30
0.0
 11
14.9508285606
 21
9.4189196135
 31
0.0
  0
LINE
  5
55E
330
1F
100
AcDbEntity
  8
TRMODEL1
  6
Continuous
 62
     2
100
AcDbLine
 10
15.1547873468
 20
12.6676843603
 30
0.0
 11
15.1547873468
 21
12.5926843603
 31
0.0
  0
LINE
  5
55F
330
1F
100
AcDbEntity
  8
TRMODEL1
  6
Continuous
 62
     2
100
AcDbLine
 10
14.9491174549
 20
12.4532406006
 30
0.0
 11
14.9491174549
 21
11.6490999224
 31
0.0
  0
LINE
  5
560
330
1F
100
AcDbEntity
  8
TRMODEL1
  6
Continuous
 62
     2
100
AcDbLine
 10
15.3039074481
 20
11.1583002765
 30
0.0
 11
15.3039074481
 21
10.2289747375
 31
0.0
  0
LINE
  5
561
330
1F
100
AcDbEntity
  8
TRMODEL1
  6
Continuous
 62
     2
100
AcDbLine
 10
14.9899902446
 20
11.6726952817
 30
0.0
 11
15.50957734
 21
11.3727440362
 31
0.0
  0
LINE
  5
562
330
1F
100
AcDbEntity
  8
TRMODEL1
  6
Continuous
 62
     2
100
AcDbLine
 10
15.50957734
 20
11.3727440362
 30
0.0
 11
15.50957734
 21
11.2977440362
 31
0.0
  0
LINE
  5
563
330
1F
100
AcDbEntity
  8
TRMODEL1
  6
Continuous
 62
     2
100
AcDbLine
 10
15.50957734
 20
11.2977440362
 30
0.0
 11
15.5087453633
 21
11.28846981
 31
0.0
  0
LINE
  5
564
330
1F
100
AcDbEntity
  8
TRMODEL1
  6
Continuous
 62
     2
100
AcDbLine
 10
15.5087453633
 20
11.28846981
 30
0.0
 11
15.5062814056
 21
11.280512567
 31
0.0
  0
LINE
  5
565
330
1F
100
AcDbEntity
  8
TRMODEL1
  6
Continuous
 62
     2
100
AcDbLine
 10
15.5062814056
 20
11.280512567
 30
0.0
 11
15.5022801555
 21
11.2741780995
 31
0.0
  0
LINE
  5
566
330
1F
100
AcDbEntity
  8
TRMODEL1
  6
Continuous
 62
     2
100
AcDbLine
 10
15.5022801555
 20
11.2741780995
 30
0.0
 11
15.4968953786
 21
11.2697098376
 31
0.0
  0
LINE
  5
567
330
1F
100
AcDbEntity
  8
TRMODEL1
  6
Continuous
 62
     2
100
AcDbLine
 10
15.4968953786
 20
11.2697098376
 30
0.0
 11
15.4968926595
 21
11.2697088304
 31
0.0
  0
LINE
  5
568
330
1F
100
AcDbEntity
  8
TRMODEL1
  6
Continuous
 62
     2
100
AcDbLine
 10
15.1547873468
 20
12.5926843603
 30
0.0
 11
15.1539553701
 21
12.5834101342
 31
0.0
  0
LINE
  5
569
330
1F
100
AcDbEntity
  8
TRMODEL1
  6
Continuous
 62
     2
100
AcDbLine
 10
15.1539553701
 20
12.5834101342
 30
0.0
 11
15.1514914124
 21
12.5754528911
 31
0.0
  0
LINE
  5
56A
330
1F
100
AcDbEntity
  8
TRMODEL1
  6
Continuous
 62
     2
100
AcDbLine
 10
15.1514914124
 20
12.5754528911
 30
0.0
 11
15.1474901622
 21
12.5691184237
 31
0.0
  0
LINE
  5
56B
330
1F
100
AcDbEntity
  8
TRMODEL1
  6
Continuous
 62
     2
100
AcDbLine
 10
15.1474901622
 20
12.5691184237
 30
0.0
 11
15.1421053845
 21
12.564650161
 31
0.0
  0
LINE
  5
56C
330
1F
100
AcDbEntity
  8
TRMODEL1
  6
Continuous
 62
     2
100
AcDbLine
 10
15.1421053845
 20
12.564650161
 30
0.0
 11
15.1421026663
 21
12.5646491546
 31
0.0
  0
LINE
  5
56D
330
1F
100
AcDbEntity
  8
TRMODEL1
  6
Continuous
 62
     2
100
AcDbLine
 10
15.4121547596
 20
10.0664848947
 30
0.0
 11
15.4121547596
 21
9.9289848947
 31
0.0
  0
LINE
  5
56E
330
1F
100
AcDbEntity
  8
TRMODEL1
  6
Continuous
 62
     2
100
AcDbLine
 10
15.3472063727
 20
10.1539788004
 30
0.0
 11
15.368855835
 21
10.1414808318
 31
0.0
  0
LINE
  5
56F
330
1F
100
AcDbEntity
  8
TRMODEL1
  6
Continuous
 62
     2
100
AcDbLine
 10
15.3039074481
 20
10.2289747375
 30
0.0
 11
15.3047394248
 21
10.2187399315
 31
0.0
  0
LINE
  5
570
330
1F
100
AcDbEntity
  8
TRMODEL1
  6
Continuous
 62
     2
100
AcDbLine
 10
15.3047394248
 20
10.2187399315
 30
0.0
 11
15.3072033825
 21
10.2079378635
 31
0.0
  0
LINE
  5
571
330
1F
100
AcDbEntity
  8
TRMODEL1
  6
Continuous
 62
     2
100
AcDbLine
 10
15.3072033825
 20
10.2079378635
 30
0.0
 11
15.3112046326
 21
10.1969836509
 31
0.0
  0
LINE
  5
572
330
1F
100
AcDbEntity
  8
TRMODEL1
  6
Continuous
 62
     2
100
AcDbLine
 10
15.3112046326
 20
10.1969836509
 30
0.0
 11
15.3165894095
 21
10.186298258
 31
0.0
  0
LINE
  5
573
330
1F
100
AcDbEntity
  8
TRMODEL1
  6
Continuous
 62
     2
100
AcDbLine
 10
15.3165894095
 20
10.186298258
 30
0.0
 11
15.3231507791
 21
10.1762923184
 31
0.0
  0
LINE
  5
574
330
1F
100
AcDbEntity
  8
TRMODEL1
  6
Continuous
 62
     2
100
AcDbLine
 10
15.3231507791
 20
10.1762923184
 30
0.0
 11
15.3306365916
 21
10.1673503548
 31
0.0
  0
LINE
  5
575
330
1F
100
AcDbEntity
  8
TRMODEL1
  6
Continuous
 62
     2
100
AcDbLine
 10
15.3306365916
 20
10.1673503548
 30
0.0
 11
15.3387591716
 21
10.1598160018
 31
0.0
  0
LINE
  5
576
330
1F
100
AcDbEntity
  8
TRMODEL1
  6
Continuous
 62
     2
100
AcDbLine
 10
15.3387591716
 20
10.1598160018
 30
0.0
 11
15.3472063727
 21
10.1539788004
 31
0.0
  0
LINE
  5
577
330
1F
100
AcDbEntity
  8
TRMODEL1
  6
Continuous
 62
     2
100
AcDbLine
 10
15.368855835
 20
10.1414808318
 30
0.0
 11
15.3773030362
 21
10.1356436304
 31
0.0
  0
LINE
  5
578
330
1F
100
AcDbEntity
  8
TRMODEL1
  6
Continuous
 62
     2
100
AcDbLine
 10
15.3773030362
 20
10.1356436304
 30
0.0
 11
15.3854256161
 21
10.1281092774
 31
0.0
  0
LINE
  5
579
330
1F
100
AcDbEntity
  8
TRMODEL1
  6
Continuous
 62
     2
100
AcDbLine
 10
15.3854256161
 20
10.1281092774
 30
0.0
 11
15.3929114287
 21
10.1191673138
 31
0.0
  0
LINE
  5
57A
330
1F
100
AcDbEntity
  8
TRMODEL1
  6
Continuous
 62
     2
100
AcDbLine
 10
15.3929114287
 20
10.1191673138
 30
0.0
 11
15.3994727982
 21
10.1091613742
 31
0.0
  0
LINE
  5
57B
330
1F
100
AcDbEntity
  8
TRMODEL1
  6
Continuous
 62
     2
100
AcDbLine
 10
15.3994727982
 20
10.1091613742
 30
0.0
 11
15.4048575751
 21
10.0984759813
 31
0.0
  0
LINE
  5
57C
330
1F
100
AcDbEntity
  8
TRMODEL1
  6
Continuous
 62
     2
100
AcDbLine
 10
15.4048575751
 20
10.0984759813
 30
0.0
 11
15.4088588252
 21
10.0875217687
 31
0.0
  0
LINE
  5
57D
330
1F
100
AcDbEntity
  8
TRMODEL1
  6
Continuous
 62
     2
100
AcDbLine
 10
15.4088588252
 20
10.0875217687
 30
0.0
 11
15.4113227829
 21
10.0767197007
 31
0.0
  0
LINE
  5
57E
330
1F
100
AcDbEntity
  8
TRMODEL1
  6
Continuous
 62
     2
100
AcDbLine
 10
15.4113227829
 20
10.0767197007
 30
0.0
 11
15.4121547596
 21
10.0664848947
 31
0.0
  0
LINE
  5
57F
330
1F
100
AcDbEntity
  8
TRMODEL1
  6
Continuous
 62
     2
100
AcDbLine
 10
16.6380120211
 20
10.0867070888
 30
0.0
 11
16.8264210523
 21
10.4130411035
 31
0.0
  0
LINE
  5
580
330
1F
100
AcDbEntity
  8
TRMODEL1
  6
Continuous
 62
     4
100
AcDbLine
 10
16.8264210523
 20
10.2771273886
 30
0.0
 11
16.8264210523
 21
10.5016761118
 31
0.0
  0
LINE
  5
581
330
1F
100
AcDbEntity
  8
TRMODEL1
  6
Continuous
 62
     4
100
AcDbLine
 10
16.7557103742
 20
10.1546529018
 30
0.0
 11
16.7695053432
 21
10.1641855281
 31
0.0
  0
LINE
  5
582
330
1F
100
AcDbEntity
  8
TRMODEL1
  6
Continuous
 62
     4
100
AcDbLine
 10
16.7695053432
 20
10.1641855281
 30
0.0
 11
16.7827701792
 21
10.1764897415
 31
0.0
  0
LINE
  5
583
330
1F
100
AcDbEntity
  8
TRMODEL1
  6
Continuous
 62
     4
100
AcDbLine
 10
16.7827701792
 20
10.1764897415
 30
0.0
 11
16.7949951221
 21
10.191092698
 31
0.0
  0
LINE
  5
584
330
1F
100
AcDbEntity
  8
TRMODEL1
  6
Continuous
 62
     4
100
AcDbLine
 10
16.7949951221
 20
10.191092698
 30
0.0
 11
16.8057103742
 21
10.2074332141
 31
0.0
  0
LINE
  5
585
330
1F
100
AcDbEntity
  8
TRMODEL1
  6
Continuous
 62
     4
100
AcDbLine
 10
16.8057103742
 20
10.2074332141
 30
0.0
 11
16.8145041543
 21
10.2248833329
 31
0.0
  0
LINE
  5
586
330
1F
100
AcDbEntity
  8
TRMODEL1
  6
Continuous
 62
     4
100
AcDbLine
 10
16.8145041543
 20
10.2248833329
 30
0.0
 11
16.8210385225
 21
10.2427724562
 31
0.0
  0
LINE
  5
587
330
1F
100
AcDbEntity
  8
TRMODEL1
  6
Continuous
 62
     4
100
AcDbLine
 10
16.8210385225
 20
10.2427724562
 30
0.0
 11
16.8250623665
 21
10.2604131149
 31
0.0
  0
LINE
  5
588
330
1F
100
AcDbEntity
  8
TRMODEL1
  6
Continuous
 62
     4
100
AcDbLine
 10
16.8250623665
 20
10.2604131149
 30
0.0
 11
16.8264210523
 21
10.2771273886
 31
0.0
  0
LINE
  5
589
330
1F
100
AcDbEntity
  8
TRMODEL1
  6
Continuous
 62
     2
100
AcDbLine
 10
11.3052879226
 20
13.3699281003
 30
0.0
 11
15.9967269822
 21
16.0782382214
 31
0.0
  0
LINE
  5
58A
330
1F
100
AcDbEntity
  8
TRMODEL1
  6
Continuous
 62
     2
100
AcDbLine
 10
11.24032415
 20
13.4074253126
 30
0.0
 11
15.9967269822
 21
16.1532382214
 31
0.0
  0
LINE
  5
58B
330
1F
100
AcDbEntity
  8
TRMODEL1
  6
Continuous
 62
     2
100
AcDbLine
 10
15.9840450199
 20
16.0502040221
 30
0.0
 11
11.3232292348
 21
13.359572341
 31
0.0
  0
LINE
  5
58C
330
1F
100
AcDbEntity
  8
TRMODEL1
  6
Continuous
 62
     2
100
AcDbLine
 10
14.1817072596
 20
13.9804191668
 30
0.0
 11
14.8299039878
 21
14.354615173
 31
0.0
  0
LINE
  5
58D
330
1F
100
AcDbEntity
  8
TRMODEL1
  6
Continuous
 62
     2
100
AcDbLine
 10
14.0951023725
 20
14.0304151039
 30
0.0
 11
14.7432991007
 21
14.4046111101
 31
0.0
  0
LINE
  5
58E
330
1F
100
AcDbEntity
  8
TRMODEL1
  6
Continuous
 62
     2
100
AcDbLine
 10
14.4090530058
 20
13.8491752611
 30
0.0
 11
15.057249734
 21
14.2233712673
 31
0.0
  0
LINE
  5
58F
330
1F
100
AcDbEntity
  8
TRMODEL1
  6
Continuous
 62
     2
100
AcDbLine
 10
14.2033567219
 20
13.9679211982
 30
0.0
 11
14.8515534501
 21
14.3421172044
 31
0.0
  0
LINE
  5
590
330
1F
100
AcDbEntity
  8
TRMODEL1
  6
Continuous
 62
     2
100
AcDbLine
 10
14.6026958572
 20
14.7841515251
 30
0.0
 11
14.5713221886
 21
14.8119316477
 31
0.0
  0
LINE
  5
591
330
1F
100
AcDbEntity
  8
TRMODEL1
  6
Continuous
 62
     2
100
AcDbLine
 10
14.5713221886
 20
14.8119316477
 30
0.0
 11
14.5499464011
 21
14.8529643415
 31
0.0
  0
LINE
  5
592
330
1F
100
AcDbEntity
  8
TRMODEL1
  6
Continuous
 62
     2
100
AcDbLine
 10
14.5499464011
 20
14.8529643415
 30
0.0
 11
14.5399581285
 21
14.9048602275
 31
0.0
  0
LINE
  5
593
330
1F
100
AcDbEntity
  8
TRMODEL1
  6
Continuous
 62
     2
100
AcDbLine
 10
14.5399581285
 20
14.9048602275
 30
0.0
 11
14.5419099923
 21
14.9647480594
 31
0.0
  0
LINE
  5
594
330
1F
100
AcDbEntity
  8
TRMODEL1
  6
Continuous
 62
     2
100
AcDbLine
 10
14.5419099923
 20
14.9647480594
 30
0.0
 11
14.5556940018
 21
15.0293144202
 31
0.0
  0
LINE
  5
595
330
1F
100
AcDbEntity
  8
TRMODEL1
  6
Continuous
 62
     2
100
AcDbLine
 10
14.5556940018
 20
15.0293144202
 30
0.0
 11
14.5805475283
 21
15.0949870434
 31
0.0
  0
LINE
  5
596
330
1F
100
AcDbEntity
  8
TRMODEL1
  6
Continuous
 62
     2
100
AcDbLine
 10
14.5805475283
 20
15.0949870434
 30
0.0
 11
14.6150954995
 21
15.1581324567
 31
0.0
  0
LINE
  5
597
330
1F
100
AcDbEntity
  8
TRMODEL1
  6
Continuous
 62
     2
100
AcDbLine
 10
14.6150954995
 20
15.1581324567
 30
0.0
 11
14.6574264781
 21
15.2152570105
 31
0.0
  0
LINE
  5
598
330
1F
100
AcDbEntity
  8
TRMODEL1
  6
Continuous
 62
     2
100
AcDbLine
 10
14.6574264781
 20
15.2152570105
 30
0.0
 11
14.7051984159
 21
15.2632001717
 31
0.0
  0
LINE
  5
599
330
1F
100
AcDbEntity
  8
TRMODEL1
  6
Continuous
 62
     2
100
AcDbLine
 10
14.7051984159
 20
15.2632001717
 30
0.0
 11
14.7557682325
 21
15.2993093867
 31
0.0
  0
LINE
  5
59A
330
1F
100
AcDbEntity
  8
TRMODEL1
  6
Continuous
 62
     2
100
AcDbLine
 10
14.7557682325
 20
15.2993093867
 30
0.0
 11
14.8063380491
 21
15.3215868391
 31
0.0
  0
LINE
  5
59B
330
1F
100
AcDbEntity
  8
TRMODEL1
  6
Continuous
 62
     2
100
AcDbLine
 10
14.8063380491
 20
15.3215868391
 30
0.0
 11
14.8541099869
 21
15.3287999833
 31
0.0
  0
LINE
  5
59C
330
1F
100
AcDbEntity
  8
TRMODEL1
  6
Continuous
 62
     2
100
AcDbLine
 10
14.8541099869
 20
15.3287999833
 30
0.0
 11
14.8964409655
 21
15.3205497371
 31
0.0
  0
LINE
  5
59D
330
1F
100
AcDbEntity
  8
TRMODEL1
  6
Continuous
 62
     2
100
AcDbLine
 10
14.8964409655
 20
15.3205497371
 30
0.0
 11
14.9088406078
 21
15.3144672483
 31
0.0
  0
LINE
  5
59E
330
1F
100
AcDbEntity
  8
TRMODEL1
  6
Continuous
 62
     2
100
AcDbLine
 10
15.1444334835
 20
14.4714130503
 30
0.0
 11
14.6026958572
 21
14.7841515251
 31
0.0
  0
LINE
  5
59F
330
1F
100
AcDbEntity
  8
TRMODEL1
  6
Continuous
 62
     2
100
AcDbLine
 10
14.6159062379
 20
14.7036242777
 30
0.0
 11
15.1251543109
 21
14.4096416227
 31
0.0
  0
LINE
  5
5A0
330
1F
100
AcDbEntity
  8
TRMODEL1
  6
Continuous
 62
     2
100
AcDbLine
 10
14.6159062379
 20
14.4781534444
 30
0.0
 11
15.1251543109
 21
14.1841707895
 31
0.0
  0
LINE
  5
5A1
330
1F
100
AcDbEntity
  8
TRMODEL1
  6
Continuous
 62
     2
100
AcDbLine
 10
12.0197627307
 20
12.957531891
 30
0.0
 11
13.9866773549
 21
14.0930075343
 31
0.0
  0
LINE
  5
5A2
330
1F
100
AcDbEntity
  8
TRMODEL1
  6
Continuous
 62
     2
100
AcDbLine
 10
12.3109051309
 20
16.8142234759
 30
0.0
 11
12.9077532753
 21
16.4696703762
 31
0.0
  0
LINE
  5
5A3
330
1F
100
AcDbEntity
  8
TRMODEL1
  6
Continuous
 62
     2
100
AcDbLine
 10
12.8885158797
 20
18.7624617699
 30
0.0
 11
12.8885158797
 21
17.9583210917
 31
0.0
  0
LINE
  5
5A4
330
1F
100
AcDbEntity
  8
TRMODEL1
  6
Continuous
 62
     2
100
AcDbLine
 10
12.2953642438
 20
16.1161457132
 30
0.0
 11
12.0047603803
 21
16.2839077527
 31
0.0
  0
LINE
  5
5A5
330
1F
100
AcDbEntity
  8
TRMODEL1
  6
Continuous
 62
     2
100
AcDbLine
 10
12.017970761
 20
15.977909672
 30
0.0
 11
12.017970761
 21
16.2033805053
 31
0.0
  0
LINE
  5
5A6
330
1F
100
AcDbEntity
  8
TRMODEL1
  6
Continuous
 62
     2
100
AcDbLine
 10
12.017970761
 20
16.2033805053
 30
0.0
 11
12.0417756162
 21
16.2625393119
 31
0.0
  0
LINE
  5
5A7
330
1F
100
AcDbEntity
  8
TRMODEL1
  6
Continuous
 62
     2
100
AcDbLine
 10
12.017970761
 20
16.2033805053
 30
0.0
 11
12.232223235
 21
16.0796951847
 31
0.0
  0
LINE
  5
5A8
330
1F
100
AcDbEntity
  8
TRMODEL1
  6
Continuous
 62
     2
100
AcDbLine
 10
12.017970761
 20
15.977909672
 30
0.0
 11
12.0369386061
 21
15.9669597681
 31
0.0
  0
LINE
  5
5A9
330
1F
100
AcDbEntity
  8
TRMODEL1
  6
Continuous
 62
     2
100
AcDbLine
 10
12.0047603803
 20
16.2839077527
 30
0.0
 11
11.9733867117
 21
16.3116878753
 31
0.0
  0
LINE
  5
5AA
330
1F
100
AcDbEntity
  8
TRMODEL1
  6
Continuous
 62
     2
100
AcDbLine
 10
11.9733867117
 20
16.3116878753
 30
0.0
 11
11.9520109242
 21
16.3527205691
 31
0.0
  0
LINE
  5
5AB
330
1F
100
AcDbEntity
  8
TRMODEL1
  6
Continuous
 62
     2
100
AcDbLine
 10
11.9520109242
 20
16.3527205691
 30
0.0
 11
11.9420226516
 21
16.4046164551
 31
0.0
  0
LINE
  5
5AC
330
1F
100
AcDbEntity
  8
TRMODEL1
  6
Continuous
 62
     2
100
AcDbLine
 10
11.9420226516
 20
16.4046164551
 30
0.0
 11
11.9439745154
 21
16.4645042871
 31
0.0
  0
LINE
  5
5AD
330
1F
100
AcDbEntity
  8
TRMODEL1
  6
Continuous
 62
     2
100
AcDbLine
 10
11.9439745154
 20
16.4645042871
 30
0.0
 11
11.9577585249
 21
16.5290706478
 31
0.0
  0
LINE
  5
5AE
330
1F
100
AcDbEntity
  8
TRMODEL1
  6
Continuous
 62
     2
100
AcDbLine
 10
11.9577585249
 20
16.5290706478
 30
0.0
 11
11.9826120514
 21
16.5947432711
 31
0.0
  0
LINE
  5
5AF
330
1F
100
AcDbEntity
  8
TRMODEL1
  6
Continuous
 62
     2
100
AcDbLine
 10
11.9826120514
 20
16.5947432711
 30
0.0
 11
12.0171600226
 21
16.6578886843
 31
0.0
  0
LINE
  5
5B0
330
1F
100
AcDbEntity
  8
TRMODEL1
  6
Continuous
 62
     2
100
AcDbLine
 10
12.0171600226
 20
16.6578886843
 30
0.0
 11
12.0594910012
 21
16.7150132381
 31
0.0
  0
LINE
  5
5B1
330
1F
100
AcDbEntity
  8
TRMODEL1
  6
Continuous
 62
     2
100
AcDbLine
 10
12.0594910012
 20
16.7150132381
 30
0.0
 11
12.107262939
 21
16.7629563993
 31
0.0
  0
LINE
  5
5B2
330
1F
100
AcDbEntity
  8
TRMODEL1
  6
Continuous
 62
     2
100
AcDbLine
 10
12.107262939
 20
16.7629563993
 30
0.0
 11
12.1578327556
 21
16.7990656143
 31
0.0
  0
LINE
  5
5B3
330
1F
100
AcDbEntity
  8
TRMODEL1
  6
Continuous
 62
     2
100
AcDbLine
 10
12.1578327556
 20
16.7990656143
 30
0.0
 11
12.2084025722
 21
16.8213430668
 31
0.0
  0
LINE
  5
5B4
330
1F
100
AcDbEntity
  8
TRMODEL1
  6
Continuous
 62
     2
100
AcDbLine
 10
12.2084025722
 20
16.8213430668
 30
0.0
 11
12.25617451
 21
16.8285562109
 31
0.0
  0
LINE
  5
5B5
330
1F
100
AcDbEntity
  8
TRMODEL1
  6
Continuous
 62
     2
100
AcDbLine
 10
12.25617451
 20
16.8285562109
 30
0.0
 11
12.2985054886
 21
16.8203059647
 31
0.0
  0
LINE
  5
5B6
330
1F
100
AcDbEntity
  8
TRMODEL1
  6
Continuous
 62
     2
100
AcDbLine
 10
12.2985054886
 20
16.8203059647
 30
0.0
 11
12.3109051309
 21
16.8142234759
 31
0.0
  0
LINE
  5
5B7
330
1F
100
AcDbEntity
  8
TRMODEL1
  6
Continuous
 62
     2
100
AcDbLine
 10
13.0941857716
 20
18.9769055296
 30
0.0
 11
13.0941857716
 21
18.9019055296
 31
0.0
  0
LINE
  5
5B8
330
1F
100
AcDbEntity
  8
TRMODEL1
  6
Continuous
 62
     2
100
AcDbLine
 10
14.3930831334
 20
18.2269867882
 30
0.0
 11
14.3930831334
 21
18.1519867882
 31
0.0
  0
LINE
  5
5B9
330
1F
100
AcDbEntity
  8
TRMODEL1
  6
Continuous
 62
     2
100
AcDbLine
 10
13.873496038
 20
18.5269380337
 30
0.0
 11
14.3930831334
 21
18.2269867882
 31
0.0
  0
LINE
  5
5BA
330
1F
100
AcDbEntity
  8
TRMODEL1
  6
Continuous
 62
     2
100
AcDbLine
 10
14.3930831334
 20
18.1519867882
 30
0.0
 11
14.3922511567
 21
18.142712562
 31
0.0
  0
LINE
  5
5BB
330
1F
100
AcDbEntity
  8
TRMODEL1
  6
Continuous
 62
     2
100
AcDbLine
 10
14.3922511567
 20
18.142712562
 30
0.0
 11
14.389787199
 21
18.134755319
 31
0.0
  0
LINE
  5
5BC
330
1F
100
AcDbEntity
  8
TRMODEL1
  6
Continuous
 62
     2
100
AcDbLine
 10
14.389787199
 20
18.134755319
 30
0.0
 11
14.3857859488
 21
18.1284208515
 31
0.0
  0
LINE
  5
5BD
330
1F
100
AcDbEntity
  8
TRMODEL1
  6
Continuous
 62
     2
100
AcDbLine
 10
14.3857859488
 20
18.1284208515
 30
0.0
 11
14.380401171
 21
18.1239525888
 31
0.0
  0
LINE
  5
5BE
330
1F
100
AcDbEntity
  8
TRMODEL1
  6
Continuous
 62
     2
100
AcDbLine
 10
14.380401171
 20
18.1239525888
 30
0.0
 11
14.3803984529
 21
18.1239515824
 31
0.0
  0
LINE
  5
5BF
330
1F
100
AcDbEntity
  8
TRMODEL1
  6
Continuous
 62
     2
100
AcDbLine
 10
13.0941857716
 20
18.9019055296
 30
0.0
 11
13.0933537949
 21
18.8926313034
 31
0.0
  0
LINE
  5
5C0
330
1F
100
AcDbEntity
  8
TRMODEL1
  6
Continuous
 62
     2
100
AcDbLine
 10
13.0933537949
 20
18.8926313034
 30
0.0
 11
13.0908898373
 21
18.8846740604
 31
0.0
  0
LINE
  5
5C1
330
1F
100
AcDbEntity
  8
TRMODEL1
  6
Continuous
 62
     2
100
AcDbLine
 10
13.0908898373
 20
18.8846740604
 30
0.0
 11
13.0868885871
 21
18.8783395929
 31
0.0
  0
LINE
  5
5C2
330
1F
100
AcDbEntity
  8
TRMODEL1
  6
Continuous
 62
     2
100
AcDbLine
 10
13.0868885871
 20
18.8783395929
 30
0.0
 11
13.0815038093
 21
18.8738713303
 31
0.0
  0
LINE
  5
5C3
330
1F
100
AcDbEntity
  8
TRMODEL1
  6
Continuous
 62
     2
100
AcDbLine
 10
13.0815038093
 20
18.8738713303
 30
0.0
 11
13.0815010911
 21
18.8738703239
 31
0.0
  0
LINE
  5
5C4
330
1F
100
AcDbEntity
  8
TRMODEL1
  6
Continuous
 62
     2
100
AcDbLine
 10
13.5943319823
 20
15.3662675994
 30
0.0
 11
13.3037281188
 21
15.5340296389
 31
0.0
  0
LINE
  5
5C5
330
1F
100
AcDbEntity
  8
TRMODEL1
  6
Continuous
 62
     2
100
AcDbLine
 10
13.3169384994
 20
15.4535023915
 30
0.0
 11
13.3407433547
 21
15.5126611981
 31
0.0
  0
LINE
  5
5C6
330
1F
100
AcDbEntity
  8
TRMODEL1
  6
Continuous
 62
     2
100
AcDbLine
 10
14.6159062379
 20
14.7036242777
 30
0.0
 11
14.6397110931
 21
14.7627830843
 31
0.0
  0
LINE
  5
5C7
330
1F
100
AcDbEntity
  8
TRMODEL1
  6
Continuous
 62
     2
100
AcDbLine
 10
14.6159062379
 20
14.4781534444
 30
0.0
 11
14.6159062379
 21
14.7036242777
 31
0.0
  0
LINE
  5
5C8
330
1F
100
AcDbEntity
  8
TRMODEL1
  6
Continuous
 62
     2
100
AcDbLine
 10
14.5062644502
 20
13.7930562888
 30
0.0
 11
14.5062644502
 21
13.7180562888
 31
0.0
  0
LINE
  5
5C9
330
1F
100
AcDbEntity
  8
TRMODEL1
  6
Continuous
 62
     2
100
AcDbLine
 10
13.9866773549
 20
14.0930075343
 30
0.0
 11
14.5062644502
 21
13.7930562888
 31
0.0
  0
LINE
  5
5CA
330
1F
100
AcDbEntity
  8
TRMODEL1
  6
Continuous
 62
     2
100
AcDbLine
 10
14.5062644502
 20
13.7180562888
 30
0.0
 11
14.5054324735
 21
13.7087820626
 31
0.0
  0
LINE
  5
5CB
330
1F
100
AcDbEntity
  8
TRMODEL1
  6
Continuous
 62
     2
100
AcDbLine
 10
14.5054324735
 20
13.7087820626
 30
0.0
 11
14.5029685159
 21
13.7008248196
 31
0.0
  0
LINE
  5
5CC
330
1F
100
AcDbEntity
  8
TRMODEL1
  6
Continuous
 62
     2
100
AcDbLine
 10
14.5029685159
 20
13.7008248196
 30
0.0
 11
14.4989672657
 21
13.6944903521
 31
0.0
  0
LINE
  5
5CD
330
1F
100
AcDbEntity
  8
TRMODEL1
  6
Continuous
 62
     2
100
AcDbLine
 10
14.4989672657
 20
13.6944903521
 30
0.0
 11
14.4935824879
 21
13.6900220894
 31
0.0
  0
LINE
  5
5CE
330
1F
100
AcDbEntity
  8
TRMODEL1
  6
Continuous
 62
     2
100
AcDbLine
 10
14.4935824879
 20
13.6900220894
 30
0.0
 11
14.4935797697
 21
13.690021083
 31
0.0
  0
LINE
  5
5CF
330
1F
100
AcDbEntity
  8
TRMODEL1
  6
Continuous
 62
     2
100
AcDbLine
 10
13.3169384994
 20
15.2280315582
 30
0.0
 11
13.3169384994
 21
15.4535023915
 31
0.0
  0
LINE
  5
5D0
330
1F
100
AcDbEntity
  8
TRMODEL1
  6
Continuous
 62
     2
100
AcDbLine
 10
13.3169384994
 20
15.4535023915
 30
0.0
 11
13.5311909735
 21
15.3298170709
 31
0.0
  0
LINE
  5
5D1
330
1F
100
AcDbEntity
  8
TRMODEL1
  6
Continuous
 62
     2
100
AcDbLine
 10
13.3169384994
 20
15.2280315582
 30
0.0
 11
13.3359063446
 21
15.2170816543
 31
0.0
  0
LINE
  5
5D2
330
1F
100
AcDbEntity
  8
TRMODEL1
  6
Continuous
 62
     2
100
AcDbLine
 10
13.6098728693
 20
16.0643453621
 30
0.0
 11
14.2067210138
 21
15.7197922623
 31
0.0
  0
LINE
  5
5D3
330
1F
100
AcDbEntity
  8
TRMODEL1
  6
Continuous
 62
     2
100
AcDbLine
 10
13.3037281188
 20
15.5340296389
 30
0.0
 11
13.2723544501
 21
15.5618097615
 31
0.0
  0
LINE
  5
5D4
330
1F
100
AcDbEntity
  8
TRMODEL1
  6
Continuous
 62
     2
100
AcDbLine
 10
13.2723544501
 20
15.5618097615
 30
0.0
 11
13.2509786627
 21
15.6028424553
 31
0.0
  0
LINE
  5
5D5
330
1F
100
AcDbEntity
  8
TRMODEL1
  6
Continuous
 62
     2
100
AcDbLine
 10
13.2509786627
 20
15.6028424553
 30
0.0
 11
13.24099039
 21
15.6547383413
 31
0.0
  0
LINE
  5
5D6
330
1F
100
AcDbEntity
  8
TRMODEL1
  6
Continuous
 62
     2
100
AcDbLine
 10
13.24099039
 20
15.6547383413
 30
0.0
 11
13.2429422539
 21
15.7146261732
 31
0.0
  0
LINE
  5
5D7
330
1F
100
AcDbEntity
  8
TRMODEL1
  6
Continuous
 62
     2
100
AcDbLine
 10
13.2429422539
 20
15.7146261732
 30
0.0
 11
13.2567262633
 21
15.779192534
 31
0.0
  0
LINE
  5
5D8
330
1F
100
AcDbEntity
  8
TRMODEL1
  6
Continuous
 62
     2
100
AcDbLine
 10
13.2567262633
 20
15.779192534
 30
0.0
 11
13.2815797898
 21
15.8448651572
 31
0.0
  0
LINE
  5
5D9
330
1F
100
AcDbEntity
  8
TRMODEL1
  6
Continuous
 62
     2
100
AcDbLine
 10
13.2815797898
 20
15.8448651572
 30
0.0
 11
13.316127761
 21
15.9080105705
 31
0.0
  0
LINE
  5
5DA
330
1F
100
AcDbEntity
  8
TRMODEL1
  6
Continuous
 62
     2
100
AcDbLine
 10
13.316127761
 20
15.9080105705
 30
0.0
 11
13.3584587397
 21
15.9651351243
 31
0.0
  0
LINE
  5
5DB
330
1F
100
AcDbEntity
  8
TRMODEL1
  6
Continuous
 62
     2
100
AcDbLine
 10
13.3584587397
 20
15.9651351243
 30
0.0
 11
13.4062306775
 21
16.0130782855
 31
0.0
  0
LINE
  5
5DC
330
1F
100
AcDbEntity
  8
TRMODEL1
  6
Continuous
 62
     2
100
AcDbLine
 10
13.4062306775
 20
16.0130782855
 30
0.0
 11
13.456800494
 21
16.0491875005
 31
0.0
  0
LINE
  5
5DD
330
1F
100
AcDbEntity
  8
TRMODEL1
  6
Continuous
 62
     2
100
AcDbLine
 10
13.456800494
 20
16.0491875005
 30
0.0
 11
13.5073703106
 21
16.071464953
 31
0.0
  0
LINE
  5
5DE
330
1F
100
AcDbEntity
  8
TRMODEL1
  6
Continuous
 62
     2
100
AcDbLine
 10
13.5073703106
 20
16.071464953
 30
0.0
 11
13.5551422484
 21
16.0786780971
 31
0.0
  0
LINE
  5
5DF
330
1F
100
AcDbEntity
  8
TRMODEL1
  6
Continuous
 62
     2
100
AcDbLine
 10
13.5551422484
 20
16.0786780971
 30
0.0
 11
13.597473227
 21
16.0704278509
 31
0.0
  0
LINE
  5
5E0
330
1F
100
AcDbEntity
  8
TRMODEL1
  6
Continuous
 62
     2
100
AcDbLine
 10
13.597473227
 20
16.0704278509
 30
0.0
 11
13.6098728693
 21
16.0643453621
 31
0.0
  0
LINE
  5
5E1
330
1F
100
AcDbEntity
  8
TRMODEL1
  6
Continuous
 62
     2
100
AcDbLine
 10
14.1874132414
 20
18.0125430285
 30
0.0
 11
14.1874132414
 21
17.2084023502
 31
0.0
  0
LINE
  5
5E2
330
1F
100
AcDbEntity
  8
TRMODEL1
  6
Continuous
 62
     2
100
AcDbLine
 10
15.2632767909
 20
14.2639072
 30
0.0
 11
15.4048783001
 21
14.5091682083
 31
0.0
  0
LINE
  5
5E3
330
1F
100
AcDbEntity
  8
TRMODEL1
  6
Continuous
 62
     2
100
AcDbLine
 10
15.1251543109
 20
14.2746720469
 30
0.0
 11
15.4798453565
 21
14.8890149589
 31
0.0
  0
LINE
  5
5E4
330
1F
100
AcDbEntity
  8
TRMODEL1
  6
Continuous
 62
     2
100
AcDbLine
 10
15.107524689
 20
14.4941366461
 30
0.0
 11
15.4123389619
 21
15.0220904537
 31
0.0
  0
LINE
  5
5E5
330
1F
100
AcDbEntity
  8
TRMODEL1
  6
Continuous
 62
     2
100
AcDbLine
 10
15.0503201262
 20
14.6450554369
 30
0.0
 11
15.2536279459
 21
14.9971949103
 31
0.0
  0
LINE
  5
5E6
330
1F
100
AcDbEntity
  8
TRMODEL1
  6
Continuous
 62
     2
100
AcDbLine
 10
15.7910570903
 20
15.9387944617
 30
0.0
 11
15.7910570903
 21
15.0094689228
 31
0.0
  0
LINE
  5
5E7
330
1F
100
AcDbEntity
  8
TRMODEL1
  6
Continuous
 62
     2
100
AcDbLine
 10
15.4756869311
 20
14.8274096051
 30
0.0
 11
15.7910570903
 21
15.0094689228
 31
0.0
  0
LINE
  5
5E8
330
1F
100
AcDbEntity
  8
TRMODEL1
  6
Continuous
 62
     2
100
AcDbLine
 10
15.4367102198
 20
14.7049169544
 30
0.0
 11
15.8343560149
 21
14.9344729856
 31
0.0
  0
LINE
  5
5E9
330
1F
100
AcDbEntity
  8
TRMODEL1
  6
Continuous
 62
     2
100
AcDbLine
 10
15.4195981255
 20
14.6700424155
 30
0.0
 11
15.8560054772
 21
14.9219750171
 31
0.0
  0
LINE
  5
5EA
330
1F
100
AcDbEntity
  8
TRMODEL1
  6
Continuous
 62
     2
100
AcDbLine
 10
15.4048783001
 20
14.4240529669
 30
0.0
 11
15.8993044018
 21
14.7094790799
 31
0.0
  0
LINE
  5
5EB
330
1F
100
AcDbEntity
  8
TRMODEL1
  6
Continuous
 62
     2
100
AcDbLine
 10
15.8993044018
 20
14.8469790799
 30
0.0
 11
15.8993044018
 21
14.7094790799
 31
0.0
  0
LINE
  5
5EC
330
1F
100
AcDbEntity
  8
TRMODEL1
  6
Continuous
 62
     2
100
AcDbLine
 10
15.8343560149
 20
14.9344729856
 30
0.0
 11
15.8560054772
 21
14.9219750171
 31
0.0
  0
LINE
  5
5ED
330
1F
100
AcDbEntity
  8
TRMODEL1
  6
Continuous
 62
     2
100
AcDbLine
 10
15.7910570903
 20
15.0094689228
 30
0.0
 11
15.791889067
 21
14.9992341167
 31
0.0
  0
LINE
  5
5EE
330
1F
100
AcDbEntity
  8
TRMODEL1
  6
Continuous
 62
     2
100
AcDbLine
 10
15.791889067
 20
14.9992341167
 30
0.0
 11
15.7943530247
 21
14.9884320487
 31
0.0
  0
LINE
  5
5EF
330
1F
100
AcDbEntity
  8
TRMODEL1
  6
Continuous
 62
     2
100
AcDbLine
 10
15.7943530247
 20
14.9884320487
 30
0.0
 11
15.7983542748
 21
14.9774778361
 31
0.0
  0
LINE
  5
5F0
330
1F
100
AcDbEntity
  8
TRMODEL1
  6
Continuous
 62
     2
100
AcDbLine
 10
15.7983542748
 20
14.9774778361
 30
0.0
 11
15.8037390517
 21
14.9667924432
 31
0.0
  0
LINE
  5
5F1
330
1F
100
AcDbEntity
  8
TRMODEL1
  6
Continuous
 62
     2
100
AcDbLine
 10
15.8037390517
 20
14.9667924432
 30
0.0
 11
15.8103004212
 21
14.9567865036
 31
0.0
  0
LINE
  5
5F2
330
1F
100
AcDbEntity
  8
TRMODEL1
  6
Continuous
 62
     2
100
AcDbLine
 10
15.8103004212
 20
14.9567865036
 30
0.0
 11
15.8177862338
 21
14.94784454
 31
0.0
  0
LINE
  5
5F3
330
1F
100
AcDbEntity
  8
TRMODEL1
  6
Continuous
 62
     2
100
AcDbLine
 10
15.8177862338
 20
14.94784454
 30
0.0
 11
15.8259088137
 21
14.940310187
 31
0.0
  0
LINE
  5
5F4
330
1F
100
AcDbEntity
  8
TRMODEL1
  6
Continuous
 62
     2
100
AcDbLine
 10
15.8259088137
 20
14.940310187
 30
0.0
 11
15.8343560149
 21
14.9344729856
 31
0.0
  0
LINE
  5
5F5
330
1F
100
AcDbEntity
  8
TRMODEL1
  6
Continuous
 62
     2
100
AcDbLine
 10
15.8560054772
 20
14.9219750171
 30
0.0
 11
15.8644526783
 21
14.9161378157
 31
0.0
  0
LINE
  5
5F6
330
1F
100
AcDbEntity
  8
TRMODEL1
  6
Continuous
 62
     2
100
AcDbLine
 10
15.8644526783
 20
14.9161378157
 30
0.0
 11
15.8725752583
 21
14.9086034627
 31
0.0
  0
LINE
  5
5F7
330
1F
100
AcDbEntity
  8
TRMODEL1
  6
Continuous
 62
     2
100
AcDbLine
 10
15.8725752583
 20
14.9086034627
 30
0.0
 11
15.8800610708
 21
14.8996614991
 31
0.0
  0
LINE
  5
5F8
330
1F
100
AcDbEntity
  8
TRMODEL1
  6
Continuous
 62
     2
100
AcDbLine
 10
15.8800610708
 20
14.8996614991
 30
0.0
 11
15.8866224404
 21
14.8896555595
 31
0.0
  0
LINE
  5
5F9
330
1F
100
AcDbEntity
  8
TRMODEL1
  6
Continuous
 62
     2
100
AcDbLine
 10
15.8866224404
 20
14.8896555595
 30
0.0
 11
15.8920072173
 21
14.8789701666
 31
0.0
  0
LINE
  5
5FA
330
1F
100
AcDbEntity
  8
TRMODEL1
  6
Continuous
 62
     2
100
AcDbLine
 10
15.8920072173
 20
14.8789701666
 30
0.0
 11
15.8960084674
 21
14.868015954
 31
0.0
  0
LINE
  5
5FB
330
1F
100
AcDbEntity
  8
TRMODEL1
  6
Continuous
 62
     2
100
AcDbLine
 10
15.8960084674
 20
14.868015954
 30
0.0
 11
15.8984724251
 21
14.857213886
 31
0.0
  0
LINE
  5
5FC
330
1F
100
AcDbEntity
  8
TRMODEL1
  6
Continuous
 62
     2
100
AcDbLine
 10
15.8984724251
 20
14.857213886
 30
0.0
 11
15.8993044018
 21
14.8469790799
 31
0.0
  0
LINE
  5
5FD
330
1F
100
AcDbEntity
  8
TRMODEL1
  6
Continuous
 62
     2
100
AcDbLine
 10
15.3778434716
 20
14.6070948937
 30
0.0
 11
15.4178817064
 21
14.6665443441
 31
0.0
  0
LINE
  5
5FE
330
1F
100
AcDbEntity
  8
TRMODEL1
  6
Continuous
 62
     2
100
AcDbLine
 10
15.4178817064
 20
14.6665443441
 30
0.0
 11
15.4494623494
 21
14.7309058621
 31
0.0
  0
LINE
  5
5FF
330
1F
100
AcDbEntity
  8
TRMODEL1
  6
Continuous
 62
     2
100
AcDbLine
 10
15.4494623494
 20
14.7309058621
 30
0.0
 11
15.4708381369
 21
14.7966185148
 31
0.0
  0
LINE
  5
600
330
1F
100
AcDbEntity
  8
TRMODEL1
  6
Continuous
 62
     2
100
AcDbLine
 10
15.4708381369
 20
14.7966185148
 30
0.0
 11
15.4808264095
 21
14.860046615
 31
0.0
  0
LINE
  5
601
330
1F
100
AcDbEntity
  8
TRMODEL1
  6
Continuous
 62
     2
100
AcDbLine
 10
15.4808264095
 20
14.860046615
 30
0.0
 11
15.4788745457
 21
14.9176808729
 31
0.0
  0
LINE
  5
602
330
1F
100
AcDbEntity
  8
TRMODEL1
  6
Continuous
 62
     2
100
AcDbLine
 10
15.4788745457
 20
14.9176808729
 30
0.0
 11
15.4650905362
 21
14.966332555
 31
0.0
  0
LINE
  5
603
330
1F
100
AcDbEntity
  8
TRMODEL1
  6
Continuous
 62
     2
100
AcDbLine
 10
15.4650905362
 20
14.966332555
 30
0.0
 11
15.4402370097
 21
15.0033099074
 31
0.0
  0
LINE
  5
604
330
1F
100
AcDbEntity
  8
TRMODEL1
  6
Continuous
 62
     2
100
AcDbLine
 10
15.4402370097
 20
15.0033099074
 30
0.0
 11
15.4056890385
 21
15.0265670821
 31
0.0
  0
LINE
  5
605
330
1F
100
AcDbEntity
  8
TRMODEL1
  6
Continuous
 62
     2
100
AcDbLine
 10
15.4056890385
 20
15.0265670821
 30
0.0
 11
15.3633580599
 21
15.0348173283
 31
0.0
  0
LINE
  5
606
330
1F
100
AcDbEntity
  8
TRMODEL1
  6
Continuous
 62
     2
100
AcDbLine
 10
15.3633580599
 20
15.0348173283
 30
0.0
 11
15.3155861221
 21
15.0276041842
 31
0.0
  0
LINE
  5
607
330
1F
100
AcDbEntity
  8
TRMODEL1
  6
Continuous
 62
     2
100
AcDbLine
 10
15.3155861221
 20
15.0276041842
 30
0.0
 11
15.2650163055
 21
15.0053267318
 31
0.0
  0
LINE
  5
608
330
1F
100
AcDbEntity
  8
TRMODEL1
  6
Continuous
 62
     2
100
AcDbLine
 10
15.2650163055
 20
15.0053267318
 30
0.0
 11
15.2144464889
 21
14.9692175168
 31
0.0
  0
LINE
  5
609
330
1F
100
AcDbEntity
  8
TRMODEL1
  6
Continuous
 62
     2
100
AcDbLine
 10
15.2144464889
 20
14.9692175168
 30
0.0
 11
15.1666745511
 21
14.9212743555
 31
0.0
  0
LINE
  5
60A
330
1F
100
AcDbEntity
  8
TRMODEL1
  6
Continuous
 62
     2
100
AcDbLine
 10
15.1666745511
 20
14.9212743555
 30
0.0
 11
15.1243435725
 21
14.8641498018
 31
0.0
  0
LINE
  5
60B
330
1F
100
AcDbEntity
  8
TRMODEL1
  6
Continuous
 62
     2
100
AcDbLine
 10
15.1243435725
 20
14.8641498018
 30
0.0
 11
15.0897956013
 21
14.8010043885
 31
0.0
  0
LINE
  5
60C
330
1F
100
AcDbEntity
  8
TRMODEL1
  6
Continuous
 62
     2
100
AcDbLine
 10
15.0897956013
 20
14.8010043885
 30
0.0
 11
15.0649420748
 21
14.7353317652
 31
0.0
  0
LINE
  5
60D
330
1F
100
AcDbEntity
  8
TRMODEL1
  6
Continuous
 62
     2
100
AcDbLine
 10
15.0649420748
 20
14.7353317652
 30
0.0
 11
15.0511580653
 21
14.6707654045
 31
0.0
  0
LINE
  5
60E
330
1F
100
AcDbEntity
  8
TRMODEL1
  6
Continuous
 62
     2
100
AcDbLine
 10
15.0511580653
 20
14.6707654045
 30
0.0
 11
15.0492062015
 21
14.6108775726
 31
0.0
  0
LINE
  5
60F
330
1F
100
AcDbEntity
  8
TRMODEL1
  6
Continuous
 62
     2
100
AcDbLine
 10
15.0492062015
 20
14.6108775726
 30
0.0
 11
15.0591944741
 21
14.5589816866
 31
0.0
  0
LINE
  5
610
330
1F
100
AcDbEntity
  8
TRMODEL1
  6
Continuous
 62
     2
100
AcDbLine
 10
15.0591944741
 20
14.5589816866
 30
0.0
 11
15.0805702616
 21
14.5179489927
 31
0.0
  0
LINE
  5
611
330
1F
100
AcDbEntity
  8
TRMODEL1
  6
Continuous
 62
     2
100
AcDbLine
 10
15.0805702616
 20
14.5179489927
 30
0.0
 11
15.1121509046
 21
14.490049709
 31
0.0
  0
LINE
  5
612
330
1F
100
AcDbEntity
  8
TRMODEL1
  6
Continuous
 62
     2
100
AcDbLine
 10
15.1121509046
 20
14.490049709
 30
0.0
 11
15.1521891394
 21
14.4768274205
 31
0.0
  0
LINE
  5
613
330
1F
100
AcDbEntity
  8
TRMODEL1
  6
Continuous
 62
     2
100
AcDbLine
 10
15.4048783001
 20
14.3456520113
 30
0.0
 11
15.4048783001
 21
14.5711228445
 31
0.0
  0
LINE
  5
614
330
1F
100
AcDbEntity
  8
TRMODEL1
  6
Continuous
 62
     2
100
AcDbLine
 10
15.1251543109
 20
14.1841707895
 30
0.0
 11
15.4048783001
 21
14.3456520113
 31
0.0
  0
LINE
  5
615
330
1F
100
AcDbEntity
  8
TRMODEL1
  6
Continuous
 62
     2
100
AcDbLine
 10
15.1251543109
 20
14.4096416227
 30
0.0
 11
15.1251543109
 21
14.1841707895
 31
0.0
  0
LINE
  5
616
330
1F
100
AcDbEntity
  8
TRMODEL1
  6
Continuous
 62
     2
100
AcDbLine
 10
15.1521891394
 20
14.4768274205
 30
0.0
 11
15.1251543109
 21
14.4096416227
 31
0.0
  0
LINE
  5
617
330
1F
100
AcDbEntity
  8
TRMODEL1
  6
Continuous
 62
     2
100
AcDbLine
 10
15.4048783001
 20
14.5711228445
 30
0.0
 11
15.3778434716
 21
14.6070948937
 31
0.0
  0
LINE
  5
618
330
1F
100
AcDbEntity
  8
TRMODEL1
  6
Continuous
 62
     2
100
AcDbLine
 10
14.9088406078
 20
15.3144672483
 30
0.0
 11
15.4075523596
 21
15.0265670821
 31
0.0
  0
LINE
  5
619
330
1F
100
AcDbEntity
  8
TRMODEL1
  6
Continuous
 62
     2
100
AcDbLine
 10
15.6920508718
 20
17.4771086743
 30
0.0
 11
15.6920508718
 21
17.4021086743
 31
0.0
  0
LINE
  5
61A
330
1F
100
AcDbEntity
  8
TRMODEL1
  6
Continuous
 62
     2
100
AcDbLine
 10
15.6920508718
 20
17.4021086743
 30
0.0
 11
15.6912188951
 21
17.3928344482
 31
0.0
  0
LINE
  5
61B
330
1F
100
AcDbEntity
  8
TRMODEL1
  6
Continuous
 62
     2
100
AcDbLine
 10
15.6912188951
 20
17.3928344482
 30
0.0
 11
15.6887549374
 21
17.3848772051
 31
0.0
  0
LINE
  5
61C
330
1F
100
AcDbEntity
  8
TRMODEL1
  6
Continuous
 62
     2
100
AcDbLine
 10
15.6887549374
 20
17.3848772051
 30
0.0
 11
15.6847536873
 21
17.3785427377
 31
0.0
  0
LINE
  5
61D
330
1F
100
AcDbEntity
  8
TRMODEL1
  6
Continuous
 62
     2
100
AcDbLine
 10
15.6847536873
 20
17.3785427377
 30
0.0
 11
15.6793689095
 21
17.374074475
 31
0.0
  0
LINE
  5
61E
330
1F
100
AcDbEntity
  8
TRMODEL1
  6
Continuous
 62
     2
100
AcDbLine
 10
15.6793689095
 20
17.374074475
 30
0.0
 11
15.6793661913
 21
17.3740734686
 31
0.0
  0
LINE
  5
61F
330
1F
100
AcDbEntity
  8
TRMODEL1
  6
Continuous
 62
     2
100
AcDbLine
 10
15.1724637764
 20
17.7770599199
 30
0.0
 11
15.6920508718
 21
17.4771086743
 31
0.0
  0
LINE
  5
620
330
1F
100
AcDbEntity
  8
TRMODEL1
  6
Continuous
 62
     2
100
AcDbLine
 10
15.9967269822
 20
16.1532382214
 30
0.0
 11
15.9967269822
 21
16.0782382214
 31
0.0
  0
LINE
  5
621
330
1F
100
AcDbEntity
  8
TRMODEL1
  6
Continuous
 62
     2
100
AcDbLine
 10
15.4771398868
 20
16.4531894669
 30
0.0
 11
15.9967269822
 21
16.1532382214
 31
0.0
  0
LINE
  5
622
330
1F
100
AcDbEntity
  8
TRMODEL1
  6
Continuous
 62
     2
100
AcDbLine
 10
15.9967269822
 20
16.0782382214
 30
0.0
 11
15.9958950055
 21
16.0689639952
 31
0.0
  0
LINE
  5
623
330
1F
100
AcDbEntity
  8
TRMODEL1
  6
Continuous
 62
     2
100
AcDbLine
 10
15.9958950055
 20
16.0689639952
 30
0.0
 11
15.9934310478
 21
16.0610067522
 31
0.0
  0
LINE
  5
624
330
1F
100
AcDbEntity
  8
TRMODEL1
  6
Continuous
 62
     2
100
AcDbLine
 10
15.9934310478
 20
16.0610067522
 30
0.0
 11
15.9894297976
 21
16.0546722847
 31
0.0
  0
LINE
  5
625
330
1F
100
AcDbEntity
  8
TRMODEL1
  6
Continuous
 62
     2
100
AcDbLine
 10
15.9894297976
 20
16.0546722847
 30
0.0
 11
15.9840450199
 21
16.0502040221
 31
0.0
  0
LINE
  5
626
330
1F
100
AcDbEntity
  8
TRMODEL1
  6
Continuous
 62
     2
100
AcDbLine
 10
15.9840450199
 20
16.0502040221
 30
0.0
 11
15.9840423017
 21
16.0502030157
 31
0.0
  0
LINE
  5
627
330
1F
100
AcDbEntity
  8
TRMODEL1
  6
Continuous
 62
     2
100
AcDbLine
 10
15.4863809799
 20
17.2626649147
 30
0.0
 11
15.4863809799
 21
16.4585242364
 31
0.0
  0
ARC
  5
628
330
1F
100
AcDbEntity
  8
TRMODEL1
  6
Continuous
 62
     2
100
AcDbCircle
 10
6.7105971282
 20
5.7479614376
 30
0.0
 40
0.3131709781809201
100
AcDbArc
 50
84.3428701753
 51
120.0
  0
ARC
  5
629
330
1F
100
AcDbEntity
  8
TRMODEL1
  6
Continuous
 62
     2
100
AcDbCircle
 10
6.6763683666
 20
5.4024175747
 30
0.0
 40
0.6604060128915024
100
AcDbArc
 50
60.0
 51
84.3428701752
  0
ARC
  5
62A
330
1F
100
AcDbEntity
  8
TRMODEL1
  6
Continuous
 62
     2
100
AcDbCircle
 10
6.4894191462
 20
5.0786120264
 30
0.0
 40
1.0343044537666
100
AcDbArc
 50
43.4494755262
 51
60.0
  0
ARC
  5
62B
330
1F
100
AcDbEntity
  8
TRMODEL1
  6
Continuous
 62
     2
100
AcDbCircle
 10
6.1059215972
 20
4.7153286171
 30
0.0
 40
1.562551749634171
100
AcDbArc
 50
16.5505244739
 51
43.4494755261
  0
ARC
  5
62C
330
1F
100
AcDbEntity
  8
TRMODEL1
  6
Continuous
 62
     2
100
AcDbCircle
 10
6.6122830329
 20
4.8658055323
 30
0.0
 40
1.034304453766288
100
AcDbArc
 50
0.0
 51
16.5505244739
  0
ARC
  5
62D
330
1F
100
AcDbEntity
  8
TRMODEL1
  6
Continuous
 62
     2
100
AcDbCircle
 10
6.9861814738
 20
4.8658055323
 30
0.0
 40
0.6604060128916757
100
AcDbArc
 50
335.6571298247
 51
360.0
  0
ARC
  5
62E
330
1F
100
AcDbEntity
  8
TRMODEL1
  6
Continuous
 62
     2
100
AcDbCircle
 10
7.302545618
 20
4.7226765778
 30
0.0
 40
0.3131709781807416
100
AcDbArc
 50
264.3428701752
 51
335.6571298247
  0
ARC
  5
62F
330
1F
100
AcDbEntity
  8
TRMODEL1
  6
Continuous
 62
     2
100
AcDbCircle
 10
7.3367743795
 20
5.0682204408
 30
0.0
 40
0.6604060128909929
100
AcDbArc
 50
245.2264133934
 51
264.3428701753
  0
ARC
  5
630
330
1F
100
AcDbEntity
  8
TRMODEL1
  6
Continuous
 62
     2
100
AcDbCircle
 10
6.1854765924
 20
4.761259715
 30
0.0
 40
1.562551749633392
100
AcDbArc
 50
30.0
 51
43.4494755261
  0
ARC
  5
631
330
1F
100
AcDbEntity
  8
TRMODEL1
  6
Continuous
 62
     2
100
AcDbCircle
 10
6.1854765924
 20
1.51125965
 30
0.0
 40
1.562551749633391
100
AcDbArc
 50
30.0
 51
43.4494755261
  0
ARC
  5
632
330
1F
100
AcDbEntity
  8
TRMODEL1
  6
Continuous
 62
     2
100
AcDbCircle
 10
6.7105971282
 20
2.4979613726
 30
0.0
 40
0.3131709781810006
100
AcDbArc
 50
84.3428701753
 51
120.0
  0
ARC
  5
633
330
1F
100
AcDbEntity
  8
TRMODEL1
  6
Continuous
 62
     2
100
AcDbCircle
 10
6.6763683666
 20
2.1524175097
 30
0.0
 40
0.6604060128915014
100
AcDbArc
 50
60.0
 51
84.3428701752
  0
ARC
  5
634
330
1F
100
AcDbEntity
  8
TRMODEL1
  6
Continuous
 62
     2
100
AcDbCircle
 10
6.4894191462
 20
1.8286119614
 30
0.0
 40
1.034304453766723
100
AcDbArc
 50
43.4494755262
 51
60.0
  0
ARC
  5
635
330
1F
100
AcDbEntity
  8
TRMODEL1
  6
Continuous
 62
     2
100
AcDbCircle
 10
6.1059215972
 20
1.4653285521
 30
0.0
 40
1.562551749633784
100
AcDbArc
 50
16.5505244739
 51
43.4494755261
  0
ARC
  5
636
330
1F
100
AcDbEntity
  8
TRMODEL1
  6
Continuous
 62
     2
100
AcDbCircle
 10
6.6122830329
 20
1.6158054673
 30
0.0
 40
1.034304453766288
100
AcDbArc
 50
0.0
 51
16.5505244739
  0
ARC
  5
637
330
1F
100
AcDbEntity
  8
TRMODEL1
  6
Continuous
 62
     2
100
AcDbCircle
 10
6.9861814738
 20
1.6158054673
 30
0.0
 40
0.6604060128918037
100
AcDbArc
 50
335.6571298247
 51
360.0
  0
ARC
  5
638
330
1F
100
AcDbEntity
  8
TRMODEL1
  6
Continuous
 62
     2
100
AcDbCircle
 10
7.302545618
 20
1.4726765128
 30
0.0
 40
0.3131709781807131
100
AcDbArc
 50
264.3428701752
 51
335.6571298247
  0
ARC
  5
639
330
1F
100
AcDbEntity
  8
TRMODEL1
  6
Continuous
 62
     2
100
AcDbCircle
 10
7.3367743795
 20
1.8182203758
 30
0.0
 40
0.6604060128909485
100
AcDbArc
 50
245.2264133935
 51
264.3428701753
  0
ARC
  5
63A
330
1F
100
AcDbEntity
  8
TRMODEL1
  6
Continuous
 62
     2
100
AcDbCircle
 10
6.7559233619
 20
5.4483486726
 30
0.0
 40
0.6604060128914236
100
AcDbArc
 50
60.0
 51
84.3428701753
  0
ARC
  5
63B
330
1F
100
AcDbEntity
  8
TRMODEL1
  6
Continuous
 62
     2
100
AcDbCircle
 10
6.7901521234
 20
5.7938925355
 30
0.0
 40
0.3131709781808925
100
AcDbArc
 50
84.3428701753
 51
120.0
  0
ARC
  5
63C
330
1F
100
AcDbEntity
  8
TRMODEL1
  6
Continuous
 62
     2
100
AcDbCircle
 10
7.0269612724
 20
5.6048324832
 30
0.0
 40
0.6604060128913884
100
AcDbArc
 50
155.6571298246
 51
174.7735866065
  0
ARC
  5
63D
330
1F
100
AcDbEntity
  8
TRMODEL1
  6
Continuous
 62
     2
100
AcDbCircle
 10
6.7105971282
 20
5.7479614376
 30
0.0
 40
0.3131709781809023
100
AcDbArc
 50
120.0
 51
155.6571298247
  0
ARC
  5
63E
330
1F
100
AcDbEntity
  8
TRMODEL1
  6
Continuous
 62
     2
100
AcDbCircle
 10
6.5689741414
 20
5.1245431243
 30
0.0
 40
1.034304453766757
100
AcDbArc
 50
43.4494755262
 51
60.0
  0
ARC
  5
63F
330
1F
100
AcDbEntity
  8
TRMODEL1
  6
Continuous
 62
     2
100
AcDbCircle
 10
6.5689741414
 20
1.8745430593
 30
0.0
 40
1.034304453766724
100
AcDbArc
 50
43.4494755262
 51
60.0
  0
ARC
  5
640
330
1F
100
AcDbEntity
  8
TRMODEL1
  6
Continuous
 62
     2
100
AcDbCircle
 10
7.0269612724
 20
2.3548324182
 30
0.0
 40
0.6604060128913889
100
AcDbArc
 50
155.6571298246
 51
174.7735866065
  0
ARC
  5
641
330
1F
100
AcDbEntity
  8
TRMODEL1
  6
Continuous
 62
     2
100
AcDbCircle
 10
6.7105971282
 20
2.4979613726
 30
0.0
 40
0.3131709781810006
100
AcDbArc
 50
120.0
 51
155.6571298247
  0
ARC
  5
642
330
1F
100
AcDbEntity
  8
TRMODEL1
  6
Continuous
 62
     2
100
AcDbCircle
 10
6.7901521234
 20
2.5438924705
 30
0.0
 40
0.3131709781808725
100
AcDbArc
 50
84.3428701753
 51
119.9999999998
  0
ARC
  5
643
330
1F
100
AcDbEntity
  8
TRMODEL1
  6
Continuous
 62
     2
100
AcDbCircle
 10
6.7559233619
 20
2.1983486076
 30
0.0
 40
0.6604060128914118
100
AcDbArc
 50
60.0
 51
84.3428701753
  0
ARC
  5
644
330
1F
100
AcDbEntity
  8
TRMODEL1
  6
Continuous
 62
     2
100
AcDbCircle
 10
7.3821006132
 20
4.7686076757
 30
0.0
 40
0.3131709781808489
100
AcDbArc
 50
300.0
 51
335.6571298247
  0
ARC
  5
645
330
1F
100
AcDbEntity
  8
TRMODEL1
  6
Continuous
 62
     2
100
AcDbCircle
 10
7.065736469
 20
4.9117366302
 30
0.0
 40
0.660406012891273
100
AcDbArc
 50
335.6571298247
 51
0.0
  0
ARC
  5
646
330
1F
100
AcDbEntity
  8
TRMODEL1
  6
Continuous
 62
     2
100
AcDbCircle
 10
6.6918380281
 20
4.9117366302
 30
0.0
 40
1.034304453766608
100
AcDbArc
 50
0.0
 51
16.5505244739
  0
ARC
  5
647
330
1F
100
AcDbEntity
  8
TRMODEL1
  6
Continuous
 62
     2
100
AcDbCircle
 10
6.1854765924
 20
4.761259715
 30
0.0
 40
1.562551749633391
100
AcDbArc
 50
16.5505244739
 51
30.0
  0
ARC
  5
648
330
1F
100
AcDbEntity
  8
TRMODEL1
  6
Continuous
 62
     2
100
AcDbCircle
 10
6.1854765924
 20
1.51125965
 30
0.0
 40
1.562551749633391
100
AcDbArc
 50
16.5505244739
 51
30.0
  0
ARC
  5
649
330
1F
100
AcDbEntity
  8
TRMODEL1
  6
Continuous
 62
     2
100
AcDbCircle
 10
6.6918380281
 20
1.6617365652
 30
0.0
 40
1.034304453766439
100
AcDbArc
 50
0.0
 51
16.5505244739
  0
ARC
  5
64A
330
1F
100
AcDbEntity
  8
TRMODEL1
  6
Continuous
 62
     2
100
AcDbCircle
 10
7.065736469
 20
1.6617365652
 30
0.0
 40
0.6604060128913094
100
AcDbArc
 50
335.6571298247
 51
0.0
  0
ARC
  5
64B
330
1F
100
AcDbEntity
  8
TRMODEL1
  6
Continuous
 62
     2
100
AcDbCircle
 10
7.3821006132
 20
1.5186076107
 30
0.0
 40
0.3131709781809115
100
AcDbArc
 50
300.0
 51
335.6571298247
  0
ENDSEC
  0
SECTION
  2
OBJECTS
  0
DICTIONARY
  5
C
330
0
100
AcDbDictionary
281
     1
  3
ACAD_GROUP
350
D
  3
ACAD_LAYOUT
350
1A
  3
ACAD_MLINESTYLE
350
17
  3
ACAD_PLOTSETTINGS
350
19
  3
ACAD_PLOTSTYLENAME
350
E
  3
ACAD_TABLESTYLE
350
64C
  3
ACAD_VISUALSTYLE
350
2A
  0
DICTIONARY
  5
D
102
{ACAD_REACTORS
330
C
102
}
330
C
100
AcDbDictionary
281
     1
  0
DICTIONARY
  5
1A
102
{ACAD_REACTORS
330
C
102
}
330
C
100
AcDbDictionary
281
     1
  3
Layout1
350
1E
  3
Layout2
350
26
  3
Model
350
22
  0
DICTIONARY
  5
17
102
{ACAD_REACTORS
330
C
102
}
330
C
100
AcDbDictionary
281
     1
  3
Standard
350
18
  0
DICTIONARY
  5
19
102
{ACAD_REACTORS
330
C
102
}
330
C
100
AcDbDictionary
281
     1
  0
ACDBDICTIONARYWDFLT
  5
E
102
{ACAD_REACTORS
330
C
102
}
330
C
100
AcDbDictionary
281
     1
  3
Normal
350
F
100
AcDbDictionaryWithDefault
340
F
  0
DICTIONARY
  5
64C
102
{ACAD_REACTORS
330
C
102
}
330
C
100
AcDbDictionary
281
     1
  0
DICTIONARY
  5
2A
102
{ACAD_REACTORS
330
C
102
}
330
C
100
AcDbDictionary
281
     1
  3
2dWireframe
350
2F
  3
3D Hidden
350
31
  3
3dWireframe
350
30
  3
Basic
350
32
  3
Brighten
350
36
  3
ColorChange
350
3A
  3
Conceptual
350
34
  3
Dim
350
35
  3
Facepattern
350
39
  3
Flat
350
2B
  3
FlatWithEdges
350
2C
  3
Gouraud
350
2D
  3
GouraudWithEdges
350
2E
  3
Linepattern
350
38
  3
Realistic
350
33
  3
Thicken
350
37
  0
LAYOUT
  5
1E
102
{ACAD_REACTORS
330
1A
102
}
330
1A
100
AcDbPlotSettings
  1

  2
none_device
  4

  6

 40
0.0
 41
0.0
 42
0.0
 43
0.0
 44
0.0
 45
0.0
 46
0.0
 47
0.0
 48
0.0
 49
0.0
140
0.0
141
0.0
142
1.0
143
1.0
 70
   688
 72
     0
 73
     0
 74
     5
  7

 75
    16
147
1.0
148
0.0
149
0.0
100
AcDbLayout
  1
Layout1
 70
     1
 71
     1
 10
0.0
 20
0.0
 11
12.0
 21
9.0
 12
0.0
 22
0.0
 32
0.0
 14
1.0000000000E+20
 24
1.0000000000E+20
 34
1.0000000000E+20
 15
-1.0000000000E+20
 25
-1.0000000000E+20
 35
-1.0000000000E+20
146
0.0
 13
0.0
 23
0.0
 33
0.0
 16
1.0
 26
0.0
 36
0.0
 17
0.0
 27
1.0
 37
0.0
 76
     0
330
1B
  0
LAYOUT
  5
26
102
{ACAD_REACTORS
330
1A
102
}
330
1A
100
AcDbPlotSettings
  1

  2
none_device
  4

  6

 40
0.0
 41
0.0
 42
0.0
 43
0.0
 44
0.0
 45
0.0
 46
0.0
 47
0.0
 48
0.0
 49
0.0
140
0.0
141
0.0
142
1.0
143
1.0
 70
   688
 72
     0
 73
     0
 74
     5
  7

 75
    16
147
1.0
148
0.0
149
0.0
100
AcDbLayout
  1
Layout2
 70
     1
 71
     2
 10
0.0
 20
0.0
 11
0.0
 21
0.0
 12
0.0
 22
0.0
 32
0.0
 14
0.0
 24
0.0
 34
0.0
 15
0.0
 25
0.0
 35
0.0
146
0.0
 13
0.0
 23
0.0
 33
0.0
 16
1.0
 26
0.0
 36
0.0
 17
0.0
 27
1.0
 37
0.0
 76
     0
330
23
  0
LAYOUT
  5
22
102
{ACAD_REACTORS
330
1A
102
}
330
1A
100
AcDbPlotSettings
  1

  2
none_device
  4

  6

 40
0.0
 41
0.0
 42
0.0
 43
0.0
 44
0.0
 45
0.0
 46
0.0
 47
0.0
 48
0.0
 49
0.0
140
0.0
141
0.0
142
1.0
143
1.0
 70
  1712
 72
     0
 73
     0
 74
     0
  7

 75
     0
147
1.0
148
0.0
149
0.0
100
AcDbLayout
  1
Model
 70
     1
 71
     0
 10
0.0
 20
0.0
 11
44.0
 21
34.0
 12
0.0
 22
0.0
 32
0.0
 14
0.0
 24
0.0
 34
0.0
 15
44.0
 25
34.0
 35
0.0
146
0.0
 13
0.0
 23
0.0
 33
0.0
 16
1.0
 26
0.0
 36
0.0
 17
0.0
 27
1.0
 37
0.0
 76
     0
330
1F
331
29
  0
MLINESTYLE
  5
18
102
{ACAD_REACTORS
330
17
102
}
330
17
100
AcDbMlineStyle
  2
Standard
 70
     0
  3

 62
   256
 51
90.0
 52
90.0
 71
     2
 49
0.5
 62
   256
  6
BYLAYER
 49
-0.5
 62
   256
  6
BYLAYER
  0
ACDBPLACEHOLDER
  5
F
102
{ACAD_REACTORS
330
E
102
}
330
E
  0
VISUALSTYLE
  5
2F
102
{ACAD_REACTORS
330
2A
102
}
330
2A
100
AcDbVisualStyle
  2
2dWireframe
 70
     4
 71
     0
 72
     2
 73
     0
 90
        0
 40
-0.6
 41
-30.0
 62
     5
 63
     7
 74
     1
 91
        4
 64
     7
 65
   257
 75
     1
175
     1
 42
1.0
 92
        0
 66
   257
 43
1.0
 76
     1
 77
     6
 78
     2
 67
     7
 79
     5
170
     0
171
     0
290
     0
174
     0
 93
        1
 44
0.0
173
     0
291
     0
 45
0.0
1001
ACAD
1000
AcDbSavedByObjectVersion
1070
     0
  0
VISUALSTYLE
  5
31
102
{ACAD_REACTORS
330
2A
102
}
330
2A
100
AcDbVisualStyle
  2
3D Hidden
 70
     6
 71
     1
 72
     2
 73
     2
 90
        0
 40
-0.6
 41
-30.0
 62
     5
 63
     7
 74
     2
 91
        2
 64
     7
 65
   257
 75
     2
175
     1
 42
40.0
 92
        0
 66
   257
 43
1.0
 76
     1
 77
     6
 78
     2
 67
     7
 79
     3
170
     0
171
     0
290
     0
174
     0
 93
        1
 44
0.0
173
     0
291
     0
 45
0.0
1001
ACAD
1000
AcDbSavedByObjectVersion
1070
     0
  0
VISUALSTYLE
  5
30
102
{ACAD_REACTORS
330
2A
102
}
330
2A
100
AcDbVisualStyle
  2
3dWireframe
 70
     5
 71
     0
 72
     2
 73
     0
 90
        0
 40
-0.6
 41
-30.0
 62
     5
 63
     7
 74
     1
 91
        4
 64
     7
 65
   257
 75
     1
175
     1
 42
1.0
 92
        0
 66
   257
 43
1.0
 76
     1
 77
     6
 78
     2
 67
     7
 79
     5
170
     0
171
     0
290
     0
174
     0
 93
        1
 44
0.0
173
     0
291
     0
 45
0.0
1001
ACAD
1000
AcDbSavedByObjectVersion
1070
     0
  0
VISUALSTYLE
  5
32
102
{ACAD_REACTORS
330
2A
102
}
330
2A
100
AcDbVisualStyle
  2
Basic
 70
     7
 71
     1
 72
     0
 73
     1
 90
        0
 40
-0.6
 41
-30.0
 62
     5
 63
     7
 74
     0
 91
        4
 64
     7
 65
   257
 75
     1
175
     1
 42
1.0
 92
        8
 66
     7
 43
1.0
 76
     1
 77
     6
 78
     2
 67
     7
 79
     5
170
     0
171
     0
290
     0
174
     0
 93
        1
 44
0.0
173
     0
291
     1
 45
0.0
1001
ACAD
1000
AcDbSavedByObjectVersion
1070
     0
  0
VISUALSTYLE
  5
36
102
{ACAD_REACTORS
330
2A
102
}
330
2A
100
AcDbVisualStyle
  2
Brighten
 70
    12
 71
     2
 72
     2
 73
     0
 90
        0
 40
-0.6
 41
-30.0
 62
     5
 63
     7
 74
     1
 91
        4
 64
     7
 65
   257
 75
     1
175
     1
 42
1.0
 92
        8
 66
     7
 43
1.0
 76
     1
 77
     6
 78
     2
 67
     7
 79
     5
170
     0
171
     0
290
     0
174
     0
 93
        1
 44
50.0
173
     0
291
     1
 45
0.0
1001
ACAD
1000
AcDbSavedByObjectVersion
1070
     0
  0
VISUALSTYLE
  5
3A
102
{ACAD_REACTORS
330
2A
102
}
330
2A
100
AcDbVisualStyle
  2
ColorChange
 70
    16
 71
     2
 72
     2
 73
     3
 90
        0
 40
-0.6
 41
-30.0
 62
     5
 63
     8
 74
     1
 91
        4
 64
     7
 65
   257
 75
     1
175
     1
 42
1.0
 92
        8
 66
     8
 43
1.0
 76
     1
 77
     6
 78
     2
 67
     7
 79
     5
170
     0
171
     0
290
     0
174
     0
 93
        1
 44
0.0
173
     0
291
     1
 45
0.0
1001
ACAD
1000
AcDbSavedByObjectVersion
1070
     0
  0
VISUALSTYLE
  5
34
102
{ACAD_REACTORS
330
2A
102
}
330
2A
100
AcDbVisualStyle
  2
Conceptual
 70
     9
 71
     3
 72
     2
 73
     0
 90
        0
 40
-0.6
 41
-30.0
 62
     5
 63
     7
 74
     2
 91
        2
 64
     7
 65
   257
 75
     1
175
     1
 42
40.0
 92
        8
 66
     7
 43
1.0
 76
     1
 77
     6
 78
     2
 67
     7
 79
     3
170
     0
171
     0
290
     0
174
     0
 93
        1
 44
0.0
173
     0
291
     0
 45
0.0
1001
ACAD
1000
AcDbSavedByObjectVersion
1070
     0
  0
VISUALSTYLE
  5
35
102
{ACAD_REACTORS
330
2A
102
}
330
2A
100
AcDbVisualStyle
  2
Dim
 70
    11
 71
     2
 72
     2
 73
     0
 90
        0
 40
-0.6
 41
-30.0
 62
     5
 63
     7
 74
     1
 91
        4
 64
     7
 65
   257
 75
     1
175
     1
 42
1.0
 92
        8
 66
     7
 43
1.0
 76
     1
 77
     6
 78
     2
 67
     7
 79
     5
170
     0
171
     0
290
     0
174
     0
 93
        1
 44
-50.0
173
     0
291
     1
 45
0.0
1001
ACAD
1000
AcDbSavedByObjectVersion
1070
     0
  0
VISUALSTYLE
  5
39
102
{ACAD_REACTORS
330
2A
102
}
330
2A
100
AcDbVisualStyle
  2
Facepattern
 70
    15
 71
     2
 72
     2
 73
     0
 90
        0
 40
-0.6
 41
-30.0
 62
     5
 63
     7
 74
     1
 91
        4
 64
     7
 65
   257
 75
     1
175
     1
 42
1.0
 92
        8
 66
     7
 43
1.0
 76
     1
 77
     6
 78
     2
 67
     7
 79
     5
170
     0
171
     0
290
     0
174
     0
 93
        1
 44
0.0
173
     0
291
     1
 45
0.0
1001
ACAD
1000
AcDbSavedByObjectVersion
1070
     0
  0
VISUALSTYLE
  5
2B
102
{ACAD_REACTORS
330
2A
102
}
330
2A
100
AcDbVisualStyle
  2
Flat
 70
     0
 71
     2
 72
     1
 73
     1
 90
        2
 40
-0.6
 41
30.0
 62
     5
 63
     7
 74
     0
 91
        4
 64
     7
 65
   257
 75
     1
175
     1
 42
1.0
 92
        8
 66
     7
 43
1.0
 76
     1
 77
     6
 78
     2
 67
     7
 79
     5
170
     0
171
     0
290
     0
174
     0
 93
       13
 44
0.0
173
     0
291
     1
 45
0.0
1001
ACAD
1000
AcDbSavedByObjectVersion
1070
     0
  0
VISUALSTYLE
  5
2C
102
{ACAD_REACTORS
330
2A
102
}
330
2A
100
AcDbVisualStyle
  2
FlatWithEdges
 70
     1
 71
     2
 72
     1
 73
     1
 90
        2
 40
-0.6
 41
30.0
 62
     5
 63
     7
 74
     1
 91
        4
 64
     7
 65
   257
 75
     1
175
     1
 42
1.0
 92
        0
 66
   257
 43
1.0
 76
     1
 77
     6
 78
     2
 67
     7
 79
     5
170
     0
171
     0
290
     0
174
     0
 93
       13
 44
0.0
173
     0
291
     1
 45
0.0
1001
ACAD
1000
AcDbSavedByObjectVersion
1070
     0
  0
VISUALSTYLE
  5
2D
102
{ACAD_REACTORS
330
2A
102
}
330
2A
100
AcDbVisualStyle
  2
Gouraud
 70
     2
 71
     2
 72
     2
 73
     1
 90
        2
 40
-0.6
 41
30.0
 62
     5
 63
     7
 74
     0
 91
        4
 64
     7
 65
   257
 75
     1
175
     1
 42
1.0
 92
        0
 66
     7
 43
1.0
 76
     1
 77
     6
 78
     2
 67
     7
 79
     5
170
     0
171
     0
290
     0
174
     0
 93
       13
 44
0.0
173
     0
291
     1
 45
0.0
1001
ACAD
1000
AcDbSavedByObjectVersion
1070
     0
  0
VISUALSTYLE
  5
2E
102
{ACAD_REACTORS
330
2A
102
}
330
2A
100
AcDbVisualStyle
  2
GouraudWithEdges
 70
     3
 71
     2
 72
     2
 73
     1
 90
        2
 40
-0.6
 41
30.0
 62
     5
 63
     7
 74
     1
 91
        4
 64
     7
 65
   257
 75
     1
175
     1
 42
1.0
 92
        0
 66
   257
 43
1.0
 76
     1
 77
     6
 78
     2
 67
     7
 79
     5
170
     0
171
     0
290
     0
174
     0
 93
       13
 44
0.0
173
     0
291
     1
 45
0.0
1001
ACAD
1000
AcDbSavedByObjectVersion
1070
     0
  0
VISUALSTYLE
  5
38
102
{ACAD_REACTORS
330
2A
102
}
330
2A
100
AcDbVisualStyle
  2
Linepattern
 70
    14
 71
     2
 72
     2
 73
     0
 90
        0
 40
-0.6
 41
-30.0
 62
     5
 63
     7
 74
     1
 91
        4
 64
     7
 65
   257
 75
     7
175
     7
 42
1.0
 92
        8
 66
     7
 43
1.0
 76
     1
 77
     6
 78
     2
 67
     7
 79
     5
170
     0
171
     0
290
     0
174
     0
 93
        1
 44
0.0
173
     0
291
     1
 45
0.0
1001
ACAD
1000
AcDbSavedByObjectVersion
1070
     0
  0
VISUALSTYLE
  5
33
102
{ACAD_REACTORS
330
2A
102
}
330
2A
100
AcDbVisualStyle
  2
Realistic
 70
     8
 71
     2
 72
     2
 73
     0
 90
        0
 40
-0.6
 41
-30.0
 62
     5
 63
     7
 74
     1
 91
        0
 64
     7
 65
   257
 75
     1
175
     1
 42
1.0
 92
        8
 66
     8
 43
1.0
 76
     1
 77
     6
 78
     2
 67
     7
 79
     5
170
     0
171
     0
290
     0
174
     0
 93
       13
 44
0.0
173
     0
291
     0
 45
0.0
1001
ACAD
1000
AcDbSavedByObjectVersion
1070
     0
  0
VISUALSTYLE
  5
37
102
{ACAD_REACTORS
330
2A
102
}
330
2A
100
AcDbVisualStyle
  2
Thicken
 70
    13
 71
     2
 72
     2
 73
     0
 90
        0
 40
-0.6
 41
-30.0
 62
     5
 63
     7
 74
     1
 91
        4
 64
     7
 65
   257
 75
     1
175
     1
 42
1.0
 92
       12
 66
     7
 43
1.0
 76
     1
 77
     6
 78
     2
 67
     7
 79
     5
170
     0
171
     0
290
     0
174
     0
 93
        1
 44
0.0
173
     0
291
     1
 45
0.0
1001
ACAD
1000
AcDbSavedByObjectVersion
1070
     0
  0
ENDSEC
  0
EOF
