  0
SECTION
  2
HEADER
  9
$ACADVER
  1
AC1015
  9
$ACADMAINTVER
 70
     6
  9
$DWGCODEPAGE
  3
ANSI_1252
  9
$INSBASE
 10
0.0
 20
0.0
 30
0.0
  9
$EXTMIN
 10
0.0
 20
0.0
 30
0.0
  9
$EXTMAX
 10
11.0
 20
8.5
 30
0.0
  9
$LIMMIN
 10
0.0
 20
0.0
  9
$LIMMAX
 10
11.0
 20
8.5
  9
$ORTHOMODE
 70
     0
  9
$REGENMODE
 70
     1
  9
$FILLMODE
 70
     1
  9
$QTEXTMODE
 70
     0
  9
$MIRRTEXT
 70
     1
  9
$LTSCALE
 40
1.0
  9
$ATTMODE
 70
     1
  9
$TEXTSIZE
 40
0.1377952756
  9
$TRACEWID
 40
0.05
  9
$TEXTSTYLE
  7
Standard
  9
$CLAYER
  8
0
  9
$CELTYPE
  6
ByLayer
  9
$CECOLOR
 62
   256
  9
$CELTSCALE
 40
1.0
  9
$DISPSILH
 70
     0
  9
$DIMSCALE
 40
1.0
  9
$DIMASZ
 40
0.2362204724
  9
$DIMEXO
 40
0.0393700787
  9
$DIMDLI
 40
0.38
  9
$DIMRND
 40
0.0
  9
$DIMDLE
 40
0.0
  9
$DIMEXE
 40
0.0393700787
  9
$DIMTP
 40
0.0
  9
$DIMTM
 40
0.0
  9
$DIMTXT
 40
0.1377952756
  9
$DIMCEN
 40
0.09
  9
$DIMTSZ
 40
0.0
  9
$DIMTOL
 70
     0
  9
$DIMLIM
 70
     0
  9
$DIMTIH
 70
     1
  9
$DIMTOH
 70
     1
  9
$DIMSE1
 70
     0
  9
$DIMSE2
 70
     0
  9
$DIMTAD
 70
     1
  9
$DIMZIN
 70
     1
  9
$DIMBLK
  1

  9
$DIMASO
 70
     1
  9
$DIMSHO
 70
     1
  9
$DIMPOST
  1

  9
$DIMAPOST
  1

  9
$DIMALT
 70
     0
  9
$DIMALTD
 70
     2
  9
$DIMALTF
 40
25.4
  9
$DIMLFAC
 40
6.0
  9
$DIMTOFL
 70
     0
  9
$DIMTVP
 40
0.0
  9
$DIMTIX
 70
     0
  9
$DIMSOXD
 70
     0
  9
$DIMSAH
 70
     0
  9
$DIMBLK1
  1

  9
$DIMBLK2
  1

  9
$DIMSTYLE
  2
Standard
  9
$DIMCLRD
 70
     0
  9
$DIMCLRE
 70
     0
  9
$DIMCLRT
 70
     0
  9
$DIMTFAC
 40
1.0
  9
$DIMGAP
 40
0.06
  9
$DIMJUST
 70
     0
  9
$DIMSD1
 70
     0
  9
$DIMSD2
 70
     0
  9
$DIMTOLJ
 70
     1
  9
$DIMTZIN
 70
     1
  9
$DIMALTZ
 70
     0
  9
$DIMALTTZ
 70
     0
  9
$DIMUPT
 70
     0
  9
$DIMDEC
 70
     4
  9
$DIMTDEC
 70
     4
  9
$DIMALTU
 70
     2
  9
$DIMALTTD
 70
     2
  9
$DIMTXSTY
  7
Standard
  9
$DIMAUNIT
 70
     0
  9
$DIMADEC
 70
     0
  9
$DIMALTRND
 40
0.0
  9
$DIMAZIN
 70
     0
  9
$DIMDSEP
 70
    46
  9
$DIMATFIT
 70
     3
  9
$DIMFRAC
 70
     0
  9
$DIMLDRBLK
  1

  9
$DIMLUNIT
 70
     2
  9
$DIMLWD
 70
    -2
  9
$DIMLWE
 70
    -2
  9
$DIMTMOVE
 70
     0
  9
$LUNITS
 70
     2
  9
$LUPREC
 70
     4
  9
$SKETCHINC
 40
0.1
  9
$FILLETRAD
 40
0.5
  9
$AUNITS
 70
     0
  9
$AUPREC
 70
     0
  9
$MENU
  1
.
  9
$ELEVATION
 40
0.0
  9
$PELEVATION
 40
0.0
  9
$THICKNESS
 40
0.0
  9
$LIMCHECK
 70
     0
  9
$CHAMFERA
 40
0.5
  9
$CHAMFERB
 40
0.5
  9
$CHAMFERC
 40
1.0
  9
$CHAMFERD
 40
0.0
  9
$SKPOLY
 70
     0
  9
$TDCREATE
 40
2454441.221659734
  9
$TDUCREATE
 40
2454441.554993067
  9
$TDUPDATE
 40
2454441.221659746
  9
$TDUUPDATE
 40
2454441.554993079
  9
$TDINDWG
 40
0.0000000116
  9
$TDUSRTIMER
 40
0.0000000116
  9
$USRTIMER
 70
     1
  9
$ANGBASE
 50
0.0
  9
$ANGDIR
 70
     0
  9
$PDMODE
 70
     0
  9
$PDSIZE
 40
-1.0
  9
$PLINEWID
 40
0.0
  9
$SPLFRAME
 70
     0
  9
$SPLINETYPE
 70
     6
  9
$SPLINESEGS
 70
     8
  9
$HANDSEED
  5
2B2
  9
$SURFTAB1
 70
     6
  9
$SURFTAB2
 70
     6
  9
$SURFTYPE
 70
     6
  9
$SURFU
 70
     6
  9
$SURFV
 70
     6
  9
$UCSBASE
  2

  9
$UCSNAME
  2

  9
$UCSORG
 10
0.0
 20
0.0
 30
0.0
  9
$UCSXDIR
 10
1.0
 20
0.0
 30
0.0
  9
$UCSYDIR
 10
0.0
 20
1.0
 30
0.0
  9
$UCSORTHOREF
  2

  9
$UCSORTHOVIEW
 70
     0
  9
$UCSORGTOP
 10
0.0
 20
0.0
 30
0.0
  9
$UCSORGBOTTOM
 10
0.0
 20
0.0
 30
0.0
  9
$UCSORGLEFT
 10
0.0
 20
0.0
 30
0.0
  9
$UCSORGRIGHT
 10
0.0
 20
0.0
 30
0.0
  9
$UCSORGFRONT
 10
0.0
 20
0.0
 30
0.0
  9
$UCSORGBACK
 10
0.0
 20
0.0
 30
0.0
  9
$PUCSBASE
  2

  9
$PUCSNAME
  2

  9
$PUCSORG
 10
0.0
 20
0.0
 30
0.0
  9
$PUCSXDIR
 10
1.0
 20
0.0
 30
0.0
  9
$PUCSYDIR
 10
0.0
 20
1.0
 30
0.0
  9
$PUCSORTHOREF
  2

  9
$PUCSORTHOVIEW
 70
     0
  9
$PUCSORGTOP
 10
0.0
 20
0.0
 30
0.0
  9
$PUCSORGBOTTOM
 10
0.0
 20
0.0
 30
0.0
  9
$PUCSORGLEFT
 10
0.0
 20
0.0
 30
0.0
  9
$PUCSORGRIGHT
 10
0.0
 20
0.0
 30
0.0
  9
$PUCSORGFRONT
 10
0.0
 20
0.0
 30
0.0
  9
$PUCSORGBACK
 10
0.0
 20
0.0
 30
0.0
  9
$USERI1
 70
     0
  9
$USERI2
 70
     0
  9
$USERI3
 70
     0
  9
$USERI4
 70
     0
  9
$USERI5
 70
     0
  9
$USERR1
 40
0.0
  9
$USERR2
 40
0.0
  9
$USERR3
 40
0.0
  9
$USERR4
 40
0.0
  9
$USERR5
 40
0.0
  9
$WORLDVIEW
 70
     1
  9
$SHADEDGE
 70
     3
  9
$SHADEDIF
 70
    70
  9
$TILEMODE
 70
     1
  9
$MAXACTVP
 70
    64
  9
$PINSBASE
 10
0.0
 20
0.0
 30
0.0
  9
$PLIMCHECK
 70
     0
  9
$PEXTMIN
 10
1.0000000000E+20
 20
1.0000000000E+20
 30
1.0000000000E+20
  9
$PEXTMAX
 10
-1.0000000000E+20
 20
-1.0000000000E+20
 30
-1.0000000000E+20
  9
$PLIMMIN
 10
0.0
 20
0.0
  9
$PLIMMAX
 10
12.0
 20
9.0
  9
$UNITMODE
 70
     0
  9
$VISRETAIN
 70
     1
  9
$PLINEGEN
 70
     0
  9
$PSLTSCALE
 70
     1
  9
$TREEDEPTH
 70
  3020
  9
$CMLSTYLE
  2
Standard
  9
$CMLJUST
 70
     0
  9
$CMLSCALE
 40
1.0
  9
$PROXYGRAPHICS
 70
     1
  9
$MEASUREMENT
 70
     0
  9
$CELWEIGHT
370
    -1
  9
$ENDCAPS
280
     0
  9
$JOINSTYLE
280
     0
  9
$LWDISPLAY
290
     1
  9
$INSUNITS
 70
     1
  9
$HYPERLINKBASE
  1

  9
$STYLESHEET
  1

  9
$XEDIT
290
     1
  9
$CEPSNTYPE
380
     0
  9
$PSTYLEMODE
290
     1
  9
$FINGERPRINTGUID
  2
{90505A48-0AFB-4CC8-961C-B8D21A5D6DC4}
  9
$VERSIONGUID
  2
{FAEB1C32-E019-11D5-929B-00C0DF256EC4}
  9
$EXTNAMES
290
     1
  9
$PSVPSCALE
 40
0.0
  9
$OLESTARTUP
290
     0
  0
ENDSEC
  0
SECTION
  2
CLASSES
  0
CLASS
  1
ACDBDICTIONARYWDFLT
  2
AcDbDictionaryWithDefault
  3
ObjectDBX Classes
 90
        0
280
     0
281
     0
  0
CLASS
  1
VISUALSTYLE
  2
AcDbVisualStyle
  3
ObjectDBX Classes
 90
     4095
280
     0
281
     0
  0
CLASS
  1
ACDBPLACEHOLDER
  2
AcDbPlaceHolder
  3
ObjectDBX Classes
 90
        0
280
     0
281
     0
  0
CLASS
  1
LAYOUT
  2
AcDbLayout
  3
ObjectDBX Classes
 90
        0
280
     0
281
     0
  0
ENDSEC
  0
SECTION
  2
TABLES
  0
TABLE
  2
VPORT
  5
8
330
0
100
AcDbSymbolTable
 70
     1
  0
VPORT
  5
29
330
8
100
AcDbSymbolTableRecord
100
AcDbViewportTableRecord
  2
*Active
 70
     0
 10
0.0
 20
0.0
 11
1.0
 21
1.0
 12
5.5
 22
4.25
 13
0.0
 23
0.0
 14
0.5
 24
0.5
 15
0.5
 25
0.5
 16
0.0
 26
0.0
 36
1.0
 17
0.0
 27
0.0
 37
0.0
 40
8.5
 41
1.2941176471
 42
50.0
 43
0.0
 44
0.0
 50
0.0
 51
0.0
 71
     0
 72
  2000
 73
     1
 74
     3
 75
     0
 76
     0
 77
     0
 78
     0
281
     0
 65
     1
110
0.0
120
0.0
130
0.0
111
1.0
121
0.0
131
0.0
112
0.0
122
1.0
132
0.0
 79
     0
146
0.0
  0
ENDTAB
  0
TABLE
  2
LTYPE
  5
5
330
0
100
AcDbSymbolTable
 70
     6
  0
LTYPE
  5
14
330
5
100
AcDbSymbolTableRecord
100
AcDbLinetypeTableRecord
  2
ByBlock
 70
     0
  3

 72
    65
 73
     0
 40
0.0
  0
LTYPE
  5
15
330
5
100
AcDbSymbolTableRecord
100
AcDbLinetypeTableRecord
  2
ByLayer
 70
     0
  3

 72
    65
 73
     0
 40
0.0
  0
LTYPE
  5
16
330
5
100
AcDbSymbolTableRecord
100
AcDbLinetypeTableRecord
  2
Continuous
 70
     0
  3
Solid line
 72
    65
 73
     0
 40
0.0
  0
LTYPE
  5
3B
330
5
100
AcDbSymbolTableRecord
100
AcDbLinetypeTableRecord
  2
HIDDEN
 70
     0
  3
Hidden __ __ __ __ __ __ __ __ __ __ __ __ __ __
 72
    65
 73
     2
 40
0.075
 49
0.05
 74
     0
 49
-0.025
 74
     0
  0
LTYPE
  5
3C
330
5
100
AcDbSymbolTableRecord
100
AcDbLinetypeTableRecord
  2
PHANTOM
 70
     0
  3
Phantom ______  __  __  ______  __  __  ______
 72
    65
 73
     6
 40
0.5
 49
0.25
 74
     0
 49
-0.05
 74
     0
 49
0.05
 74
     0
 49
-0.05
 74
     0
 49
0.05
 74
     0
 49
-0.05
 74
     0
  0
LTYPE
  5
3D
330
5
100
AcDbSymbolTableRecord
100
AcDbLinetypeTableRecord
  2
CENTER
 70
     0
  3
Center ____ _ ____ _ ____ _ ____ _ ____ _ ____
 72
    65
 73
     4
 40
0.4
 49
0.25
 74
     0
 49
-0.05
 74
     0
 49
0.05
 74
     0
 49
-0.05
 74
     0
  0
LTYPE
  5
3E
330
5
100
AcDbSymbolTableRecord
100
AcDbLinetypeTableRecord
  2
CENTERX2
 70
     0
  3
Center (2x) ________  __  ________  __  _____
 72
    65
 73
     4
 40
0.8
 49
0.5
 74
     0
 49
-0.1
 74
     0
 49
0.1
 74
     0
 49
-0.1
 74
     0
  0
LTYPE
  5
3F
330
5
100
AcDbSymbolTableRecord
100
AcDbLinetypeTableRecord
  2
DOT2
 70
     0
  3
Dot (.5x) ........................................
 72
    65
 73
     2
 40
0.025
 49
0.0
 74
     0
 49
-0.025
 74
     0
  0
ENDTAB
  0
TABLE
  2
LAYER
  5
2
330
0
100
AcDbSymbolTable
 70
    14
  0
LAYER
  5
10
330
2
100
AcDbSymbolTableRecord
100
AcDbLayerTableRecord
  2
0
 70
     0
 62
     7
  6
Continuous
370
    -3
390
F
  0
LAYER
  5
40
330
2
100
AcDbSymbolTableRecord
100
AcDbLayerTableRecord
  2
SLD-0
 70
     0
 62
   179
  6
Continuous
370
    -3
390
F
  0
LAYER
  5
41
330
2
100
AcDbSymbolTableRecord
100
AcDbLayerTableRecord
  2
2
 70
     0
 62
     2
  6
Continuous
370
    -3
390
F
  0
LAYER
  5
42
330
2
100
AcDbSymbolTableRecord
100
AcDbLayerTableRecord
  2
3
 70
     0
 62
     3
  6
HIDDEN
370
    -3
390
F
  0
LAYER
  5
43
330
2
100
AcDbSymbolTableRecord
100
AcDbLayerTableRecord
  2
4
 70
     0
 62
     4
  6
Continuous
370
    -3
390
F
  0
LAYER
  5
44
330
2
100
AcDbSymbolTableRecord
100
AcDbLayerTableRecord
  2
99
 70
     0
 62
     1
  6
Continuous
370
    -3
390
F
  0
LAYER
  5
45
330
2
100
AcDbSymbolTableRecord
100
AcDbLayerTableRecord
  2
TRMODEL1
 70
     0
 62
   179
  6
Continuous
370
    -3
390
F
  0
LAYER
  5
46
330
2
100
AcDbSymbolTableRecord
100
AcDbLayerTableRecord
  2
TRMODEL2
 70
     0
 62
     3
  6
Continuous
370
    -3
390
F
  0
LAYER
  5
47
330
2
100
AcDbSymbolTableRecord
100
AcDbLayerTableRecord
  2
TRMODEL3
 70
     0
 62
     1
  6
HIDDEN
370
    -3
390
F
  0
LAYER
  5
48
330
2
100
AcDbSymbolTableRecord
100
AcDbLayerTableRecord
  2
TRDIM
 70
     0
 62
     3
  6
Continuous
370
    -3
390
F
  0
LAYER
  5
49
330
2
100
AcDbSymbolTableRecord
100
AcDbLayerTableRecord
  2
TRDETAIL1
 70
     0
 62
     1
  6
Continuous
370
    -3
390
F
  0
LAYER
  5
4A
330
2
100
AcDbSymbolTableRecord
100
AcDbLayerTableRecord
  2
TRDETAIL2
 70
     0
 62
     6
  6
HIDDEN
370
    -3
390
F
  0
LAYER
  5
4B
330
2
100
AcDbSymbolTableRecord
100
AcDbLayerTableRecord
  2
TRDETAIL3
 70
     0
 62
     4
  6
CENTERX2
370
    -3
390
F
  0
LAYER
  5
4C
330
2
100
AcDbSymbolTableRecord
100
AcDbLayerTableRecord
  2
TRTEXT
 70
     0
 62
   179
  6
Continuous
370
    -3
390
F
  0
ENDTAB
  0
TABLE
  2
STYLE
  5
3
330
0
100
AcDbSymbolTable
 70
     2
  0
STYLE
  5
11
330
3
100
AcDbSymbolTableRecord
100
AcDbTextStyleTableRecord
  2
Standard
 70
     0
 40
0.0
 41
1.0
 50
0.0
 71
     0
 42
0.2
  3
txt
  4

  0
STYLE
  5
29F
330
3
100
AcDbSymbolTableRecord
100
AcDbTextStyleTableRecord
  2
SLDTEXTSTYLE0
 70
     0
 40
0.0
 41
0.7
 50
0.0
 71
     0
 42
0.2
  3
TXT
  4

  0
ENDTAB
  0
TABLE
  2
VIEW
  5
6
330
0
100
AcDbSymbolTable
 70
     0
  0
ENDTAB
  0
TABLE
  2
UCS
  5
7
330
0
100
AcDbSymbolTable
 70
     0
  0
ENDTAB
  0
TABLE
  2
APPID
  5
9
330
0
100
AcDbSymbolTable
 70
     1
  0
APPID
  5
12
330
9
100
AcDbSymbolTableRecord
100
AcDbRegAppTableRecord
  2
ACAD
 70
     0
  0
ENDTAB
  0
TABLE
  2
DIMSTYLE
  5
A
330
0
100
AcDbSymbolTable
 70
     1
100
AcDbDimStyleTable
  0
DIMSTYLE
105
27
330
A
100
AcDbSymbolTableRecord
100
AcDbDimStyleTableRecord
  2
Standard
 70
     0
340
11
  0
ENDTAB
  0
TABLE
  2
BLOCK_RECORD
  5
1
330
0
100
AcDbSymbolTable
 70
     1
  0
BLOCK_RECORD
  5
1F
330
1
100
AcDbSymbolTableRecord
100
AcDbBlockTableRecord
  2
*Model_Space
340
22
  0
BLOCK_RECORD
  5
1B
330
1
100
AcDbSymbolTableRecord
100
AcDbBlockTableRecord
  2
*Paper_Space
340
1E
  0
BLOCK_RECORD
  5
23
330
1
100
AcDbSymbolTableRecord
100
AcDbBlockTableRecord
  2
*Paper_Space0
340
26
  0
ENDTAB
  0
ENDSEC
  0
SECTION
  2
BLOCKS
  0
BLOCK
  5
20
330
1F
100
AcDbEntity
  8
0
100
AcDbBlockBegin
  2
*Model_Space
 70
     0
 71
     0
 10
0.0
 20
0.0
 30
0.0
  3
*Model_Space
  1

  0
ENDBLK
  5
21
330
1F
100
AcDbEntity
  8
0
100
AcDbBlockEnd
  0
BLOCK
  5
1C
330
1B
100
AcDbEntity
 67
     1
  8
0
100
AcDbBlockBegin
  2
*Paper_Space
 70
     0
 71
     0
 10
0.0
 20
0.0
 30
0.0
  3
*Paper_Space
  1

  0
ENDBLK
  5
1D
330
1B
100
AcDbEntity
 67
     1
  8
0
100
AcDbBlockEnd
  0
BLOCK
  5
24
330
23
100
AcDbEntity
  8
0
100
AcDbBlockBegin
  2
*Paper_Space0
 70
     0
 71
     0
 10
0.0
 20
0.0
 30
0.0
  3
*Paper_Space0
  1

  0
ENDBLK
  5
25
330
23
100
AcDbEntity
  8
0
100
AcDbBlockEnd
  0
ENDSEC
  0
SECTION
  2
ENTITIES
  0
LINE
  5
4D
330
1F
100
AcDbEntity
  8
TRMODEL1
  6
Continuous
 62
     4
100
AcDbLine
 10
21.1149100982
 20
4.7043297845
 30
0.0
 11
13.1149100982
 21
4.7043297845
 31
0.0
  0
LINE
  5
4E
330
1F
100
AcDbEntity
  8
TRMODEL1
  6
Continuous
 62
     3
100
AcDbLine
 10
13.1149100982
 20
6.0168297845
 30
0.0
 11
20.1149100982
 21
6.0168297845
 31
0.0
  0
LINE
  5
4F
330
1F
100
AcDbEntity
  8
TRDETAIL2
  6
HIDDEN
 62
     3
100
AcDbLine
 10
21.2938102985
 20
6.5168297845
 30
0.0
 11
13.1149100982
 21
6.5168297845
 31
0.0
  0
LINE
  5
50
330
1F
100
AcDbEntity
  8
TRMODEL1
  6
Continuous
 62
     3
100
AcDbLine
 10
20.1149100982
 20
6.0168297845
 30
0.0
 11
20.1149100982
 21
6.5168297845
 31
0.0
  0
LINE
  5
51
330
1F
100
AcDbEntity
  8
TRMODEL1
  6
Continuous
 62
     2
100
AcDbLine
 10
10.6265697256
 20
8.3960656355
 30
0.0
 11
10.6265697256
 21
11.3659071313
 31
0.0
  0
LINE
  5
52
330
1F
100
AcDbEntity
  8
TRMODEL1
  6
Continuous
 62
     2
100
AcDbLine
 10
10.6265697256
 20
11.3659071313
 30
0.0
 11
7.2878945682
 21
11.3659071313
 31
0.0
  0
LINE
  5
53
330
1F
100
AcDbEntity
  8
TRMODEL1
  6
Continuous
 62
     2
100
AcDbLine
 10
8.2583250875
 20
8.3244296703
 30
0.0
 11
8.2583250875
 21
11.3659071313
 31
0.0
  0
LINE
  5
54
330
1F
100
AcDbEntity
  8
TRMODEL1
  6
Continuous
 62
     2
100
AcDbLine
 10
20.7442352961
 20
7.2736027632
 30
0.0
 11
20.7442352961
 21
11.3659071313
 31
0.0
  0
LINE
  5
55
330
1F
100
AcDbEntity
  8
TRMODEL1
  6
Continuous
 62
     2
100
AcDbLine
 10
20.7442352961
 20
11.3659071313
 30
0.0
 11
19.5509224582
 21
11.3659071313
 31
0.0
  0
LINE
  5
56
330
1F
100
AcDbEntity
  8
TRMODEL1
  6
Continuous
 62
     2
100
AcDbLine
 10
6.6573193559
 20
6.8918297845
 30
0.0
 11
7.1573193559
 21
7.3918297845
 31
0.0
  0
LINE
  5
57
330
1F
100
AcDbEntity
  8
TRMODEL1
  6
Continuous
 62
     2
100
AcDbLine
 10
6.4805426606
 20
6.8918297845
 30
0.0
 11
6.9805426606
 21
7.3918297845
 31
0.0
  0
LINE
  5
58
330
1F
100
AcDbEntity
  8
TRMODEL1
  6
Continuous
 62
     2
100
AcDbLine
 10
6.3037659653
 20
6.8918297845
 30
0.0
 11
6.8037659653
 21
7.3918297845
 31
0.0
  0
LINE
  5
59
330
1F
100
AcDbEntity
  8
TRMODEL1
  6
Continuous
 62
     4
100
AcDbLine
 10
20.1149100982
 20
7.3918297845
 30
0.0
 11
5.8649100982
 21
7.3918297845
 31
0.0
  0
LINE
  5
5A
330
1F
100
AcDbEntity
  8
TRMODEL1
  6
Continuous
 62
     4
100
AcDbLine
 10
4.8649100982
 20
4.7043297845
 30
0.0
 11
12.8649100982
 21
4.7043297845
 31
0.0
  0
LINE
  5
5B
330
1F
100
AcDbEntity
  8
TRMODEL1
  6
Continuous
 62
     4
100
AcDbLine
 10
4.8649100982
 20
6.8918297845
 30
0.0
 11
12.8649100982
 21
6.8918297845
 31
0.0
  0
LINE
  5
5C
330
1F
100
AcDbEntity
  8
TRDETAIL2
  6
HIDDEN
 62
     3
100
AcDbLine
 10
5.0438102985
 20
6.5168297845
 30
0.0
 11
12.8649100982
 21
6.5168297845
 31
0.0
  0
LINE
  5
5D
330
1F
100
AcDbEntity
  8
TRMODEL1
  6
Continuous
 62
     3
100
AcDbLine
 10
12.8649100982
 20
6.0168297845
 30
0.0
 11
5.8649100982
 21
6.0168297845
 31
0.0
  0
LINE
  5
5E
330
1F
100
AcDbEntity
  8
TRMODEL1
  6
Continuous
 62
     2
100
AcDbLine
 10
6.56546021
 20
4.3527672845
 30
0.0
 11
6.62405396
 21
4.7043297845
 31
0.0
  0
LINE
  5
5F
330
1F
100
AcDbEntity
  8
TRMODEL1
  6
Continuous
 62
     2
100
AcDbLine
 10
6.62405396
 20
4.7043297845
 30
0.0
 11
6.68264771
 21
4.3527672845
 31
0.0
  0
LINE
  5
60
330
1F
100
AcDbEntity
  8
TRMODEL1
  6
Continuous
 62
     2
100
AcDbLine
 10
6.68264771
 20
4.3527672845
 30
0.0
 11
6.56546021
 21
4.3527672845
 31
0.0
  0
LINE
  5
61
330
1F
100
AcDbEntity
  8
TRMODEL1
  6
Continuous
 62
     2
100
AcDbLine
 10
6.12698927
 20
6.8918297845
 30
0.0
 11
6.62698927
 21
7.3918297845
 31
0.0
  0
LINE
  5
62
330
1F
100
AcDbEntity
  8
TRMODEL1
  6
Continuous
 62
     2
100
AcDbLine
 10
5.9502125747
 20
6.8918297845
 30
0.0
 11
6.4502125747
 21
7.3918297845
 31
0.0
  0
LINE
  5
63
330
1F
100
AcDbEntity
  8
TRMODEL1
  6
Continuous
 62
     2
100
AcDbLine
 10
5.8649100982
 20
6.9833040033
 30
0.0
 11
6.2734358794
 21
7.3918297845
 31
0.0
  0
LINE
  5
64
330
1F
100
AcDbEntity
  8
TRMODEL1
  6
Continuous
 62
     2
100
AcDbLine
 10
5.8649100982
 20
7.1600806986
 30
0.0
 11
6.0966591841
 21
7.3918297845
 31
0.0
  0
LINE
  5
65
330
1F
100
AcDbEntity
  8
TRMODEL1
  6
Continuous
 62
     4
100
AcDbLine
 10
5.8649100982
 20
6.8918297845
 30
0.0
 11
5.8649100982
 21
7.3918297845
 31
0.0
  0
LINE
  5
66
330
1F
100
AcDbEntity
  8
TRMODEL1
  6
Continuous
 62
     3
100
AcDbLine
 10
5.8649100982
 20
6.0168297845
 30
0.0
 11
5.8649100982
 21
6.5168297845
 31
0.0
  0
LINE
  5
67
330
1F
100
AcDbEntity
  8
TRMODEL1
  6
Continuous
 62
     2
100
AcDbLine
 10
5.8649100982
 20
7.3368573939
 30
0.0
 11
5.9198824888
 21
7.3918297845
 31
0.0
  0
LINE
  5
68
330
1F
100
AcDbEntity
  8
TRMODEL1
  6
Continuous
 62
     2
100
AcDbLine
 10
15.4104785373
 20
4.7436584783
 30
0.0
 11
15.4104785373
 21
3.2034641172
 31
0.0
  0
LINE
  5
69
330
1F
100
AcDbEntity
  8
TRMODEL1
  6
Continuous
 62
     2
100
AcDbLine
 10
15.4104785373
 20
3.2034641172
 30
0.0
 11
18.8606766146
 21
3.2034641172
 31
0.0
  0
LINE
  5
6A
330
1F
100
AcDbEntity
  8
TRMODEL1
  6
Continuous
 62
     2
100
AcDbLine
 10
18.1478045502
 20
6.8918297845
 30
0.0
 11
18.6478045502
 21
7.3918297845
 31
0.0
  0
LINE
  5
6B
330
1F
100
AcDbEntity
  8
TRMODEL1
  6
Continuous
 62
     2
100
AcDbLine
 10
17.9710278549
 20
6.8918297845
 30
0.0
 11
18.4710278549
 21
7.3918297845
 31
0.0
  0
LINE
  5
6C
330
1F
100
AcDbEntity
  8
TRMODEL1
  6
Continuous
 62
     2
100
AcDbLine
 10
17.7942511596
 20
6.8918297845
 30
0.0
 11
18.2942511596
 21
7.3918297845
 31
0.0
  0
LINE
  5
6D
330
1F
100
AcDbEntity
  8
TRDETAIL2
  6
HIDDEN
 62
     3
100
AcDbLine
 10
17.5365808546
 20
5.9218297845
 30
0.0
 11
18.2709100982
 21
5.9218297845
 31
0.0
  0
LINE
  5
6E
330
1F
100
AcDbEntity
  8
TRMODEL1
  6
Continuous
 62
     2
100
AcDbLine
 10
18.2709100982
 20
7.4868297845
 30
0.0
 11
17.3646802337
 21
7.4868297845
 31
0.0
  0
LINE
  5
6F
330
1F
100
AcDbEntity
  8
TRMODEL1
  6
Continuous
 62
     4
100
AcDbLine
 10
20.1149100982
 20
6.8918297845
 30
0.0
 11
12.8649100982
 21
6.8918297845
 31
0.0
  0
LINE
  5
70
330
1F
100
AcDbEntity
  8
TRMODEL1
  6
Continuous
 62
     4
100
AcDbLine
 10
21.1149100982
 20
6.8918297845
 30
0.0
 11
13.1149100982
 21
6.8918297845
 31
0.0
  0
LINE
  5
71
330
1F
100
AcDbEntity
  8
TRMODEL1
  6
Continuous
 62
     4
100
AcDbLine
 10
12.8649100982
 20
6.8918297845
 30
0.0
 11
12.8649100982
 21
4.7043297845
 31
0.0
  0
LINE
  5
72
330
1F
100
AcDbEntity
  8
TRDETAIL2
  6
HIDDEN
 62
     3
100
AcDbLine
 10
14.9318973963
 20
5.8718297845
 30
0.0
 11
14.9318973963
 21
5.5238297845
 31
0.0
  0
LINE
  5
73
330
1F
100
AcDbEntity
  8
TRDETAIL2
  6
HIDDEN
 62
     3
100
AcDbLine
 10
15.1484037472
 20
5.8718297845
 30
0.0
 11
15.1484037472
 21
5.5238297845
 31
0.0
  0
LINE
  5
74
330
1F
100
AcDbEntity
  8
TRDETAIL2
  6
HIDDEN
 62
     3
100
AcDbLine
 10
15.5814164491
 20
5.8718297845
 30
0.0
 11
15.5814164491
 21
5.5238297845
 31
0.0
  0
LINE
  5
75
330
1F
100
AcDbEntity
  8
TRDETAIL2
  6
HIDDEN
 62
     3
100
AcDbLine
 10
15.7979228001
 20
5.8718297845
 30
0.0
 11
15.7979228001
 21
5.5238297845
 31
0.0
  0
LINE
  5
76
330
1F
100
AcDbEntity
  8
TRDETAIL2
  6
HIDDEN
 62
     3
100
AcDbLine
 10
18.1729228001
 20
5.8718297845
 30
0.0
 11
18.1729228001
 21
5.5238297845
 31
0.0
  0
LINE
  5
77
330
1F
100
AcDbEntity
  8
TRDETAIL2
  6
HIDDEN
 62
     3
100
AcDbLine
 10
17.9564164491
 20
5.8718297845
 30
0.0
 11
17.9564164491
 21
5.5238297845
 31
0.0
  0
LINE
  5
78
330
1F
100
AcDbEntity
  8
TRDETAIL2
  6
HIDDEN
 62
     3
100
AcDbLine
 10
17.5234037472
 20
5.8718297845
 30
0.0
 11
17.5234037472
 21
5.5238297845
 31
0.0
  0
LINE
  5
79
330
1F
100
AcDbEntity
  8
TRDETAIL2
  6
HIDDEN
 62
     3
100
AcDbLine
 10
17.3068973963
 20
5.8718297845
 30
0.0
 11
17.3068973963
 21
5.5238297845
 31
0.0
  0
LINE
  5
7A
330
1F
100
AcDbEntity
  8
TRMODEL1
  6
Continuous
 62
     4
100
AcDbLine
 10
13.1149100982
 20
6.8918297845
 30
0.0
 11
13.1149100982
 21
4.7043297845
 31
0.0
  0
LINE
  5
7B
330
1F
100
AcDbEntity
  8
TRDETAIL2
  6
HIDDEN
 62
     3
100
AcDbLine
 10
8.6729228001
 20
5.8718297845
 30
0.0
 11
8.6729228001
 21
5.5238297845
 31
0.0
  0
LINE
  5
7C
330
1F
100
AcDbEntity
  8
TRDETAIL2
  6
HIDDEN
 62
     3
100
AcDbLine
 10
8.4564164491
 20
5.8718297845
 30
0.0
 11
8.4564164491
 21
5.5238297845
 31
0.0
  0
LINE
  5
7D
330
1F
100
AcDbEntity
  8
TRDETAIL2
  6
HIDDEN
 62
     3
100
AcDbLine
 10
8.0234037472
 20
5.8718297845
 30
0.0
 11
8.0234037472
 21
5.5238297845
 31
0.0
  0
LINE
  5
7E
330
1F
100
AcDbEntity
  8
TRDETAIL2
  6
HIDDEN
 62
     3
100
AcDbLine
 10
7.8068973963
 20
5.8718297845
 30
0.0
 11
7.8068973963
 21
5.5238297845
 31
0.0
  0
LINE
  5
7F
330
1F
100
AcDbEntity
  8
TRDETAIL2
  6
HIDDEN
 62
     3
100
AcDbLine
 10
10.1818973963
 20
5.8718297845
 30
0.0
 11
10.1818973963
 21
5.5238297845
 31
0.0
  0
LINE
  5
80
330
1F
100
AcDbEntity
  8
TRDETAIL2
  6
HIDDEN
 62
     3
100
AcDbLine
 10
10.3984037472
 20
5.8718297845
 30
0.0
 11
10.3984037472
 21
5.5238297845
 31
0.0
  0
LINE
  5
81
330
1F
100
AcDbEntity
  8
TRDETAIL2
  6
HIDDEN
 62
     3
100
AcDbLine
 10
10.8314164491
 20
5.8718297845
 30
0.0
 11
10.8314164491
 21
5.5238297845
 31
0.0
  0
LINE
  5
82
330
1F
100
AcDbEntity
  8
TRDETAIL2
  6
HIDDEN
 62
     3
100
AcDbLine
 10
11.0479228001
 20
5.8718297845
 30
0.0
 11
11.0479228001
 21
5.5238297845
 31
0.0
  0
LINE
  5
83
330
1F
100
AcDbEntity
  8
TRDETAIL2
  6
HIDDEN
 62
     3
100
AcDbLine
 10
8.6149100982
 20
5.4738297845
 30
0.0
 11
8.6729228001
 21
5.5238297845
 31
0.0
  0
LINE
  5
84
330
1F
100
AcDbEntity
  8
TRDETAIL2
  6
HIDDEN
 62
     3
100
AcDbLine
 10
7.8068973963
 20
5.5238297845
 30
0.0
 11
7.8649100982
 21
5.4738297845
 31
0.0
  0
LINE
  5
85
330
1F
100
AcDbEntity
  8
TRDETAIL2
  6
HIDDEN
 62
     3
100
AcDbLine
 10
7.9899100982
 20
5.3546292448
 30
0.0
 11
7.9899100982
 21
5.3438337725
 31
0.0
  0
LINE
  5
86
330
1F
100
AcDbEntity
  8
TRDETAIL2
  6
HIDDEN
 62
     3
100
AcDbLine
 10
8.4899100982
 20
5.3438337725
 30
0.0
 11
8.4899100982
 21
5.3546292448
 31
0.0
  0
LINE
  5
87
330
1F
100
AcDbEntity
  8
TRDETAIL2
  6
HIDDEN
 62
     3
100
AcDbLine
 10
8.4899100982
 20
5.4295637276
 30
0.0
 11
8.4441100982
 21
5.4616332328
 31
0.0
  0
LINE
  5
88
330
1F
100
AcDbEntity
  8
TRDETAIL2
  6
HIDDEN
 62
     3
100
AcDbLine
 10
8.0357100982
 20
5.4616332328
 30
0.0
 11
7.9899100982
 21
5.4295637276
 31
0.0
  0
LINE
  5
89
330
1F
100
AcDbEntity
  8
TRDETAIL2
  6
HIDDEN
 62
     3
100
AcDbLine
 10
7.9899100982
 20
5.4187682553
 30
0.0
 11
8.0357100982
 21
5.3866987501
 31
0.0
  0
LINE
  5
8A
330
1F
100
AcDbEntity
  8
TRDETAIL2
  6
HIDDEN
 62
     3
100
AcDbLine
 10
8.4441100982
 20
5.3866987501
 30
0.0
 11
8.4899100982
 21
5.4187682553
 31
0.0
  0
LINE
  5
8B
330
1F
100
AcDbEntity
  8
TRDETAIL2
  6
HIDDEN
 62
     3
100
AcDbLine
 10
8.4899100982
 20
5.3546292448
 30
0.0
 11
8.4441100982
 21
5.3866987501
 31
0.0
  0
LINE
  5
8C
330
1F
100
AcDbEntity
  8
TRDETAIL2
  6
HIDDEN
 62
     3
100
AcDbLine
 10
8.0357100982
 20
5.3866987501
 30
0.0
 11
7.9899100982
 21
5.3546292448
 31
0.0
  0
LINE
  5
8D
330
1F
100
AcDbEntity
  8
TRDETAIL2
  6
HIDDEN
 62
     3
100
AcDbLine
 10
8.0182916172
 20
5.4738297845
 30
0.0
 11
8.0357100982
 21
5.4616332328
 31
0.0
  0
LINE
  5
8E
330
1F
100
AcDbEntity
  8
TRDETAIL2
  6
HIDDEN
 62
     3
100
AcDbLine
 10
8.4441100982
 20
5.4616332328
 30
0.0
 11
8.4615285792
 21
5.4738297845
 31
0.0
  0
LINE
  5
8F
330
1F
100
AcDbEntity
  8
TRDETAIL2
  6
HIDDEN
 62
     3
100
AcDbLine
 10
7.9899100982
 20
5.4295637276
 30
0.0
 11
7.9899100982
 21
5.4187682553
 31
0.0
  0
LINE
  5
90
330
1F
100
AcDbEntity
  8
TRDETAIL2
  6
HIDDEN
 62
     3
100
AcDbLine
 10
8.4899100982
 20
5.4187682553
 30
0.0
 11
8.4899100982
 21
5.4295637276
 31
0.0
  0
LINE
  5
91
330
1F
100
AcDbEntity
  8
TRDETAIL2
  6
HIDDEN
 62
     3
100
AcDbLine
 10
7.9899100982
 20
5.3438337725
 30
0.0
 11
8.0357100982
 21
5.3117642673
 31
0.0
  0
LINE
  5
92
330
1F
100
AcDbEntity
  8
TRDETAIL2
  6
HIDDEN
 62
     3
100
AcDbLine
 10
8.4441100982
 20
5.3117642673
 30
0.0
 11
8.4899100982
 21
5.3438337725
 31
0.0
  0
LINE
  5
93
330
1F
100
AcDbEntity
  8
TRDETAIL2
  6
HIDDEN
 62
     3
100
AcDbLine
 10
8.4881838251
 20
5.2809035115
 30
0.0
 11
8.4441100982
 21
5.3117642673
 31
0.0
  0
LINE
  5
94
330
1F
100
AcDbEntity
  8
TRDETAIL2
  6
HIDDEN
 62
     3
100
AcDbLine
 10
8.0357100982
 20
5.3117642673
 30
0.0
 11
7.9916363713
 21
5.2809035115
 31
0.0
  0
LINE
  5
95
330
1F
100
AcDbEntity
  8
TRDETAIL2
  6
HIDDEN
 62
     3
100
AcDbLine
 10
7.9916363713
 20
5.2809035115
 30
0.0
 11
8.0357100982
 21
5.2368297845
 31
0.0
  0
LINE
  5
96
330
1F
100
AcDbEntity
  8
TRDETAIL2
  6
HIDDEN
 62
     3
100
AcDbLine
 10
8.4441100982
 20
5.2368297845
 30
0.0
 11
8.4881838251
 21
5.2809035115
 31
0.0
  0
LINE
  5
97
330
1F
100
AcDbEntity
  8
TRDETAIL2
  6
HIDDEN
 62
     3
100
AcDbLine
 10
8.5646696246
 20
5.4738297845
 30
0.0
 11
8.2399100982
 21
5.4738297845
 31
0.0
  0
LINE
  5
98
330
1F
100
AcDbEntity
  8
TRDETAIL2
  6
HIDDEN
 62
     3
100
AcDbLine
 10
8.2399100982
 20
5.4738297845
 30
0.0
 11
7.9151505718
 21
5.4738297845
 31
0.0
  0
LINE
  5
99
330
1F
100
AcDbEntity
  8
TRDETAIL2
  6
HIDDEN
 62
     3
100
AcDbLine
 10
8.6149100982
 20
5.4738297845
 30
0.0
 11
8.5646696246
 21
5.4738297845
 31
0.0
  0
LINE
  5
9A
330
1F
100
AcDbEntity
  8
TRDETAIL2
  6
HIDDEN
 62
     3
100
AcDbLine
 10
7.9151505718
 20
5.4738297845
 30
0.0
 11
7.8649100982
 21
5.4738297845
 31
0.0
  0
LINE
  5
9B
330
1F
100
AcDbEntity
  8
TRDETAIL2
  6
HIDDEN
 62
     3
100
AcDbLine
 10
7.9899100982
 20
5.3546292448
 30
0.0
 11
8.4899100982
 21
5.3546292448
 31
0.0
  0
LINE
  5
9C
330
1F
100
AcDbEntity
  8
TRDETAIL2
  6
HIDDEN
 62
     3
100
AcDbLine
 10
7.9899100982
 20
5.3438337725
 30
0.0
 11
8.4899100982
 21
5.3438337725
 31
0.0
  0
LINE
  5
9D
330
1F
100
AcDbEntity
  8
TRDETAIL2
  6
HIDDEN
 62
     3
100
AcDbLine
 10
7.9899100982
 20
5.4295637276
 30
0.0
 11
8.4899100982
 21
5.4295637276
 31
0.0
  0
LINE
  5
9E
330
1F
100
AcDbEntity
  8
TRDETAIL2
  6
HIDDEN
 62
     3
100
AcDbLine
 10
8.0357100982
 20
5.4616332328
 30
0.0
 11
8.4441100982
 21
5.4616332328
 31
0.0
  0
LINE
  5
9F
330
1F
100
AcDbEntity
  8
TRDETAIL2
  6
HIDDEN
 62
     3
100
AcDbLine
 10
8.0357100982
 20
5.3866987501
 30
0.0
 11
8.4441100982
 21
5.3866987501
 31
0.0
  0
LINE
  5
A0
330
1F
100
AcDbEntity
  8
TRDETAIL2
  6
HIDDEN
 62
     3
100
AcDbLine
 10
7.9899100982
 20
5.4187682553
 30
0.0
 11
8.4899100982
 21
5.4187682553
 31
0.0
  0
LINE
  5
A1
330
1F
100
AcDbEntity
  8
TRDETAIL2
  6
HIDDEN
 62
     3
100
AcDbLine
 10
8.0357100982
 20
5.3117642673
 30
0.0
 11
8.4441100982
 21
5.3117642673
 31
0.0
  0
LINE
  5
A2
330
1F
100
AcDbEntity
  8
TRDETAIL2
  6
HIDDEN
 62
     3
100
AcDbLine
 10
8.4153521263
 20
5.2809035115
 30
0.0
 11
7.9916363713
 21
5.2809035115
 31
0.0
  0
LINE
  5
A3
330
1F
100
AcDbEntity
  8
TRDETAIL2
  6
HIDDEN
 62
     3
100
AcDbLine
 10
8.4881838251
 20
5.2809035115
 30
0.0
 11
8.4153521263
 21
5.2809035115
 31
0.0
  0
LINE
  5
A4
330
1F
100
AcDbEntity
  8
TRDETAIL2
  6
HIDDEN
 62
     3
100
AcDbLine
 10
8.0954251853
 20
5.2368297845
 30
0.0
 11
8.4441100982
 21
5.2368297845
 31
0.0
  0
LINE
  5
A5
330
1F
100
AcDbEntity
  8
TRDETAIL2
  6
HIDDEN
 62
     3
100
AcDbLine
 10
8.0357100982
 20
5.2368297845
 30
0.0
 11
8.0954251853
 21
5.2368297845
 31
0.0
  0
LINE
  5
A6
330
1F
100
AcDbEntity
  8
TRDETAIL2
  6
HIDDEN
 62
     3
100
AcDbLine
 10
7.8068973963
 20
5.5238297845
 30
0.0
 11
7.8580320564
 21
5.4884939497
 31
0.0
  0
LINE
  5
A7
330
1F
100
AcDbEntity
  8
TRDETAIL2
  6
HIDDEN
 62
     3
100
AcDbLine
 10
7.8580320564
 20
5.4884939497
 30
0.0
 11
7.913623153
 21
5.4738405085
 31
0.0
  0
LINE
  5
A8
330
1F
100
AcDbEntity
  8
TRDETAIL2
  6
HIDDEN
 62
     3
100
AcDbLine
 10
7.913623153
 20
5.4738405085
 30
0.0
 11
7.9151505718
 21
5.4738297845
 31
0.0
  0
LINE
  5
A9
330
1F
100
AcDbEntity
  8
TRDETAIL2
  6
HIDDEN
 62
     3
100
AcDbLine
 10
7.9151505718
 20
5.4738297845
 30
0.0
 11
7.9603244122
 21
5.483077838
 31
0.0
  0
LINE
  5
AA
330
1F
100
AcDbEntity
  8
TRDETAIL2
  6
HIDDEN
 62
     3
100
AcDbLine
 10
7.9603244122
 20
5.483077838
 30
0.0
 11
8.0054982526
 21
5.5093945091
 31
0.0
  0
LINE
  5
AB
330
1F
100
AcDbEntity
  8
TRDETAIL2
  6
HIDDEN
 62
     3
100
AcDbLine
 10
8.0054982526
 20
5.5093945091
 30
0.0
 11
8.0234037472
 21
5.5238297845
 31
0.0
  0
LINE
  5
AC
330
1F
100
AcDbEntity
  8
TRDETAIL2
  6
HIDDEN
 62
     3
100
AcDbLine
 10
8.4564164491
 20
5.5238297845
 30
0.0
 11
8.4010635091
 21
5.5024106154
 31
0.0
  0
LINE
  5
AD
330
1F
100
AcDbEntity
  8
TRDETAIL2
  6
HIDDEN
 62
     3
100
AcDbLine
 10
8.4010635091
 20
5.5024106154
 30
0.0
 11
8.3227011926
 21
5.4816129269
 31
0.0
  0
LINE
  5
AE
330
1F
100
AcDbEntity
  8
TRDETAIL2
  6
HIDDEN
 62
     3
100
AcDbLine
 10
8.3227011926
 20
5.4816129269
 30
0.0
 11
8.2399100982
 21
5.4738297845
 31
0.0
  0
LINE
  5
AF
330
1F
100
AcDbEntity
  8
TRDETAIL2
  6
HIDDEN
 62
     3
100
AcDbLine
 10
8.2399100982
 20
5.4738297845
 30
0.0
 11
8.2250355593
 21
5.4740839415
 31
0.0
  0
LINE
  5
B0
330
1F
100
AcDbEntity
  8
TRDETAIL2
  6
HIDDEN
 62
     3
100
AcDbLine
 10
8.2250355593
 20
5.4740839415
 30
0.0
 11
8.1432301787
 21
5.4843983269
 31
0.0
  0
LINE
  5
B1
330
1F
100
AcDbEntity
  8
TRDETAIL2
  6
HIDDEN
 62
     3
100
AcDbLine
 10
8.1432301787
 20
5.4843983269
 30
0.0
 11
8.0618923141
 21
5.5083987819
 31
0.0
  0
LINE
  5
B2
330
1F
100
AcDbEntity
  8
TRDETAIL2
  6
HIDDEN
 62
     3
100
AcDbLine
 10
8.0618923141
 20
5.5083987819
 30
0.0
 11
8.0234037472
 21
5.5238297845
 31
0.0
  0
LINE
  5
B3
330
1F
100
AcDbEntity
  8
TRDETAIL2
  6
HIDDEN
 62
     3
100
AcDbLine
 10
8.4564164491
 20
5.5238297845
 30
0.0
 11
8.5075511092
 21
5.4884939497
 31
0.0
  0
LINE
  5
B4
330
1F
100
AcDbEntity
  8
TRDETAIL2
  6
HIDDEN
 62
     3
100
AcDbLine
 10
8.5075511092
 20
5.4884939497
 30
0.0
 11
8.5631422058
 21
5.4738405085
 31
0.0
  0
LINE
  5
B5
330
1F
100
AcDbEntity
  8
TRDETAIL2
  6
HIDDEN
 62
     3
100
AcDbLine
 10
8.5631422058
 20
5.4738405085
 30
0.0
 11
8.5646696246
 21
5.4738297845
 31
0.0
  0
LINE
  5
B6
330
1F
100
AcDbEntity
  8
TRDETAIL2
  6
HIDDEN
 62
     3
100
AcDbLine
 10
8.5646696246
 20
5.4738297845
 30
0.0
 11
8.609843465
 21
5.483077838
 31
0.0
  0
LINE
  5
B7
330
1F
100
AcDbEntity
  8
TRDETAIL2
  6
HIDDEN
 62
     3
100
AcDbLine
 10
8.609843465
 20
5.483077838
 30
0.0
 11
8.6550173054
 21
5.5093945091
 31
0.0
  0
LINE
  5
B8
330
1F
100
AcDbEntity
  8
TRDETAIL2
  6
HIDDEN
 62
     3
100
AcDbLine
 10
8.6550173054
 20
5.5093945091
 30
0.0
 11
8.6729228001
 21
5.5238297845
 31
0.0
  0
LINE
  5
B9
330
1F
100
AcDbEntity
  8
TRDETAIL2
  6
HIDDEN
 62
     3
100
AcDbLine
 10
10.4107100982
 20
5.3117642673
 30
0.0
 11
10.3666363713
 21
5.2809035115
 31
0.0
  0
LINE
  5
BA
330
1F
100
AcDbEntity
  8
TRDETAIL2
  6
HIDDEN
 62
     3
100
AcDbLine
 10
10.8631838251
 20
5.2809035115
 30
0.0
 11
10.8191100982
 21
5.3117642673
 31
0.0
  0
LINE
  5
BB
330
1F
100
AcDbEntity
  8
TRDETAIL2
  6
HIDDEN
 62
     3
100
AcDbLine
 10
10.4107100982
 20
5.2368297845
 30
0.0
 11
10.4704251853
 21
5.2368297845
 31
0.0
  0
LINE
  5
BC
330
1F
100
AcDbEntity
  8
TRDETAIL2
  6
HIDDEN
 62
     3
100
AcDbLine
 10
10.4704251853
 20
5.2368297845
 30
0.0
 11
10.8191100982
 21
5.2368297845
 31
0.0
  0
LINE
  5
BD
330
1F
100
AcDbEntity
  8
TRDETAIL2
  6
HIDDEN
 62
     3
100
AcDbLine
 10
10.8631838251
 20
5.2809035115
 30
0.0
 11
10.7903521263
 21
5.2809035115
 31
0.0
  0
LINE
  5
BE
330
1F
100
AcDbEntity
  8
TRDETAIL2
  6
HIDDEN
 62
     3
100
AcDbLine
 10
10.7903521263
 20
5.2809035115
 30
0.0
 11
10.3666363713
 21
5.2809035115
 31
0.0
  0
LINE
  5
BF
330
1F
100
AcDbEntity
  8
TRDETAIL2
  6
HIDDEN
 62
     3
100
AcDbLine
 10
10.8191100982
 20
5.2368297845
 30
0.0
 11
10.8631838251
 21
5.2809035115
 31
0.0
  0
LINE
  5
C0
330
1F
100
AcDbEntity
  8
TRDETAIL2
  6
HIDDEN
 62
     3
100
AcDbLine
 10
10.3666363713
 20
5.2809035115
 30
0.0
 11
10.4107100982
 21
5.2368297845
 31
0.0
  0
LINE
  5
C1
330
1F
100
AcDbEntity
  8
TRDETAIL2
  6
HIDDEN
 62
     3
100
AcDbLine
 10
10.9396696246
 20
5.4738297845
 30
0.0
 11
10.984843465
 21
5.483077838
 31
0.0
  0
LINE
  5
C2
330
1F
100
AcDbEntity
  8
TRDETAIL2
  6
HIDDEN
 62
     3
100
AcDbLine
 10
10.984843465
 20
5.483077838
 30
0.0
 11
11.0300173054
 21
5.5093945091
 31
0.0
  0
LINE
  5
C3
330
1F
100
AcDbEntity
  8
TRDETAIL2
  6
HIDDEN
 62
     3
100
AcDbLine
 10
11.0300173054
 20
5.5093945091
 30
0.0
 11
11.0479228001
 21
5.5238297845
 31
0.0
  0
LINE
  5
C4
330
1F
100
AcDbEntity
  8
TRDETAIL2
  6
HIDDEN
 62
     3
100
AcDbLine
 10
10.8314164491
 20
5.5238297845
 30
0.0
 11
10.8825511092
 21
5.4884939497
 31
0.0
  0
LINE
  5
C5
330
1F
100
AcDbEntity
  8
TRDETAIL2
  6
HIDDEN
 62
     3
100
AcDbLine
 10
10.8825511092
 20
5.4884939497
 30
0.0
 11
10.9381422058
 21
5.4738405085
 31
0.0
  0
LINE
  5
C6
330
1F
100
AcDbEntity
  8
TRDETAIL2
  6
HIDDEN
 62
     3
100
AcDbLine
 10
10.9381422058
 20
5.4738405085
 30
0.0
 11
10.9396696246
 21
5.4738297845
 31
0.0
  0
LINE
  5
C7
330
1F
100
AcDbEntity
  8
TRDETAIL2
  6
HIDDEN
 62
     3
100
AcDbLine
 10
10.6149100982
 20
5.4738297845
 30
0.0
 11
10.6000355593
 21
5.4740839415
 31
0.0
  0
LINE
  5
C8
330
1F
100
AcDbEntity
  8
TRDETAIL2
  6
HIDDEN
 62
     3
100
AcDbLine
 10
10.6000355593
 20
5.4740839415
 30
0.0
 11
10.5182301787
 21
5.4843983269
 31
0.0
  0
LINE
  5
C9
330
1F
100
AcDbEntity
  8
TRDETAIL2
  6
HIDDEN
 62
     3
100
AcDbLine
 10
10.5182301787
 20
5.4843983269
 30
0.0
 11
10.4368923141
 21
5.5083987819
 31
0.0
  0
LINE
  5
CA
330
1F
100
AcDbEntity
  8
TRDETAIL2
  6
HIDDEN
 62
     3
100
AcDbLine
 10
10.4368923141
 20
5.5083987819
 30
0.0
 11
10.3984037472
 21
5.5238297845
 31
0.0
  0
LINE
  5
CB
330
1F
100
AcDbEntity
  8
TRDETAIL2
  6
HIDDEN
 62
     3
100
AcDbLine
 10
10.8314164491
 20
5.5238297845
 30
0.0
 11
10.7760635091
 21
5.5024106154
 31
0.0
  0
LINE
  5
CC
330
1F
100
AcDbEntity
  8
TRDETAIL2
  6
HIDDEN
 62
     3
100
AcDbLine
 10
10.7760635091
 20
5.5024106154
 30
0.0
 11
10.6977011926
 21
5.4816129269
 31
0.0
  0
LINE
  5
CD
330
1F
100
AcDbEntity
  8
TRDETAIL2
  6
HIDDEN
 62
     3
100
AcDbLine
 10
10.6977011926
 20
5.4816129269
 30
0.0
 11
10.6149100982
 21
5.4738297845
 31
0.0
  0
LINE
  5
CE
330
1F
100
AcDbEntity
  8
TRDETAIL2
  6
HIDDEN
 62
     3
100
AcDbLine
 10
10.2901505718
 20
5.4738297845
 30
0.0
 11
10.3353244122
 21
5.483077838
 31
0.0
  0
LINE
  5
CF
330
1F
100
AcDbEntity
  8
TRDETAIL2
  6
HIDDEN
 62
     3
100
AcDbLine
 10
10.3353244122
 20
5.483077838
 30
0.0
 11
10.3804982526
 21
5.5093945091
 31
0.0
  0
LINE
  5
D0
330
1F
100
AcDbEntity
  8
TRDETAIL2
  6
HIDDEN
 62
     3
100
AcDbLine
 10
10.3804982526
 20
5.5093945091
 30
0.0
 11
10.3984037472
 21
5.5238297845
 31
0.0
  0
LINE
  5
D1
330
1F
100
AcDbEntity
  8
TRDETAIL2
  6
HIDDEN
 62
     3
100
AcDbLine
 10
10.1818973963
 20
5.5238297845
 30
0.0
 11
10.2330320564
 21
5.4884939497
 31
0.0
  0
LINE
  5
D2
330
1F
100
AcDbEntity
  8
TRDETAIL2
  6
HIDDEN
 62
     3
100
AcDbLine
 10
10.2330320564
 20
5.4884939497
 30
0.0
 11
10.288623153
 21
5.4738405085
 31
0.0
  0
LINE
  5
D3
330
1F
100
AcDbEntity
  8
TRDETAIL2
  6
HIDDEN
 62
     3
100
AcDbLine
 10
10.288623153
 20
5.4738405085
 30
0.0
 11
10.2901505718
 21
5.4738297845
 31
0.0
  0
LINE
  5
D4
330
1F
100
AcDbEntity
  8
TRDETAIL2
  6
HIDDEN
 62
     3
100
AcDbLine
 10
10.4107100982
 20
5.3117642673
 30
0.0
 11
10.8191100982
 21
5.3117642673
 31
0.0
  0
LINE
  5
D5
330
1F
100
AcDbEntity
  8
TRDETAIL2
  6
HIDDEN
 62
     3
100
AcDbLine
 10
10.3649100982
 20
5.4187682553
 30
0.0
 11
10.8649100982
 21
5.4187682553
 31
0.0
  0
LINE
  5
D6
330
1F
100
AcDbEntity
  8
TRDETAIL2
  6
HIDDEN
 62
     3
100
AcDbLine
 10
10.4107100982
 20
5.3866987501
 30
0.0
 11
10.8191100982
 21
5.3866987501
 31
0.0
  0
LINE
  5
D7
330
1F
100
AcDbEntity
  8
TRDETAIL2
  6
HIDDEN
 62
     3
100
AcDbLine
 10
10.4107100982
 20
5.4616332328
 30
0.0
 11
10.8191100982
 21
5.4616332328
 31
0.0
  0
LINE
  5
D8
330
1F
100
AcDbEntity
  8
TRDETAIL2
  6
HIDDEN
 62
     3
100
AcDbLine
 10
10.3649100982
 20
5.4295637276
 30
0.0
 11
10.8649100982
 21
5.4295637276
 31
0.0
  0
LINE
  5
D9
330
1F
100
AcDbEntity
  8
TRDETAIL2
  6
HIDDEN
 62
     3
100
AcDbLine
 10
10.3649100982
 20
5.3438337725
 30
0.0
 11
10.8649100982
 21
5.3438337725
 31
0.0
  0
LINE
  5
DA
330
1F
100
AcDbEntity
  8
TRDETAIL2
  6
HIDDEN
 62
     3
100
AcDbLine
 10
10.3649100982
 20
5.3546292448
 30
0.0
 11
10.8649100982
 21
5.3546292448
 31
0.0
  0
LINE
  5
DB
330
1F
100
AcDbEntity
  8
TRDETAIL2
  6
HIDDEN
 62
     3
100
AcDbLine
 10
10.2901505718
 20
5.4738297845
 30
0.0
 11
10.2399100982
 21
5.4738297845
 31
0.0
  0
LINE
  5
DC
330
1F
100
AcDbEntity
  8
TRDETAIL2
  6
HIDDEN
 62
     3
100
AcDbLine
 10
10.9899100982
 20
5.4738297845
 30
0.0
 11
10.9396696246
 21
5.4738297845
 31
0.0
  0
LINE
  5
DD
330
1F
100
AcDbEntity
  8
TRDETAIL2
  6
HIDDEN
 62
     3
100
AcDbLine
 10
10.6149100982
 20
5.4738297845
 30
0.0
 11
10.2901505718
 21
5.4738297845
 31
0.0
  0
LINE
  5
DE
330
1F
100
AcDbEntity
  8
TRDETAIL2
  6
HIDDEN
 62
     3
100
AcDbLine
 10
10.9396696246
 20
5.4738297845
 30
0.0
 11
10.6149100982
 21
5.4738297845
 31
0.0
  0
LINE
  5
DF
330
1F
100
AcDbEntity
  8
TRDETAIL2
  6
HIDDEN
 62
     3
100
AcDbLine
 10
10.8191100982
 20
5.3117642673
 30
0.0
 11
10.8649100982
 21
5.3438337725
 31
0.0
  0
LINE
  5
E0
330
1F
100
AcDbEntity
  8
TRDETAIL2
  6
HIDDEN
 62
     3
100
AcDbLine
 10
10.3649100982
 20
5.3438337725
 30
0.0
 11
10.4107100982
 21
5.3117642673
 31
0.0
  0
LINE
  5
E1
330
1F
100
AcDbEntity
  8
TRDETAIL2
  6
HIDDEN
 62
     3
100
AcDbLine
 10
10.8649100982
 20
5.4187682553
 30
0.0
 11
10.8649100982
 21
5.4295637276
 31
0.0
  0
LINE
  5
E2
330
1F
100
AcDbEntity
  8
TRDETAIL2
  6
HIDDEN
 62
     3
100
AcDbLine
 10
10.3649100982
 20
5.4295637276
 30
0.0
 11
10.3649100982
 21
5.4187682553
 31
0.0
  0
LINE
  5
E3
330
1F
100
AcDbEntity
  8
TRDETAIL2
  6
HIDDEN
 62
     3
100
AcDbLine
 10
10.8191100982
 20
5.4616332328
 30
0.0
 11
10.8365285792
 21
5.4738297845
 31
0.0
  0
LINE
  5
E4
330
1F
100
AcDbEntity
  8
TRDETAIL2
  6
HIDDEN
 62
     3
100
AcDbLine
 10
10.3932916172
 20
5.4738297845
 30
0.0
 11
10.4107100982
 21
5.4616332328
 31
0.0
  0
LINE
  5
E5
330
1F
100
AcDbEntity
  8
TRDETAIL2
  6
HIDDEN
 62
     3
100
AcDbLine
 10
10.4107100982
 20
5.3866987501
 30
0.0
 11
10.3649100982
 21
5.3546292448
 31
0.0
  0
LINE
  5
E6
330
1F
100
AcDbEntity
  8
TRDETAIL2
  6
HIDDEN
 62
     3
100
AcDbLine
 10
10.8649100982
 20
5.3546292448
 30
0.0
 11
10.8191100982
 21
5.3866987501
 31
0.0
  0
LINE
  5
E7
330
1F
100
AcDbEntity
  8
TRDETAIL2
  6
HIDDEN
 62
     3
100
AcDbLine
 10
10.8191100982
 20
5.3866987501
 30
0.0
 11
10.8649100982
 21
5.4187682553
 31
0.0
  0
LINE
  5
E8
330
1F
100
AcDbEntity
  8
TRDETAIL2
  6
HIDDEN
 62
     3
100
AcDbLine
 10
10.3649100982
 20
5.4187682553
 30
0.0
 11
10.4107100982
 21
5.3866987501
 31
0.0
  0
LINE
  5
E9
330
1F
100
AcDbEntity
  8
TRDETAIL2
  6
HIDDEN
 62
     3
100
AcDbLine
 10
10.4107100982
 20
5.4616332328
 30
0.0
 11
10.3649100982
 21
5.4295637276
 31
0.0
  0
LINE
  5
EA
330
1F
100
AcDbEntity
  8
TRDETAIL2
  6
HIDDEN
 62
     3
100
AcDbLine
 10
10.8649100982
 20
5.4295637276
 30
0.0
 11
10.8191100982
 21
5.4616332328
 31
0.0
  0
LINE
  5
EB
330
1F
100
AcDbEntity
  8
TRDETAIL2
  6
HIDDEN
 62
     3
100
AcDbLine
 10
10.8649100982
 20
5.3438337725
 30
0.0
 11
10.8649100982
 21
5.3546292448
 31
0.0
  0
LINE
  5
EC
330
1F
100
AcDbEntity
  8
TRDETAIL2
  6
HIDDEN
 62
     3
100
AcDbLine
 10
10.3649100982
 20
5.3546292448
 30
0.0
 11
10.3649100982
 21
5.3438337725
 31
0.0
  0
LINE
  5
ED
330
1F
100
AcDbEntity
  8
TRDETAIL2
  6
HIDDEN
 62
     3
100
AcDbLine
 10
10.1818973963
 20
5.5238297845
 30
0.0
 11
10.2399100982
 21
5.4738297845
 31
0.0
  0
LINE
  5
EE
330
1F
100
AcDbEntity
  8
TRDETAIL2
  6
HIDDEN
 62
     3
100
AcDbLine
 10
10.9899100982
 20
5.4738297845
 30
0.0
 11
11.0479228001
 21
5.5238297845
 31
0.0
  0
LINE
  5
EF
330
1F
100
AcDbEntity
  8
TRMODEL1
  6
Continuous
 62
     2
100
AcDbLine
 10
17.7262850276
 20
4.8152944436
 30
0.0
 11
17.7262850276
 21
3.2034641172
 31
0.0
  0
LINE
  5
F0
330
1F
100
AcDbEntity
  8
TRMODEL1
  6
Continuous
 62
     2
100
AcDbLine
 10
15.3518847873
 20
4.7436584783
 30
0.0
 11
15.4104785373
 21
5.0952209783
 31
0.0
  0
LINE
  5
F1
330
1F
100
AcDbEntity
  8
TRMODEL1
  6
Continuous
 62
     2
100
AcDbLine
 10
15.4104785373
 20
5.0952209783
 30
0.0
 11
15.4690722873
 21
4.7436584783
 31
0.0
  0
LINE
  5
F2
330
1F
100
AcDbEntity
  8
TRMODEL1
  6
Continuous
 62
     2
100
AcDbLine
 10
15.4690722873
 20
4.7436584783
 30
0.0
 11
15.3518847873
 21
4.7436584783
 31
0.0
  0
LINE
  5
F3
330
1F
100
AcDbEntity
  8
TRDETAIL2
  6
HIDDEN
 62
     3
100
AcDbLine
 10
15.0401505718
 20
5.4738297845
 30
0.0
 11
15.3649100982
 21
5.4738297845
 31
0.0
  0
LINE
  5
F4
330
1F
100
AcDbEntity
  8
TRDETAIL2
  6
HIDDEN
 62
     3
100
AcDbLine
 10
15.6149100982
 20
5.3546292448
 30
0.0
 11
15.1149100982
 21
5.3546292448
 31
0.0
  0
LINE
  5
F5
330
1F
100
AcDbEntity
  8
TRDETAIL2
  6
HIDDEN
 62
     3
100
AcDbLine
 10
15.6149100982
 20
5.3438337725
 30
0.0
 11
15.1149100982
 21
5.3438337725
 31
0.0
  0
LINE
  5
F6
330
1F
100
AcDbEntity
  8
TRDETAIL2
  6
HIDDEN
 62
     3
100
AcDbLine
 10
15.6149100982
 20
5.4295637276
 30
0.0
 11
15.1149100982
 21
5.4295637276
 31
0.0
  0
LINE
  5
F7
330
1F
100
AcDbEntity
  8
TRDETAIL2
  6
HIDDEN
 62
     3
100
AcDbLine
 10
15.5691100982
 20
5.4616332328
 30
0.0
 11
15.1607100982
 21
5.4616332328
 31
0.0
  0
LINE
  5
F8
330
1F
100
AcDbEntity
  8
TRDETAIL2
  6
HIDDEN
 62
     3
100
AcDbLine
 10
15.5691100982
 20
5.3866987501
 30
0.0
 11
15.1607100982
 21
5.3866987501
 31
0.0
  0
LINE
  5
F9
330
1F
100
AcDbEntity
  8
TRDETAIL2
  6
HIDDEN
 62
     3
100
AcDbLine
 10
15.6149100982
 20
5.4187682553
 30
0.0
 11
15.1149100982
 21
5.4187682553
 31
0.0
  0
LINE
  5
FA
330
1F
100
AcDbEntity
  8
TRDETAIL2
  6
HIDDEN
 62
     3
100
AcDbLine
 10
15.5691100982
 20
5.3117642673
 30
0.0
 11
15.1607100982
 21
5.3117642673
 31
0.0
  0
LINE
  5
FB
330
1F
100
AcDbEntity
  8
TRDETAIL2
  6
HIDDEN
 62
     3
100
AcDbLine
 10
15.1484037472
 20
5.5238297845
 30
0.0
 11
15.2037566873
 21
5.5024106154
 31
0.0
  0
LINE
  5
FC
330
1F
100
AcDbEntity
  8
TRDETAIL2
  6
HIDDEN
 62
     3
100
AcDbLine
 10
15.2037566873
 20
5.5024106154
 30
0.0
 11
15.2821190038
 21
5.4816129269
 31
0.0
  0
LINE
  5
FD
330
1F
100
AcDbEntity
  8
TRDETAIL2
  6
HIDDEN
 62
     3
100
AcDbLine
 10
15.2821190038
 20
5.4816129269
 30
0.0
 11
15.3649100982
 21
5.4738297845
 31
0.0
  0
LINE
  5
FE
330
1F
100
AcDbEntity
  8
TRDETAIL2
  6
HIDDEN
 62
     3
100
AcDbLine
 10
15.1894680701
 20
5.2809035115
 30
0.0
 11
15.6131838251
 21
5.2809035115
 31
0.0
  0
LINE
  5
FF
330
1F
100
AcDbEntity
  8
TRDETAIL2
  6
HIDDEN
 62
     3
100
AcDbLine
 10
15.5093950111
 20
5.2368297845
 30
0.0
 11
15.1607100982
 21
5.2368297845
 31
0.0
  0
LINE
  5
100
330
1F
100
AcDbEntity
  8
TRDETAIL2
  6
HIDDEN
 62
     3
100
AcDbLine
 10
14.9899100982
 20
5.4738297845
 30
0.0
 11
14.9318973963
 21
5.5238297845
 31
0.0
  0
LINE
  5
101
330
1F
100
AcDbEntity
  8
TRDETAIL2
  6
HIDDEN
 62
     3
100
AcDbLine
 10
15.1149100982
 20
5.3438337725
 30
0.0
 11
15.1149100982
 21
5.3546292448
 31
0.0
  0
LINE
  5
102
330
1F
100
AcDbEntity
  8
TRDETAIL2
  6
HIDDEN
 62
     3
100
AcDbLine
 10
15.1149100982
 20
5.4295637276
 30
0.0
 11
15.1607100982
 21
5.4616332328
 31
0.0
  0
LINE
  5
103
330
1F
100
AcDbEntity
  8
TRDETAIL2
  6
HIDDEN
 62
     3
100
AcDbLine
 10
15.1607100982
 20
5.3866987501
 30
0.0
 11
15.1149100982
 21
5.4187682553
 31
0.0
  0
LINE
  5
104
330
1F
100
AcDbEntity
  8
TRDETAIL2
  6
HIDDEN
 62
     3
100
AcDbLine
 10
15.1149100982
 20
5.3546292448
 30
0.0
 11
15.1607100982
 21
5.3866987501
 31
0.0
  0
LINE
  5
105
330
1F
100
AcDbEntity
  8
TRDETAIL2
  6
HIDDEN
 62
     3
100
AcDbLine
 10
15.1607100982
 20
5.4616332328
 30
0.0
 11
15.1432916172
 21
5.4738297845
 31
0.0
  0
LINE
  5
106
330
1F
100
AcDbEntity
  8
TRDETAIL2
  6
HIDDEN
 62
     3
100
AcDbLine
 10
15.1149100982
 20
5.4187682553
 30
0.0
 11
15.1149100982
 21
5.4295637276
 31
0.0
  0
LINE
  5
107
330
1F
100
AcDbEntity
  8
TRDETAIL2
  6
HIDDEN
 62
     3
100
AcDbLine
 10
15.1607100982
 20
5.3117642673
 30
0.0
 11
15.1149100982
 21
5.3438337725
 31
0.0
  0
LINE
  5
108
330
1F
100
AcDbEntity
  8
TRDETAIL2
  6
HIDDEN
 62
     3
100
AcDbLine
 10
14.9899100982
 20
5.4738297845
 30
0.0
 11
15.0401505718
 21
5.4738297845
 31
0.0
  0
LINE
  5
109
330
1F
100
AcDbEntity
  8
TRDETAIL2
  6
HIDDEN
 62
     3
100
AcDbLine
 10
15.1484037472
 20
5.5238297845
 30
0.0
 11
15.0972690871
 21
5.4884939497
 31
0.0
  0
LINE
  5
10A
330
1F
100
AcDbEntity
  8
TRDETAIL2
  6
HIDDEN
 62
     3
100
AcDbLine
 10
15.0972690871
 20
5.4884939497
 30
0.0
 11
15.0416779906
 21
5.4738405085
 31
0.0
  0
LINE
  5
10B
330
1F
100
AcDbEntity
  8
TRDETAIL2
  6
HIDDEN
 62
     3
100
AcDbLine
 10
15.0416779906
 20
5.4738405085
 30
0.0
 11
15.0401505718
 21
5.4738297845
 31
0.0
  0
LINE
  5
10C
330
1F
100
AcDbEntity
  8
TRDETAIL2
  6
HIDDEN
 62
     3
100
AcDbLine
 10
15.0401505718
 20
5.4738297845
 30
0.0
 11
14.9949767314
 21
5.483077838
 31
0.0
  0
LINE
  5
10D
330
1F
100
AcDbEntity
  8
TRDETAIL2
  6
HIDDEN
 62
     3
100
AcDbLine
 10
14.9949767314
 20
5.483077838
 30
0.0
 11
14.949802891
 21
5.5093945091
 31
0.0
  0
LINE
  5
10E
330
1F
100
AcDbEntity
  8
TRDETAIL2
  6
HIDDEN
 62
     3
100
AcDbLine
 10
14.949802891
 20
5.5093945091
 30
0.0
 11
14.9318973963
 21
5.5238297845
 31
0.0
  0
LINE
  5
10F
330
1F
100
AcDbEntity
  8
TRDETAIL2
  6
HIDDEN
 62
     3
100
AcDbLine
 10
15.1607100982
 20
5.2368297845
 30
0.0
 11
15.1166363713
 21
5.2809035115
 31
0.0
  0
LINE
  5
110
330
1F
100
AcDbEntity
  8
TRDETAIL2
  6
HIDDEN
 62
     3
100
AcDbLine
 10
15.1166363713
 20
5.2809035115
 30
0.0
 11
15.1894680701
 21
5.2809035115
 31
0.0
  0
LINE
  5
111
330
1F
100
AcDbEntity
  8
TRDETAIL2
  6
HIDDEN
 62
     3
100
AcDbLine
 10
15.1166363713
 20
5.2809035115
 30
0.0
 11
15.1607100982
 21
5.3117642673
 31
0.0
  0
LINE
  5
112
330
1F
100
AcDbEntity
  8
TRMODEL1
  6
Continuous
 62
     2
100
AcDbLine
 10
17.6676912776
 20
4.8152944436
 30
0.0
 11
17.7262850276
 21
5.1668569436
 31
0.0
  0
LINE
  5
113
330
1F
100
AcDbEntity
  8
TRMODEL1
  6
Continuous
 62
     2
100
AcDbLine
 10
17.7262850276
 20
5.1668569436
 30
0.0
 11
17.7848787776
 21
4.8152944436
 31
0.0
  0
LINE
  5
114
330
1F
100
AcDbEntity
  8
TRMODEL1
  6
Continuous
 62
     2
100
AcDbLine
 10
17.7848787776
 20
4.8152944436
 30
0.0
 11
17.6676912776
 21
4.8152944436
 31
0.0
  0
LINE
  5
115
330
1F
100
AcDbEntity
  8
TRDETAIL2
  6
HIDDEN
 62
     3
100
AcDbLine
 10
15.7979228001
 20
5.5238297845
 30
0.0
 11
15.7399100982
 21
5.4738297845
 31
0.0
  0
LINE
  5
116
330
1F
100
AcDbEntity
  8
TRDETAIL2
  6
HIDDEN
 62
     3
100
AcDbLine
 10
15.6149100982
 20
5.3546292448
 30
0.0
 11
15.6149100982
 21
5.3438337725
 31
0.0
  0
LINE
  5
117
330
1F
100
AcDbEntity
  8
TRDETAIL2
  6
HIDDEN
 62
     3
100
AcDbLine
 10
15.5691100982
 20
5.4616332328
 30
0.0
 11
15.6149100982
 21
5.4295637276
 31
0.0
  0
LINE
  5
118
330
1F
100
AcDbEntity
  8
TRDETAIL2
  6
HIDDEN
 62
     3
100
AcDbLine
 10
15.6149100982
 20
5.4187682553
 30
0.0
 11
15.5691100982
 21
5.3866987501
 31
0.0
  0
LINE
  5
119
330
1F
100
AcDbEntity
  8
TRDETAIL2
  6
HIDDEN
 62
     3
100
AcDbLine
 10
15.5691100982
 20
5.3866987501
 30
0.0
 11
15.6149100982
 21
5.3546292448
 31
0.0
  0
LINE
  5
11A
330
1F
100
AcDbEntity
  8
TRDETAIL2
  6
HIDDEN
 62
     3
100
AcDbLine
 10
15.5865285792
 20
5.4738297845
 30
0.0
 11
15.5691100982
 21
5.4616332328
 31
0.0
  0
LINE
  5
11B
330
1F
100
AcDbEntity
  8
TRDETAIL2
  6
HIDDEN
 62
     3
100
AcDbLine
 10
15.6149100982
 20
5.4295637276
 30
0.0
 11
15.6149100982
 21
5.4187682553
 31
0.0
  0
LINE
  5
11C
330
1F
100
AcDbEntity
  8
TRDETAIL2
  6
HIDDEN
 62
     3
100
AcDbLine
 10
15.6149100982
 20
5.3438337725
 30
0.0
 11
15.5691100982
 21
5.3117642673
 31
0.0
  0
LINE
  5
11D
330
1F
100
AcDbEntity
  8
TRDETAIL2
  6
HIDDEN
 62
     3
100
AcDbLine
 10
15.3649100982
 20
5.4738297845
 30
0.0
 11
15.6896696246
 21
5.4738297845
 31
0.0
  0
LINE
  5
11E
330
1F
100
AcDbEntity
  8
TRDETAIL2
  6
HIDDEN
 62
     3
100
AcDbLine
 10
15.6896696246
 20
5.4738297845
 30
0.0
 11
15.7399100982
 21
5.4738297845
 31
0.0
  0
LINE
  5
11F
330
1F
100
AcDbEntity
  8
TRDETAIL2
  6
HIDDEN
 62
     3
100
AcDbLine
 10
15.7979228001
 20
5.5238297845
 30
0.0
 11
15.74678814
 21
5.4884939497
 31
0.0
  0
LINE
  5
120
330
1F
100
AcDbEntity
  8
TRDETAIL2
  6
HIDDEN
 62
     3
100
AcDbLine
 10
15.74678814
 20
5.4884939497
 30
0.0
 11
15.6911970434
 21
5.4738405085
 31
0.0
  0
LINE
  5
121
330
1F
100
AcDbEntity
  8
TRDETAIL2
  6
HIDDEN
 62
     3
100
AcDbLine
 10
15.6911970434
 20
5.4738405085
 30
0.0
 11
15.6896696246
 21
5.4738297845
 31
0.0
  0
LINE
  5
122
330
1F
100
AcDbEntity
  8
TRDETAIL2
  6
HIDDEN
 62
     3
100
AcDbLine
 10
15.6896696246
 20
5.4738297845
 30
0.0
 11
15.6444957842
 21
5.483077838
 31
0.0
  0
LINE
  5
123
330
1F
100
AcDbEntity
  8
TRDETAIL2
  6
HIDDEN
 62
     3
100
AcDbLine
 10
15.6444957842
 20
5.483077838
 30
0.0
 11
15.5993219438
 21
5.5093945091
 31
0.0
  0
LINE
  5
124
330
1F
100
AcDbEntity
  8
TRDETAIL2
  6
HIDDEN
 62
     3
100
AcDbLine
 10
15.5993219438
 20
5.5093945091
 30
0.0
 11
15.5814164491
 21
5.5238297845
 31
0.0
  0
LINE
  5
125
330
1F
100
AcDbEntity
  8
TRDETAIL2
  6
HIDDEN
 62
     3
100
AcDbLine
 10
15.3649100982
 20
5.4738297845
 30
0.0
 11
15.3797846371
 21
5.4740839415
 31
0.0
  0
LINE
  5
126
330
1F
100
AcDbEntity
  8
TRDETAIL2
  6
HIDDEN
 62
     3
100
AcDbLine
 10
15.3797846371
 20
5.4740839415
 30
0.0
 11
15.4615900177
 21
5.4843983269
 31
0.0
  0
LINE
  5
127
330
1F
100
AcDbEntity
  8
TRDETAIL2
  6
HIDDEN
 62
     3
100
AcDbLine
 10
15.4615900177
 20
5.4843983269
 30
0.0
 11
15.5429278823
 21
5.5083987819
 31
0.0
  0
LINE
  5
128
330
1F
100
AcDbEntity
  8
TRDETAIL2
  6
HIDDEN
 62
     3
100
AcDbLine
 10
15.5429278823
 20
5.5083987819
 30
0.0
 11
15.5814164491
 21
5.5238297845
 31
0.0
  0
LINE
  5
129
330
1F
100
AcDbEntity
  8
TRDETAIL2
  6
HIDDEN
 62
     3
100
AcDbLine
 10
15.6131838251
 20
5.2809035115
 30
0.0
 11
15.5691100982
 21
5.2368297845
 31
0.0
  0
LINE
  5
12A
330
1F
100
AcDbEntity
  8
TRDETAIL2
  6
HIDDEN
 62
     3
100
AcDbLine
 10
15.5691100982
 20
5.2368297845
 30
0.0
 11
15.5093950111
 21
5.2368297845
 31
0.0
  0
LINE
  5
12B
330
1F
100
AcDbEntity
  8
TRDETAIL2
  6
HIDDEN
 62
     3
100
AcDbLine
 10
15.5691100982
 20
5.3117642673
 30
0.0
 11
15.6131838251
 21
5.2809035115
 31
0.0
  0
LINE
  5
12C
330
1F
100
AcDbEntity
  8
TRDETAIL2
  6
HIDDEN
 62
     3
100
AcDbLine
 10
17.4151505718
 20
5.4738297845
 30
0.0
 11
17.3699767314
 21
5.483077838
 31
0.0
  0
LINE
  5
12D
330
1F
100
AcDbEntity
  8
TRDETAIL2
  6
HIDDEN
 62
     3
100
AcDbLine
 10
17.3699767314
 20
5.483077838
 30
0.0
 11
17.324802891
 21
5.5093945091
 31
0.0
  0
LINE
  5
12E
330
1F
100
AcDbEntity
  8
TRDETAIL2
  6
HIDDEN
 62
     3
100
AcDbLine
 10
17.324802891
 20
5.5093945091
 30
0.0
 11
17.3068973963
 21
5.5238297845
 31
0.0
  0
LINE
  5
12F
330
1F
100
AcDbEntity
  8
TRDETAIL2
  6
HIDDEN
 62
     3
100
AcDbLine
 10
17.5234037472
 20
5.5238297845
 30
0.0
 11
17.4722690871
 21
5.4884939497
 31
0.0
  0
LINE
  5
130
330
1F
100
AcDbEntity
  8
TRDETAIL2
  6
HIDDEN
 62
     3
100
AcDbLine
 10
17.4722690871
 20
5.4884939497
 30
0.0
 11
17.4166779906
 21
5.4738405085
 31
0.0
  0
LINE
  5
131
330
1F
100
AcDbEntity
  8
TRDETAIL2
  6
HIDDEN
 62
     3
100
AcDbLine
 10
17.4166779906
 20
5.4738405085
 30
0.0
 11
17.4151505718
 21
5.4738297845
 31
0.0
  0
LINE
  5
132
330
1F
100
AcDbEntity
  8
TRDETAIL2
  6
HIDDEN
 62
     3
100
AcDbLine
 10
17.7399100982
 20
5.4738297845
 30
0.0
 11
17.7547846371
 21
5.4740839415
 31
0.0
  0
LINE
  5
133
330
1F
100
AcDbEntity
  8
TRDETAIL2
  6
HIDDEN
 62
     3
100
AcDbLine
 10
17.7547846371
 20
5.4740839415
 30
0.0
 11
17.8365900177
 21
5.4843983269
 31
0.0
  0
LINE
  5
134
330
1F
100
AcDbEntity
  8
TRDETAIL2
  6
HIDDEN
 62
     3
100
AcDbLine
 10
17.8365900177
 20
5.4843983269
 30
0.0
 11
17.9179278823
 21
5.5083987819
 31
0.0
  0
LINE
  5
135
330
1F
100
AcDbEntity
  8
TRDETAIL2
  6
HIDDEN
 62
     3
100
AcDbLine
 10
17.9179278823
 20
5.5083987819
 30
0.0
 11
17.9564164491
 21
5.5238297845
 31
0.0
  0
LINE
  5
136
330
1F
100
AcDbEntity
  8
TRDETAIL2
  6
HIDDEN
 62
     3
100
AcDbLine
 10
17.5234037472
 20
5.5238297845
 30
0.0
 11
17.5787566873
 21
5.5024106154
 31
0.0
  0
LINE
  5
137
330
1F
100
AcDbEntity
  8
TRDETAIL2
  6
HIDDEN
 62
     3
100
AcDbLine
 10
17.5787566873
 20
5.5024106154
 30
0.0
 11
17.6571190038
 21
5.4816129269
 31
0.0
  0
LINE
  5
138
330
1F
100
AcDbEntity
  8
TRDETAIL2
  6
HIDDEN
 62
     3
100
AcDbLine
 10
17.6571190038
 20
5.4816129269
 30
0.0
 11
17.7399100982
 21
5.4738297845
 31
0.0
  0
LINE
  5
139
330
1F
100
AcDbEntity
  8
TRDETAIL2
  6
HIDDEN
 62
     3
100
AcDbLine
 10
18.0646696246
 20
5.4738297845
 30
0.0
 11
18.0194957842
 21
5.483077838
 31
0.0
  0
LINE
  5
13A
330
1F
100
AcDbEntity
  8
TRDETAIL2
  6
HIDDEN
 62
     3
100
AcDbLine
 10
18.0194957842
 20
5.483077838
 30
0.0
 11
17.9743219438
 21
5.5093945091
 31
0.0
  0
LINE
  5
13B
330
1F
100
AcDbEntity
  8
TRDETAIL2
  6
HIDDEN
 62
     3
100
AcDbLine
 10
17.9743219438
 20
5.5093945091
 30
0.0
 11
17.9564164491
 21
5.5238297845
 31
0.0
  0
LINE
  5
13C
330
1F
100
AcDbEntity
  8
TRDETAIL2
  6
HIDDEN
 62
     3
100
AcDbLine
 10
18.1729228001
 20
5.5238297845
 30
0.0
 11
18.12178814
 21
5.4884939497
 31
0.0
  0
LINE
  5
13D
330
1F
100
AcDbEntity
  8
TRDETAIL2
  6
HIDDEN
 62
     3
100
AcDbLine
 10
18.12178814
 20
5.4884939497
 30
0.0
 11
18.0661970434
 21
5.4738405085
 31
0.0
  0
LINE
  5
13E
330
1F
100
AcDbEntity
  8
TRDETAIL2
  6
HIDDEN
 62
     3
100
AcDbLine
 10
18.0661970434
 20
5.4738405085
 30
0.0
 11
18.0646696246
 21
5.4738297845
 31
0.0
  0
LINE
  5
13F
330
1F
100
AcDbEntity
  8
TRDETAIL2
  6
HIDDEN
 62
     3
100
AcDbLine
 10
17.9441100982
 20
5.2368297845
 30
0.0
 11
17.8843950111
 21
5.2368297845
 31
0.0
  0
LINE
  5
140
330
1F
100
AcDbEntity
  8
TRDETAIL2
  6
HIDDEN
 62
     3
100
AcDbLine
 10
17.8843950111
 20
5.2368297845
 30
0.0
 11
17.5357100982
 21
5.2368297845
 31
0.0
  0
LINE
  5
141
330
1F
100
AcDbEntity
  8
TRDETAIL2
  6
HIDDEN
 62
     3
100
AcDbLine
 10
17.4916363713
 20
5.2809035115
 30
0.0
 11
17.5644680701
 21
5.2809035115
 31
0.0
  0
LINE
  5
142
330
1F
100
AcDbEntity
  8
TRDETAIL2
  6
HIDDEN
 62
     3
100
AcDbLine
 10
17.5644680701
 20
5.2809035115
 30
0.0
 11
17.9881838251
 21
5.2809035115
 31
0.0
  0
LINE
  5
143
330
1F
100
AcDbEntity
  8
TRDETAIL2
  6
HIDDEN
 62
     3
100
AcDbLine
 10
17.9441100982
 20
5.3117642673
 30
0.0
 11
17.5357100982
 21
5.3117642673
 31
0.0
  0
LINE
  5
144
330
1F
100
AcDbEntity
  8
TRDETAIL2
  6
HIDDEN
 62
     3
100
AcDbLine
 10
17.9899100982
 20
5.4187682553
 30
0.0
 11
17.4899100982
 21
5.4187682553
 31
0.0
  0
LINE
  5
145
330
1F
100
AcDbEntity
  8
TRDETAIL2
  6
HIDDEN
 62
     3
100
AcDbLine
 10
17.9441100982
 20
5.3866987501
 30
0.0
 11
17.5357100982
 21
5.3866987501
 31
0.0
  0
LINE
  5
146
330
1F
100
AcDbEntity
  8
TRDETAIL2
  6
HIDDEN
 62
     3
100
AcDbLine
 10
17.9441100982
 20
5.4616332328
 30
0.0
 11
17.5357100982
 21
5.4616332328
 31
0.0
  0
LINE
  5
147
330
1F
100
AcDbEntity
  8
TRDETAIL2
  6
HIDDEN
 62
     3
100
AcDbLine
 10
17.9899100982
 20
5.4295637276
 30
0.0
 11
17.4899100982
 21
5.4295637276
 31
0.0
  0
LINE
  5
148
330
1F
100
AcDbEntity
  8
TRDETAIL2
  6
HIDDEN
 62
     3
100
AcDbLine
 10
17.9899100982
 20
5.3438337725
 30
0.0
 11
17.4899100982
 21
5.3438337725
 31
0.0
  0
LINE
  5
149
330
1F
100
AcDbEntity
  8
TRDETAIL2
  6
HIDDEN
 62
     3
100
AcDbLine
 10
17.9899100982
 20
5.3546292448
 30
0.0
 11
17.4899100982
 21
5.3546292448
 31
0.0
  0
LINE
  5
14A
330
1F
100
AcDbEntity
  8
TRDETAIL2
  6
HIDDEN
 62
     3
100
AcDbLine
 10
18.0646696246
 20
5.4738297845
 30
0.0
 11
18.1149100982
 21
5.4738297845
 31
0.0
  0
LINE
  5
14B
330
1F
100
AcDbEntity
  8
TRDETAIL2
  6
HIDDEN
 62
     3
100
AcDbLine
 10
17.3649100982
 20
5.4738297845
 30
0.0
 11
17.4151505718
 21
5.4738297845
 31
0.0
  0
LINE
  5
14C
330
1F
100
AcDbEntity
  8
TRDETAIL2
  6
HIDDEN
 62
     3
100
AcDbLine
 10
17.7399100982
 20
5.4738297845
 30
0.0
 11
18.0646696246
 21
5.4738297845
 31
0.0
  0
LINE
  5
14D
330
1F
100
AcDbEntity
  8
TRDETAIL2
  6
HIDDEN
 62
     3
100
AcDbLine
 10
17.4151505718
 20
5.4738297845
 30
0.0
 11
17.7399100982
 21
5.4738297845
 31
0.0
  0
LINE
  5
14E
330
1F
100
AcDbEntity
  8
TRDETAIL2
  6
HIDDEN
 62
     3
100
AcDbLine
 10
17.5357100982
 20
5.2368297845
 30
0.0
 11
17.4916363713
 21
5.2809035115
 31
0.0
  0
LINE
  5
14F
330
1F
100
AcDbEntity
  8
TRDETAIL2
  6
HIDDEN
 62
     3
100
AcDbLine
 10
17.9881838251
 20
5.2809035115
 30
0.0
 11
17.9441100982
 21
5.2368297845
 31
0.0
  0
LINE
  5
150
330
1F
100
AcDbEntity
  8
TRDETAIL2
  6
HIDDEN
 62
     3
100
AcDbLine
 10
17.9441100982
 20
5.3117642673
 30
0.0
 11
17.9881838251
 21
5.2809035115
 31
0.0
  0
LINE
  5
151
330
1F
100
AcDbEntity
  8
TRDETAIL2
  6
HIDDEN
 62
     3
100
AcDbLine
 10
17.4916363713
 20
5.2809035115
 30
0.0
 11
17.5357100982
 21
5.3117642673
 31
0.0
  0
LINE
  5
152
330
1F
100
AcDbEntity
  8
TRDETAIL2
  6
HIDDEN
 62
     3
100
AcDbLine
 10
17.5357100982
 20
5.3117642673
 30
0.0
 11
17.4899100982
 21
5.3438337725
 31
0.0
  0
LINE
  5
153
330
1F
100
AcDbEntity
  8
TRDETAIL2
  6
HIDDEN
 62
     3
100
AcDbLine
 10
17.9899100982
 20
5.3438337725
 30
0.0
 11
17.9441100982
 21
5.3117642673
 31
0.0
  0
LINE
  5
154
330
1F
100
AcDbEntity
  8
TRDETAIL2
  6
HIDDEN
 62
     3
100
AcDbLine
 10
17.4899100982
 20
5.4187682553
 30
0.0
 11
17.4899100982
 21
5.4295637276
 31
0.0
  0
LINE
  5
155
330
1F
100
AcDbEntity
  8
TRDETAIL2
  6
HIDDEN
 62
     3
100
AcDbLine
 10
17.9899100982
 20
5.4295637276
 30
0.0
 11
17.9899100982
 21
5.4187682553
 31
0.0
  0
LINE
  5
156
330
1F
100
AcDbEntity
  8
TRDETAIL2
  6
HIDDEN
 62
     3
100
AcDbLine
 10
17.5357100982
 20
5.4616332328
 30
0.0
 11
17.5182916172
 21
5.4738297845
 31
0.0
  0
LINE
  5
157
330
1F
100
AcDbEntity
  8
TRDETAIL2
  6
HIDDEN
 62
     3
100
AcDbLine
 10
17.9615285792
 20
5.4738297845
 30
0.0
 11
17.9441100982
 21
5.4616332328
 31
0.0
  0
LINE
  5
158
330
1F
100
AcDbEntity
  8
TRDETAIL2
  6
HIDDEN
 62
     3
100
AcDbLine
 10
17.9441100982
 20
5.3866987501
 30
0.0
 11
17.9899100982
 21
5.3546292448
 31
0.0
  0
LINE
  5
159
330
1F
100
AcDbEntity
  8
TRDETAIL2
  6
HIDDEN
 62
     3
100
AcDbLine
 10
17.4899100982
 20
5.3546292448
 30
0.0
 11
17.5357100982
 21
5.3866987501
 31
0.0
  0
LINE
  5
15A
330
1F
100
AcDbEntity
  8
TRDETAIL2
  6
HIDDEN
 62
     3
100
AcDbLine
 10
17.5357100982
 20
5.3866987501
 30
0.0
 11
17.4899100982
 21
5.4187682553
 31
0.0
  0
LINE
  5
15B
330
1F
100
AcDbEntity
  8
TRDETAIL2
  6
HIDDEN
 62
     3
100
AcDbLine
 10
17.9899100982
 20
5.4187682553
 30
0.0
 11
17.9441100982
 21
5.3866987501
 31
0.0
  0
LINE
  5
15C
330
1F
100
AcDbEntity
  8
TRDETAIL2
  6
HIDDEN
 62
     3
100
AcDbLine
 10
17.9441100982
 20
5.4616332328
 30
0.0
 11
17.9899100982
 21
5.4295637276
 31
0.0
  0
LINE
  5
15D
330
1F
100
AcDbEntity
  8
TRDETAIL2
  6
HIDDEN
 62
     3
100
AcDbLine
 10
17.4899100982
 20
5.4295637276
 30
0.0
 11
17.5357100982
 21
5.4616332328
 31
0.0
  0
LINE
  5
15E
330
1F
100
AcDbEntity
  8
TRDETAIL2
  6
HIDDEN
 62
     3
100
AcDbLine
 10
17.4899100982
 20
5.3438337725
 30
0.0
 11
17.4899100982
 21
5.3546292448
 31
0.0
  0
LINE
  5
15F
330
1F
100
AcDbEntity
  8
TRDETAIL2
  6
HIDDEN
 62
     3
100
AcDbLine
 10
17.9899100982
 20
5.3546292448
 30
0.0
 11
17.9899100982
 21
5.3438337725
 31
0.0
  0
LINE
  5
160
330
1F
100
AcDbEntity
  8
TRDETAIL2
  6
HIDDEN
 62
     3
100
AcDbLine
 10
18.1729228001
 20
5.5238297845
 30
0.0
 11
18.1149100982
 21
5.4738297845
 31
0.0
  0
LINE
  5
161
330
1F
100
AcDbEntity
  8
TRDETAIL2
  6
HIDDEN
 62
     3
100
AcDbLine
 10
17.3649100982
 20
5.4738297845
 30
0.0
 11
17.3068973963
 21
5.5238297845
 31
0.0
  0
LINE
  5
162
330
1F
100
AcDbEntity
  8
TRMODEL1
  6
Continuous
 62
     2
100
AcDbLine
 10
12.3141736054
 20
6.8918297845
 30
0.0
 11
12.8141736054
 21
7.3918297845
 31
0.0
  0
LINE
  5
163
330
1F
100
AcDbEntity
  8
TRMODEL1
  6
Continuous
 62
     2
100
AcDbLine
 10
12.1373969101
 20
6.8918297845
 30
0.0
 11
12.6373969101
 21
7.3918297845
 31
0.0
  0
LINE
  5
164
330
1F
100
AcDbEntity
  8
TRMODEL1
  6
Continuous
 62
     2
100
AcDbLine
 10
11.9606202148
 20
6.8918297845
 30
0.0
 11
12.4606202148
 21
7.3918297845
 31
0.0
  0
LINE
  5
165
330
1F
100
AcDbEntity
  8
TRMODEL1
  6
Continuous
 62
     2
100
AcDbLine
 10
11.7838435195
 20
6.8918297845
 30
0.0
 11
12.2838435195
 21
7.3918297845
 31
0.0
  0
LINE
  5
166
330
1F
100
AcDbEntity
  8
TRMODEL1
  6
Continuous
 62
     2
100
AcDbLine
 10
11.6070668242
 20
6.8918297845
 30
0.0
 11
12.1070668242
 21
7.3918297845
 31
0.0
  0
LINE
  5
167
330
1F
100
AcDbEntity
  8
TRMODEL1
  6
Continuous
 62
     2
100
AcDbLine
 10
11.4302901289
 20
6.8918297845
 30
0.0
 11
11.9302901289
 21
7.3918297845
 31
0.0
  0
LINE
  5
168
330
1F
100
AcDbEntity
  8
TRMODEL1
  6
Continuous
 62
     2
100
AcDbLine
 10
11.2535134336
 20
6.8918297845
 30
0.0
 11
11.7535134336
 21
7.3918297845
 31
0.0
  0
LINE
  5
169
330
1F
100
AcDbEntity
  8
TRMODEL1
  6
Continuous
 62
     2
100
AcDbLine
 10
11.0767367383
 20
6.8918297845
 30
0.0
 11
11.5767367383
 21
7.3918297845
 31
0.0
  0
LINE
  5
16A
330
1F
100
AcDbEntity
  8
TRMODEL1
  6
Continuous
 62
     2
100
AcDbLine
 10
10.899960043
 20
6.8918297845
 30
0.0
 11
11.399960043
 21
7.3918297845
 31
0.0
  0
LINE
  5
16B
330
1F
100
AcDbEntity
  8
TRMODEL1
  6
Continuous
 62
     2
100
AcDbLine
 10
10.7231833477
 20
6.8918297845
 30
0.0
 11
11.2231833477
 21
7.3918297845
 31
0.0
  0
LINE
  5
16C
330
1F
100
AcDbEntity
  8
TRMODEL1
  6
Continuous
 62
     2
100
AcDbLine
 10
10.5464066524
 20
6.8918297845
 30
0.0
 11
11.0464066524
 21
7.3918297845
 31
0.0
  0
LINE
  5
16D
330
1F
100
AcDbEntity
  8
TRMODEL1
  6
Continuous
 62
     2
100
AcDbLine
 10
10.3696299571
 20
6.8918297845
 30
0.0
 11
10.8696299571
 21
7.3918297845
 31
0.0
  0
LINE
  5
16E
330
1F
100
AcDbEntity
  8
TRMODEL1
  6
Continuous
 62
     2
100
AcDbLine
 10
10.1928532618
 20
6.8918297845
 30
0.0
 11
10.6928532618
 21
7.3918297845
 31
0.0
  0
LINE
  5
16F
330
1F
100
AcDbEntity
  8
TRMODEL1
  6
Continuous
 62
     2
100
AcDbLine
 10
10.0160765665
 20
6.8918297845
 30
0.0
 11
10.5160765665
 21
7.3918297845
 31
0.0
  0
LINE
  5
170
330
1F
100
AcDbEntity
  8
TRMODEL1
  6
Continuous
 62
     2
100
AcDbLine
 10
9.8392998712
 20
6.8918297845
 30
0.0
 11
10.3392998712
 21
7.3918297845
 31
0.0
  0
LINE
  5
171
330
1F
100
AcDbEntity
  8
TRMODEL1
  6
Continuous
 62
     2
100
AcDbLine
 10
9.6625231759
 20
6.8918297845
 30
0.0
 11
10.1625231759
 21
7.3918297845
 31
0.0
  0
LINE
  5
172
330
1F
100
AcDbEntity
  8
TRMODEL1
  6
Continuous
 62
     2
100
AcDbLine
 10
9.4857464806
 20
6.8918297845
 30
0.0
 11
9.9857464806
 21
7.3918297845
 31
0.0
  0
LINE
  5
173
330
1F
100
AcDbEntity
  8
TRMODEL1
  6
Continuous
 62
     2
100
AcDbLine
 10
9.3089697853
 20
6.8918297845
 30
0.0
 11
9.8089697853
 21
7.3918297845
 31
0.0
  0
LINE
  5
174
330
1F
100
AcDbEntity
  8
TRMODEL1
  6
Continuous
 62
     2
100
AcDbLine
 10
9.13219309
 20
6.8918297845
 30
0.0
 11
9.63219309
 21
7.3918297845
 31
0.0
  0
LINE
  5
175
330
1F
100
AcDbEntity
  8
TRMODEL1
  6
Continuous
 62
     2
100
AcDbLine
 10
8.9554163947
 20
6.8918297845
 30
0.0
 11
9.4554163947
 21
7.3918297845
 31
0.0
  0
LINE
  5
176
330
1F
100
AcDbEntity
  8
TRMODEL1
  6
Continuous
 62
     2
100
AcDbLine
 10
8.7786396994
 20
6.8918297845
 30
0.0
 11
9.2786396994
 21
7.3918297845
 31
0.0
  0
LINE
  5
177
330
1F
100
AcDbEntity
  8
TRMODEL1
  6
Continuous
 62
     2
100
AcDbLine
 10
8.6018630041
 20
6.8918297845
 30
0.0
 11
9.1018630041
 21
7.3918297845
 31
0.0
  0
LINE
  5
178
330
1F
100
AcDbEntity
  8
TRMODEL1
  6
Continuous
 62
     2
100
AcDbLine
 10
8.4250863088
 20
6.8918297845
 30
0.0
 11
8.9250863088
 21
7.3918297845
 31
0.0
  0
LINE
  5
179
330
1F
100
AcDbEntity
  8
TRMODEL1
  6
Continuous
 62
     2
100
AcDbLine
 10
8.2483096135
 20
6.8918297845
 30
0.0
 11
8.7483096135
 21
7.3918297845
 31
0.0
  0
LINE
  5
17A
330
1F
100
AcDbEntity
  8
TRMODEL1
  6
Continuous
 62
     2
100
AcDbLine
 10
8.0715329182
 20
6.8918297845
 30
0.0
 11
8.5715329182
 21
7.3918297845
 31
0.0
  0
LINE
  5
17B
330
1F
100
AcDbEntity
  8
TRMODEL1
  6
Continuous
 62
     2
100
AcDbLine
 10
7.894756223
 20
6.8918297845
 30
0.0
 11
8.394756223
 21
7.3918297845
 31
0.0
  0
LINE
  5
17C
330
1F
100
AcDbEntity
  8
TRMODEL1
  6
Continuous
 62
     2
100
AcDbLine
 10
7.7179795277
 20
6.8918297845
 30
0.0
 11
8.2179795277
 21
7.3918297845
 31
0.0
  0
LINE
  5
17D
330
1F
100
AcDbEntity
  8
TRMODEL1
  6
Continuous
 62
     2
100
AcDbLine
 10
7.5412028324
 20
6.8918297845
 30
0.0
 11
8.0412028324
 21
7.3918297845
 31
0.0
  0
LINE
  5
17E
330
1F
100
AcDbEntity
  8
TRMODEL1
  6
Continuous
 62
     2
100
AcDbLine
 10
7.3644261371
 20
6.8918297845
 30
0.0
 11
7.8644261371
 21
7.3918297845
 31
0.0
  0
LINE
  5
17F
330
1F
100
AcDbEntity
  8
TRMODEL1
  6
Continuous
 62
     2
100
AcDbLine
 10
7.1876494418
 20
6.8918297845
 30
0.0
 11
7.6876494418
 21
7.3918297845
 31
0.0
  0
LINE
  5
180
330
1F
100
AcDbEntity
  8
TRMODEL1
  6
Continuous
 62
     2
100
AcDbLine
 10
7.0108727465
 20
6.8918297845
 30
0.0
 11
7.5108727465
 21
7.3918297845
 31
0.0
  0
LINE
  5
181
330
1F
100
AcDbEntity
  8
TRMODEL1
  6
Continuous
 62
     2
100
AcDbLine
 10
6.8340960512
 20
6.8918297845
 30
0.0
 11
7.3340960512
 21
7.3918297845
 31
0.0
  0
LINE
  5
182
330
1F
100
AcDbEntity
  8
TRDETAIL2
  6
HIDDEN
 62
     3
100
AcDbLine
 10
7.8649100982
 20
5.9218297845
 30
0.0
 11
7.8068973963
 21
5.8718297845
 31
0.0
  0
LINE
  5
183
330
1F
100
AcDbEntity
  8
TRDETAIL2
  6
HIDDEN
 62
     3
100
AcDbLine
 10
8.6729228001
 20
5.8718297845
 30
0.0
 11
8.6149100982
 21
5.9218297845
 31
0.0
  0
LINE
  5
184
330
1F
100
AcDbEntity
  8
TRDETAIL2
  6
HIDDEN
 62
     3
100
AcDbLine
 10
8.4432393418
 20
5.9218297845
 30
0.0
 11
7.7089100982
 21
5.9218297845
 31
0.0
  0
LINE
  5
185
330
1F
100
AcDbEntity
  8
TRDETAIL2
  6
HIDDEN
 62
     3
100
AcDbLine
 10
8.7709100982
 20
5.9218297845
 30
0.0
 11
8.4432393418
 21
5.9218297845
 31
0.0
  0
LINE
  5
186
330
1F
100
AcDbEntity
  8
TRDETAIL2
  6
HIDDEN
 62
     3
100
AcDbLine
 10
8.7709100982
 20
5.9218297845
 30
0.0
 11
8.7709100982
 21
6.0168297845
 31
0.0
  0
LINE
  5
187
330
1F
100
AcDbEntity
  8
TRDETAIL2
  6
HIDDEN
 62
     3
100
AcDbLine
 10
7.7089100982
 20
6.0168297845
 30
0.0
 11
7.7089100982
 21
5.9218297845
 31
0.0
  0
LINE
  5
188
330
1F
100
AcDbEntity
  8
TRDETAIL2
  6
HIDDEN
 62
     3
100
AcDbLine
 10
7.9151505718
 20
5.9218297845
 30
0.0
 11
7.9603244122
 21
5.912581731
 31
0.0
  0
LINE
  5
189
330
1F
100
AcDbEntity
  8
TRDETAIL2
  6
HIDDEN
 62
     3
100
AcDbLine
 10
7.9603244122
 20
5.912581731
 30
0.0
 11
8.0054982526
 21
5.8862650599
 31
0.0
  0
LINE
  5
18A
330
1F
100
AcDbEntity
  8
TRDETAIL2
  6
HIDDEN
 62
     3
100
AcDbLine
 10
8.0054982526
 20
5.8862650599
 30
0.0
 11
8.0234037472
 21
5.8718297845
 31
0.0
  0
LINE
  5
18B
330
1F
100
AcDbEntity
  8
TRDETAIL2
  6
HIDDEN
 62
     3
100
AcDbLine
 10
7.8068973963
 20
5.8718297845
 30
0.0
 11
7.8580320564
 21
5.9071656193
 31
0.0
  0
LINE
  5
18C
330
1F
100
AcDbEntity
  8
TRDETAIL2
  6
HIDDEN
 62
     3
100
AcDbLine
 10
7.8580320564
 20
5.9071656193
 30
0.0
 11
7.913623153
 21
5.9218190606
 31
0.0
  0
LINE
  5
18D
330
1F
100
AcDbEntity
  8
TRDETAIL2
  6
HIDDEN
 62
     3
100
AcDbLine
 10
7.913623153
 20
5.9218190606
 30
0.0
 11
7.9151505718
 21
5.9218297845
 31
0.0
  0
LINE
  5
18E
330
1F
100
AcDbEntity
  8
TRDETAIL2
  6
HIDDEN
 62
     3
100
AcDbLine
 10
8.4564164491
 20
5.8718297845
 30
0.0
 11
8.4010635091
 21
5.8932489537
 31
0.0
  0
LINE
  5
18F
330
1F
100
AcDbEntity
  8
TRDETAIL2
  6
HIDDEN
 62
     3
100
AcDbLine
 10
8.4010635091
 20
5.8932489537
 30
0.0
 11
8.3227011926
 21
5.9140466422
 31
0.0
  0
LINE
  5
190
330
1F
100
AcDbEntity
  8
TRDETAIL2
  6
HIDDEN
 62
     3
100
AcDbLine
 10
8.3227011926
 20
5.9140466422
 30
0.0
 11
8.2399100982
 21
5.9218297845
 31
0.0
  0
LINE
  5
191
330
1F
100
AcDbEntity
  8
TRDETAIL2
  6
HIDDEN
 62
     3
100
AcDbLine
 10
8.2399100982
 20
5.9218297845
 30
0.0
 11
8.2250355593
 21
5.9215756276
 31
0.0
  0
LINE
  5
192
330
1F
100
AcDbEntity
  8
TRDETAIL2
  6
HIDDEN
 62
     3
100
AcDbLine
 10
8.2250355593
 20
5.9215756276
 30
0.0
 11
8.1432301787
 21
5.9112612422
 31
0.0
  0
LINE
  5
193
330
1F
100
AcDbEntity
  8
TRDETAIL2
  6
HIDDEN
 62
     3
100
AcDbLine
 10
8.1432301787
 20
5.9112612422
 30
0.0
 11
8.0618923141
 21
5.8872607871
 31
0.0
  0
LINE
  5
194
330
1F
100
AcDbEntity
  8
TRDETAIL2
  6
HIDDEN
 62
     3
100
AcDbLine
 10
8.0618923141
 20
5.8872607871
 30
0.0
 11
8.0234037472
 21
5.8718297845
 31
0.0
  0
LINE
  5
195
330
1F
100
AcDbEntity
  8
TRDETAIL2
  6
HIDDEN
 62
     3
100
AcDbLine
 10
8.5646696246
 20
5.9218297845
 30
0.0
 11
8.609843465
 21
5.912581731
 31
0.0
  0
LINE
  5
196
330
1F
100
AcDbEntity
  8
TRDETAIL2
  6
HIDDEN
 62
     3
100
AcDbLine
 10
8.609843465
 20
5.912581731
 30
0.0
 11
8.6550173054
 21
5.8862650599
 31
0.0
  0
LINE
  5
197
330
1F
100
AcDbEntity
  8
TRDETAIL2
  6
HIDDEN
 62
     3
100
AcDbLine
 10
8.6550173054
 20
5.8862650599
 30
0.0
 11
8.6729228001
 21
5.8718297845
 31
0.0
  0
LINE
  5
198
330
1F
100
AcDbEntity
  8
TRDETAIL2
  6
HIDDEN
 62
     3
100
AcDbLine
 10
8.4564164491
 20
5.8718297845
 30
0.0
 11
8.5075511092
 21
5.9071656193
 31
0.0
  0
LINE
  5
199
330
1F
100
AcDbEntity
  8
TRDETAIL2
  6
HIDDEN
 62
     3
100
AcDbLine
 10
8.5075511092
 20
5.9071656193
 30
0.0
 11
8.5631422058
 21
5.9218190606
 31
0.0
  0
LINE
  5
19A
330
1F
100
AcDbEntity
  8
TRDETAIL2
  6
HIDDEN
 62
     3
100
AcDbLine
 10
8.5631422058
 20
5.9218190606
 30
0.0
 11
8.5646696246
 21
5.9218297845
 31
0.0
  0
LINE
  5
19B
330
1F
100
AcDbEntity
  8
TRDETAIL2
  6
HIDDEN
 62
     3
100
AcDbLine
 10
10.8314164491
 20
5.8718297845
 30
0.0
 11
10.8825511092
 21
5.9071656193
 31
0.0
  0
LINE
  5
19C
330
1F
100
AcDbEntity
  8
TRDETAIL2
  6
HIDDEN
 62
     3
100
AcDbLine
 10
10.8825511092
 20
5.9071656193
 30
0.0
 11
10.9381422058
 21
5.9218190606
 31
0.0
  0
LINE
  5
19D
330
1F
100
AcDbEntity
  8
TRDETAIL2
  6
HIDDEN
 62
     3
100
AcDbLine
 10
10.9381422058
 20
5.9218190606
 30
0.0
 11
10.9396696246
 21
5.9218297845
 31
0.0
  0
LINE
  5
19E
330
1F
100
AcDbEntity
  8
TRDETAIL2
  6
HIDDEN
 62
     3
100
AcDbLine
 10
10.9396696246
 20
5.9218297845
 30
0.0
 11
10.984843465
 21
5.912581731
 31
0.0
  0
LINE
  5
19F
330
1F
100
AcDbEntity
  8
TRDETAIL2
  6
HIDDEN
 62
     3
100
AcDbLine
 10
10.984843465
 20
5.912581731
 30
0.0
 11
11.0300173054
 21
5.8862650599
 31
0.0
  0
LINE
  5
1A0
330
1F
100
AcDbEntity
  8
TRDETAIL2
  6
HIDDEN
 62
     3
100
AcDbLine
 10
11.0300173054
 20
5.8862650599
 30
0.0
 11
11.0479228001
 21
5.8718297845
 31
0.0
  0
LINE
  5
1A1
330
1F
100
AcDbEntity
  8
TRDETAIL2
  6
HIDDEN
 62
     3
100
AcDbLine
 10
10.6149100982
 20
5.9218297845
 30
0.0
 11
10.6000355593
 21
5.9215756276
 31
0.0
  0
LINE
  5
1A2
330
1F
100
AcDbEntity
  8
TRDETAIL2
  6
HIDDEN
 62
     3
100
AcDbLine
 10
10.6000355593
 20
5.9215756276
 30
0.0
 11
10.5182301787
 21
5.9112612422
 31
0.0
  0
LINE
  5
1A3
330
1F
100
AcDbEntity
  8
TRDETAIL2
  6
HIDDEN
 62
     3
100
AcDbLine
 10
10.5182301787
 20
5.9112612422
 30
0.0
 11
10.4368923141
 21
5.8872607871
 31
0.0
  0
LINE
  5
1A4
330
1F
100
AcDbEntity
  8
TRDETAIL2
  6
HIDDEN
 62
     3
100
AcDbLine
 10
10.4368923141
 20
5.8872607871
 30
0.0
 11
10.3984037472
 21
5.8718297845
 31
0.0
  0
LINE
  5
1A5
330
1F
100
AcDbEntity
  8
TRDETAIL2
  6
HIDDEN
 62
     3
100
AcDbLine
 10
10.8314164491
 20
5.8718297845
 30
0.0
 11
10.7760635091
 21
5.8932489537
 31
0.0
  0
LINE
  5
1A6
330
1F
100
AcDbEntity
  8
TRDETAIL2
  6
HIDDEN
 62
     3
100
AcDbLine
 10
10.7760635091
 20
5.8932489537
 30
0.0
 11
10.6977011926
 21
5.9140466422
 31
0.0
  0
LINE
  5
1A7
330
1F
100
AcDbEntity
  8
TRDETAIL2
  6
HIDDEN
 62
     3
100
AcDbLine
 10
10.6977011926
 20
5.9140466422
 30
0.0
 11
10.6149100982
 21
5.9218297845
 31
0.0
  0
LINE
  5
1A8
330
1F
100
AcDbEntity
  8
TRDETAIL2
  6
HIDDEN
 62
     3
100
AcDbLine
 10
10.1818973963
 20
5.8718297845
 30
0.0
 11
10.2330320564
 21
5.9071656193
 31
0.0
  0
LINE
  5
1A9
330
1F
100
AcDbEntity
  8
TRDETAIL2
  6
HIDDEN
 62
     3
100
AcDbLine
 10
10.2330320564
 20
5.9071656193
 30
0.0
 11
10.288623153
 21
5.9218190606
 31
0.0
  0
LINE
  5
1AA
330
1F
100
AcDbEntity
  8
TRDETAIL2
  6
HIDDEN
 62
     3
100
AcDbLine
 10
10.288623153
 20
5.9218190606
 30
0.0
 11
10.2901505718
 21
5.9218297845
 31
0.0
  0
LINE
  5
1AB
330
1F
100
AcDbEntity
  8
TRDETAIL2
  6
HIDDEN
 62
     3
100
AcDbLine
 10
10.2901505718
 20
5.9218297845
 30
0.0
 11
10.3353244122
 21
5.912581731
 31
0.0
  0
LINE
  5
1AC
330
1F
100
AcDbEntity
  8
TRDETAIL2
  6
HIDDEN
 62
     3
100
AcDbLine
 10
10.3353244122
 20
5.912581731
 30
0.0
 11
10.3804982526
 21
5.8862650599
 31
0.0
  0
LINE
  5
1AD
330
1F
100
AcDbEntity
  8
TRDETAIL2
  6
HIDDEN
 62
     3
100
AcDbLine
 10
10.3804982526
 20
5.8862650599
 30
0.0
 11
10.3984037472
 21
5.8718297845
 31
0.0
  0
LINE
  5
1AE
330
1F
100
AcDbEntity
  8
TRDETAIL2
  6
HIDDEN
 62
     3
100
AcDbLine
 10
10.0839100982
 20
6.0168297845
 30
0.0
 11
10.0839100982
 21
5.9218297845
 31
0.0
  0
LINE
  5
1AF
330
1F
100
AcDbEntity
  8
TRDETAIL2
  6
HIDDEN
 62
     3
100
AcDbLine
 10
11.1459100982
 20
5.9218297845
 30
0.0
 11
11.1459100982
 21
6.0168297845
 31
0.0
  0
LINE
  5
1B0
330
1F
100
AcDbEntity
  8
TRDETAIL2
  6
HIDDEN
 62
     3
100
AcDbLine
 10
11.1459100982
 20
5.9218297845
 30
0.0
 11
10.8182393418
 21
5.9218297845
 31
0.0
  0
LINE
  5
1B1
330
1F
100
AcDbEntity
  8
TRDETAIL2
  6
HIDDEN
 62
     3
100
AcDbLine
 10
10.8182393418
 20
5.9218297845
 30
0.0
 11
10.0839100982
 21
5.9218297845
 31
0.0
  0
LINE
  5
1B2
330
1F
100
AcDbEntity
  8
TRDETAIL2
  6
HIDDEN
 62
     3
100
AcDbLine
 10
11.0479228001
 20
5.8718297845
 30
0.0
 11
10.9899100982
 21
5.9218297845
 31
0.0
  0
LINE
  5
1B3
330
1F
100
AcDbEntity
  8
TRDETAIL2
  6
HIDDEN
 62
     3
100
AcDbLine
 10
10.2399100982
 20
5.9218297845
 30
0.0
 11
10.1818973963
 21
5.8718297845
 31
0.0
  0
LINE
  5
1B4
330
1F
100
AcDbEntity
  8
TRMODEL1
  6
Continuous
 62
     2
100
AcDbLine
 10
8.3169188375
 20
8.3244296703
 30
0.0
 11
8.2583250875
 21
7.9728671703
 31
0.0
  0
LINE
  5
1B5
330
1F
100
AcDbEntity
  8
TRMODEL1
  6
Continuous
 62
     2
100
AcDbLine
 10
8.2583250875
 20
7.9728671703
 30
0.0
 11
8.1997313375
 21
8.3244296703
 31
0.0
  0
LINE
  5
1B6
330
1F
100
AcDbEntity
  8
TRMODEL1
  6
Continuous
 62
     2
100
AcDbLine
 10
8.1997313375
 20
8.3244296703
 30
0.0
 11
8.3169188375
 21
8.3244296703
 31
0.0
  0
LINE
  5
1B7
330
1F
100
AcDbEntity
  8
TRMODEL1
  6
Continuous
 62
     2
100
AcDbLine
 10
8.5049029404
 20
7.8508297845
 30
0.0
 11
8.6149100982
 21
7.8508297845
 31
0.0
  0
LINE
  5
1B8
330
1F
100
AcDbEntity
  8
TRMODEL1
  6
Continuous
 62
     2
100
AcDbLine
 10
8.6580954049
 20
7.8173361355
 30
0.0
 11
8.6307083227
 21
7.8416367648
 31
0.0
  0
LINE
  5
1B9
330
1F
100
AcDbEntity
  8
TRMODEL1
  6
Continuous
 62
     2
100
AcDbLine
 10
8.6307083227
 20
7.8416367648
 30
0.0
 11
8.6280813541
 21
7.8424837358
 31
0.0
  0
LINE
  5
1BA
330
1F
100
AcDbEntity
  8
TRMODEL1
  6
Continuous
 62
     2
100
AcDbLine
 10
8.6580954049
 20
7.4868297845
 30
0.0
 11
8.6580954049
 21
7.8173361355
 31
0.0
  0
LINE
  5
1BB
330
1F
100
AcDbEntity
  8
TRMODEL1
  6
Continuous
 62
     2
100
AcDbLine
 10
8.5049029404
 20
7.8508297845
 30
0.0
 11
8.5431298063
 21
7.8485944333
 31
0.0
  0
LINE
  5
1BC
330
1F
100
AcDbEntity
  8
TRMODEL1
  6
Continuous
 62
     2
100
AcDbLine
 10
8.5431298063
 20
7.8485944333
 30
0.0
 11
8.6580954049
 21
7.8173361355
 31
0.0
  0
LINE
  5
1BD
330
1F
100
AcDbEntity
  8
TRMODEL1
  6
Continuous
 62
     2
100
AcDbLine
 10
8.3517104758
 20
7.8173361355
 30
0.0
 11
8.386151026
 21
7.8301354738
 31
0.0
  0
LINE
  5
1BE
330
1F
100
AcDbEntity
  8
TRMODEL1
  6
Continuous
 62
     2
100
AcDbLine
 10
8.386151026
 20
7.8301354738
 30
0.0
 11
8.5049029404
 21
7.8508297845
 31
0.0
  0
LINE
  5
1BF
330
1F
100
AcDbEntity
  8
TRMODEL1
  6
Continuous
 62
     2
100
AcDbLine
 10
8.3517104758
 20
7.4868297845
 30
0.0
 11
8.3517104758
 21
7.8173361355
 31
0.0
  0
LINE
  5
1C0
330
1F
100
AcDbEntity
  8
TRMODEL1
  6
Continuous
 62
     2
100
AcDbLine
 10
8.6151399627
 20
7.4868297845
 30
0.0
 11
8.7709100982
 21
7.4868297845
 31
0.0
  0
LINE
  5
1C1
330
1F
100
AcDbEntity
  8
TRMODEL1
  6
Continuous
 62
     2
100
AcDbLine
 10
8.6284024852
 20
7.8430399513
 30
0.0
 11
8.6149100982
 21
7.8508297845
 31
0.0
  0
LINE
  5
1C2
330
1F
100
AcDbEntity
  8
TRMODEL1
  6
Continuous
 62
     2
100
AcDbLine
 10
8.7709100982
 20
7.3918297845
 30
0.0
 11
8.7709100982
 21
7.4868297845
 31
0.0
  0
LINE
  5
1C3
330
1F
100
AcDbEntity
  8
TRMODEL1
  6
Continuous
 62
     2
100
AcDbLine
 10
8.1426178224
 20
7.8508297845
 30
0.0
 11
7.8776249803
 21
7.8508297845
 31
0.0
  0
LINE
  5
1C4
330
1F
100
AcDbEntity
  8
TRMODEL1
  6
Continuous
 62
     2
100
AcDbLine
 10
7.8776249803
 20
7.8508297845
 30
0.0
 11
7.8816002653
 21
7.8506473754
 31
0.0
  0
LINE
  5
1C5
330
1F
100
AcDbEntity
  8
TRMODEL1
  6
Continuous
 62
     2
100
AcDbLine
 10
7.8816002653
 20
7.8506473754
 30
0.0
 11
7.9076036731
 21
7.8406891567
 31
0.0
  0
LINE
  5
1C6
330
1F
100
AcDbEntity
  8
TRMODEL1
  6
Continuous
 62
     2
100
AcDbLine
 10
7.9076036731
 20
7.8406891567
 30
0.0
 11
7.9335251691
 21
7.8173361355
 31
0.0
  0
LINE
  5
1C7
330
1F
100
AcDbEntity
  8
TRMODEL1
  6
Continuous
 62
     2
100
AcDbLine
 10
7.8776249803
 20
7.8508297845
 30
0.0
 11
7.8649100982
 21
7.8508297845
 31
0.0
  0
LINE
  5
1C8
330
1F
100
AcDbEntity
  8
TRMODEL1
  6
Continuous
 62
     2
100
AcDbLine
 10
7.8217247915
 20
7.8173361355
 30
0.0
 11
7.8491118737
 21
7.8416367648
 31
0.0
  0
LINE
  5
1C9
330
1F
100
AcDbEntity
  8
TRMODEL1
  6
Continuous
 62
     2
100
AcDbLine
 10
7.8491118737
 20
7.8416367648
 30
0.0
 11
7.8776249803
 21
7.8508297845
 31
0.0
  0
LINE
  5
1CA
330
1F
100
AcDbEntity
  8
TRMODEL1
  6
Continuous
 62
     2
100
AcDbLine
 10
7.8217247915
 20
7.4868297845
 30
0.0
 11
7.8217247915
 21
7.8173361355
 31
0.0
  0
LINE
  5
1CB
330
1F
100
AcDbEntity
  8
TRMODEL1
  6
Continuous
 62
     2
100
AcDbLine
 10
7.8649100982
 20
7.8508297845
 30
0.0
 11
7.8514177112
 21
7.8430399513
 31
0.0
  0
LINE
  5
1CC
330
1F
100
AcDbEntity
  8
TRMODEL1
  6
Continuous
 62
     2
100
AcDbLine
 10
7.7089100982
 20
7.4868297845
 30
0.0
 11
7.7089100982
 21
7.3918297845
 31
0.0
  0
LINE
  5
1CD
330
1F
100
AcDbEntity
  8
TRMODEL1
  6
Continuous
 62
     2
100
AcDbLine
 10
7.9335251691
 20
7.8173361355
 30
0.0
 11
8.035965569
 21
7.8416367648
 31
0.0
  0
LINE
  5
1CE
330
1F
100
AcDbEntity
  8
TRMODEL1
  6
Continuous
 62
     2
100
AcDbLine
 10
8.035965569
 20
7.8416367648
 30
0.0
 11
8.1426178224
 21
7.8508297845
 31
0.0
  0
LINE
  5
1CF
330
1F
100
AcDbEntity
  8
TRMODEL1
  6
Continuous
 62
     2
100
AcDbLine
 10
7.9335251691
 20
7.4868297845
 30
0.0
 11
7.9335251691
 21
7.8173361355
 31
0.0
  0
LINE
  5
1D0
330
1F
100
AcDbEntity
  8
TRMODEL1
  6
Continuous
 62
     2
100
AcDbLine
 10
7.7089100982
 20
7.4868297845
 30
0.0
 11
8.6151399627
 21
7.4868297845
 31
0.0
  0
LINE
  5
1D1
330
1F
100
AcDbEntity
  8
TRMODEL1
  6
Continuous
 62
     2
100
AcDbLine
 10
8.5049029404
 20
7.8508297845
 30
0.0
 11
8.1426178224
 21
7.8508297845
 31
0.0
  0
LINE
  5
1D2
330
1F
100
AcDbEntity
  8
TRMODEL1
  6
Continuous
 62
     2
100
AcDbLine
 10
8.1426178224
 20
7.8508297845
 30
0.0
 11
8.1574872336
 21
7.8506473754
 31
0.0
  0
LINE
  5
1D3
330
1F
100
AcDbEntity
  8
TRMODEL1
  6
Continuous
 62
     2
100
AcDbLine
 10
8.1574872336
 20
7.8506473754
 30
0.0
 11
8.2547520489
 21
7.8406891567
 31
0.0
  0
LINE
  5
1D4
330
1F
100
AcDbEntity
  8
TRMODEL1
  6
Continuous
 62
     2
100
AcDbLine
 10
8.2547520489
 20
7.8406891567
 30
0.0
 11
8.3517104758
 21
7.8173361355
 31
0.0
  0
LINE
  5
1D5
330
1F
100
AcDbEntity
  8
TRMODEL1
  6
Continuous
 62
     2
100
AcDbLine
 10
10.6851634756
 20
8.3960656355
 30
0.0
 11
10.6265697256
 21
8.0445031355
 31
0.0
  0
LINE
  5
1D6
330
1F
100
AcDbEntity
  8
TRMODEL1
  6
Continuous
 62
     2
100
AcDbLine
 10
10.6265697256
 20
8.0445031355
 30
0.0
 11
10.5679759756
 21
8.3960656355
 31
0.0
  0
LINE
  5
1D7
330
1F
100
AcDbEntity
  8
TRMODEL1
  6
Continuous
 62
     2
100
AcDbLine
 10
10.5679759756
 20
8.3960656355
 30
0.0
 11
10.6851634756
 21
8.3960656355
 31
0.0
  0
LINE
  5
1D8
330
1F
100
AcDbEntity
  8
TRMODEL1
  6
Continuous
 62
     2
100
AcDbLine
 10
10.2526249803
 20
7.8508297845
 30
0.0
 11
10.2399100982
 21
7.8508297845
 31
0.0
  0
LINE
  5
1D9
330
1F
100
AcDbEntity
  8
TRMODEL1
  6
Continuous
 62
     2
100
AcDbLine
 10
10.8799029404
 20
7.8508297845
 30
0.0
 11
10.9899100982
 21
7.8508297845
 31
0.0
  0
LINE
  5
1DA
330
1F
100
AcDbEntity
  8
TRMODEL1
  6
Continuous
 62
     2
100
AcDbLine
 10
11.0330954049
 20
7.8173361355
 30
0.0
 11
11.0057083227
 21
7.8416367648
 31
0.0
  0
LINE
  5
1DB
330
1F
100
AcDbEntity
  8
TRMODEL1
  6
Continuous
 62
     2
100
AcDbLine
 10
11.0057083227
 20
7.8416367648
 30
0.0
 11
11.0030813541
 21
7.8424837358
 31
0.0
  0
LINE
  5
1DC
330
1F
100
AcDbEntity
  8
TRMODEL1
  6
Continuous
 62
     2
100
AcDbLine
 10
10.1967247915
 20
7.8173361355
 30
0.0
 11
10.2241118737
 21
7.8416367648
 31
0.0
  0
LINE
  5
1DD
330
1F
100
AcDbEntity
  8
TRMODEL1
  6
Continuous
 62
     2
100
AcDbLine
 10
10.2241118737
 20
7.8416367648
 30
0.0
 11
10.2526249803
 21
7.8508297845
 31
0.0
  0
LINE
  5
1DE
330
1F
100
AcDbEntity
  8
TRMODEL1
  6
Continuous
 62
     2
100
AcDbLine
 10
10.1967247915
 20
7.4868297845
 30
0.0
 11
10.1967247915
 21
7.8173361355
 31
0.0
  0
LINE
  5
1DF
330
1F
100
AcDbEntity
  8
TRMODEL1
  6
Continuous
 62
     2
100
AcDbLine
 10
11.0330954049
 20
7.4868297845
 30
0.0
 11
11.0330954049
 21
7.8173361355
 31
0.0
  0
LINE
  5
1E0
330
1F
100
AcDbEntity
  8
TRMODEL1
  6
Continuous
 62
     2
100
AcDbLine
 10
10.8799029404
 20
7.8508297845
 30
0.0
 11
10.9181298063
 21
7.8485944333
 31
0.0
  0
LINE
  5
1E1
330
1F
100
AcDbEntity
  8
TRMODEL1
  6
Continuous
 62
     2
100
AcDbLine
 10
10.9181298063
 20
7.8485944333
 30
0.0
 11
11.0330954049
 21
7.8173361355
 31
0.0
  0
LINE
  5
1E2
330
1F
100
AcDbEntity
  8
TRMODEL1
  6
Continuous
 62
     2
100
AcDbLine
 10
10.5176178224
 20
7.8508297845
 30
0.0
 11
10.2526249803
 21
7.8508297845
 31
0.0
  0
LINE
  5
1E3
330
1F
100
AcDbEntity
  8
TRMODEL1
  6
Continuous
 62
     2
100
AcDbLine
 10
10.2526249803
 20
7.8508297845
 30
0.0
 11
10.2566002653
 21
7.8506473754
 31
0.0
  0
LINE
  5
1E4
330
1F
100
AcDbEntity
  8
TRMODEL1
  6
Continuous
 62
     2
100
AcDbLine
 10
10.2566002653
 20
7.8506473754
 30
0.0
 11
10.2826036731
 21
7.8406891567
 31
0.0
  0
LINE
  5
1E5
330
1F
100
AcDbEntity
  8
TRMODEL1
  6
Continuous
 62
     2
100
AcDbLine
 10
10.2826036731
 20
7.8406891567
 30
0.0
 11
10.3085251691
 21
7.8173361355
 31
0.0
  0
LINE
  5
1E6
330
1F
100
AcDbEntity
  8
TRMODEL1
  6
Continuous
 62
     2
100
AcDbLine
 10
10.8799029404
 20
7.8508297845
 30
0.0
 11
10.5176178224
 21
7.8508297845
 31
0.0
  0
LINE
  5
1E7
330
1F
100
AcDbEntity
  8
TRMODEL1
  6
Continuous
 62
     2
100
AcDbLine
 10
10.7267104758
 20
7.8173361355
 30
0.0
 11
10.761151026
 21
7.8301354738
 31
0.0
  0
LINE
  5
1E8
330
1F
100
AcDbEntity
  8
TRMODEL1
  6
Continuous
 62
     2
100
AcDbLine
 10
10.761151026
 20
7.8301354738
 30
0.0
 11
10.8799029404
 21
7.8508297845
 31
0.0
  0
LINE
  5
1E9
330
1F
100
AcDbEntity
  8
TRMODEL1
  6
Continuous
 62
     2
100
AcDbLine
 10
10.3085251691
 20
7.8173361355
 30
0.0
 11
10.410965569
 21
7.8416367648
 31
0.0
  0
LINE
  5
1EA
330
1F
100
AcDbEntity
  8
TRMODEL1
  6
Continuous
 62
     2
100
AcDbLine
 10
10.410965569
 20
7.8416367648
 30
0.0
 11
10.5176178224
 21
7.8508297845
 31
0.0
  0
LINE
  5
1EB
330
1F
100
AcDbEntity
  8
TRMODEL1
  6
Continuous
 62
     2
100
AcDbLine
 10
10.3085251691
 20
7.4868297845
 30
0.0
 11
10.3085251691
 21
7.8173361355
 31
0.0
  0
LINE
  5
1EC
330
1F
100
AcDbEntity
  8
TRMODEL1
  6
Continuous
 62
     2
100
AcDbLine
 10
10.7267104758
 20
7.4868297845
 30
0.0
 11
10.7267104758
 21
7.8173361355
 31
0.0
  0
LINE
  5
1ED
330
1F
100
AcDbEntity
  8
TRMODEL1
  6
Continuous
 62
     2
100
AcDbLine
 10
10.5176178224
 20
7.8508297845
 30
0.0
 11
10.5324872336
 21
7.8506473754
 31
0.0
  0
LINE
  5
1EE
330
1F
100
AcDbEntity
  8
TRMODEL1
  6
Continuous
 62
     2
100
AcDbLine
 10
10.5324872336
 20
7.8506473754
 30
0.0
 11
10.6297520489
 21
7.8406891567
 31
0.0
  0
LINE
  5
1EF
330
1F
100
AcDbEntity
  8
TRMODEL1
  6
Continuous
 62
     2
100
AcDbLine
 10
10.6297520489
 20
7.8406891567
 30
0.0
 11
10.7267104758
 21
7.8173361355
 31
0.0
  0
LINE
  5
1F0
330
1F
100
AcDbEntity
  8
TRMODEL1
  6
Continuous
 62
     2
100
AcDbLine
 10
10.0839100982
 20
7.4868297845
 30
0.0
 11
10.9901399627
 21
7.4868297845
 31
0.0
  0
LINE
  5
1F1
330
1F
100
AcDbEntity
  8
TRMODEL1
  6
Continuous
 62
     2
100
AcDbLine
 10
10.9901399627
 20
7.4868297845
 30
0.0
 11
11.1459100982
 21
7.4868297845
 31
0.0
  0
LINE
  5
1F2
330
1F
100
AcDbEntity
  8
TRMODEL1
  6
Continuous
 62
     2
100
AcDbLine
 10
10.2399100982
 20
7.8508297845
 30
0.0
 11
10.2264177112
 21
7.8430399513
 31
0.0
  0
LINE
  5
1F3
330
1F
100
AcDbEntity
  8
TRMODEL1
  6
Continuous
 62
     2
100
AcDbLine
 10
11.0034024852
 20
7.8430399513
 30
0.0
 11
10.9899100982
 21
7.8508297845
 31
0.0
  0
LINE
  5
1F4
330
1F
100
AcDbEntity
  8
TRMODEL1
  6
Continuous
 62
     2
100
AcDbLine
 10
11.1459100982
 20
7.3918297845
 30
0.0
 11
11.1459100982
 21
7.4868297845
 31
0.0
  0
LINE
  5
1F5
330
1F
100
AcDbEntity
  8
TRMODEL1
  6
Continuous
 62
     2
100
AcDbLine
 10
10.0839100982
 20
7.4868297845
 30
0.0
 11
10.0839100982
 21
7.3918297845
 31
0.0
  0
LINE
  5
1F6
330
1F
100
AcDbEntity
  8
TRMODEL1
  6
Continuous
 62
     2
100
AcDbLine
 10
17.6174744643
 20
6.8918297845
 30
0.0
 11
18.1174744643
 21
7.3918297845
 31
0.0
  0
LINE
  5
1F7
330
1F
100
AcDbEntity
  8
TRMODEL1
  6
Continuous
 62
     2
100
AcDbLine
 10
17.440697769
 20
6.8918297845
 30
0.0
 11
17.940697769
 21
7.3918297845
 31
0.0
  0
LINE
  5
1F8
330
1F
100
AcDbEntity
  8
TRMODEL1
  6
Continuous
 62
     2
100
AcDbLine
 10
17.2639210737
 20
6.8918297845
 30
0.0
 11
17.7639210737
 21
7.3918297845
 31
0.0
  0
LINE
  5
1F9
330
1F
100
AcDbEntity
  8
TRMODEL1
  6
Continuous
 62
     2
100
AcDbLine
 10
17.0871443784
 20
6.8918297845
 30
0.0
 11
17.5871443784
 21
7.3918297845
 31
0.0
  0
LINE
  5
1FA
330
1F
100
AcDbEntity
  8
TRMODEL1
  6
Continuous
 62
     2
100
AcDbLine
 10
16.9103676831
 20
6.8918297845
 30
0.0
 11
17.4103676831
 21
7.3918297845
 31
0.0
  0
LINE
  5
1FB
330
1F
100
AcDbEntity
  8
TRMODEL1
  6
Continuous
 62
     2
100
AcDbLine
 10
16.7335909878
 20
6.8918297845
 30
0.0
 11
17.2335909878
 21
7.3918297845
 31
0.0
  0
LINE
  5
1FC
330
1F
100
AcDbEntity
  8
TRMODEL1
  6
Continuous
 62
     2
100
AcDbLine
 10
16.5568142925
 20
6.8918297845
 30
0.0
 11
17.0568142925
 21
7.3918297845
 31
0.0
  0
LINE
  5
1FD
330
1F
100
AcDbEntity
  8
TRMODEL1
  6
Continuous
 62
     2
100
AcDbLine
 10
16.3800375972
 20
6.8918297845
 30
0.0
 11
16.8800375972
 21
7.3918297845
 31
0.0
  0
LINE
  5
1FE
330
1F
100
AcDbEntity
  8
TRMODEL1
  6
Continuous
 62
     2
100
AcDbLine
 10
16.2032609019
 20
6.8918297845
 30
0.0
 11
16.7032609019
 21
7.3918297845
 31
0.0
  0
LINE
  5
1FF
330
1F
100
AcDbEntity
  8
TRMODEL1
  6
Continuous
 62
     2
100
AcDbLine
 10
16.0264842066
 20
6.8918297845
 30
0.0
 11
16.5264842066
 21
7.3918297845
 31
0.0
  0
LINE
  5
200
330
1F
100
AcDbEntity
  8
TRMODEL1
  6
Continuous
 62
     2
100
AcDbLine
 10
15.8497075113
 20
6.8918297845
 30
0.0
 11
16.3497075113
 21
7.3918297845
 31
0.0
  0
LINE
  5
201
330
1F
100
AcDbEntity
  8
TRMODEL1
  6
Continuous
 62
     2
100
AcDbLine
 10
15.672930816
 20
6.8918297845
 30
0.0
 11
16.172930816
 21
7.3918297845
 31
0.0
  0
LINE
  5
202
330
1F
100
AcDbEntity
  8
TRMODEL1
  6
Continuous
 62
     2
100
AcDbLine
 10
15.4961541207
 20
6.8918297845
 30
0.0
 11
15.9961541207
 21
7.3918297845
 31
0.0
  0
LINE
  5
203
330
1F
100
AcDbEntity
  8
TRMODEL1
  6
Continuous
 62
     2
100
AcDbLine
 10
15.3193774254
 20
6.8918297845
 30
0.0
 11
15.8193774254
 21
7.3918297845
 31
0.0
  0
LINE
  5
204
330
1F
100
AcDbEntity
  8
TRMODEL1
  6
Continuous
 62
     2
100
AcDbLine
 10
15.1426007301
 20
6.8918297845
 30
0.0
 11
15.6426007301
 21
7.3918297845
 31
0.0
  0
LINE
  5
205
330
1F
100
AcDbEntity
  8
TRMODEL1
  6
Continuous
 62
     2
100
AcDbLine
 10
14.9658240348
 20
6.8918297845
 30
0.0
 11
15.4658240348
 21
7.3918297845
 31
0.0
  0
LINE
  5
206
330
1F
100
AcDbEntity
  8
TRMODEL1
  6
Continuous
 62
     2
100
AcDbLine
 10
14.7890473395
 20
6.8918297845
 30
0.0
 11
15.2890473395
 21
7.3918297845
 31
0.0
  0
LINE
  5
207
330
1F
100
AcDbEntity
  8
TRMODEL1
  6
Continuous
 62
     2
100
AcDbLine
 10
14.6122706442
 20
6.8918297845
 30
0.0
 11
15.1122706442
 21
7.3918297845
 31
0.0
  0
LINE
  5
208
330
1F
100
AcDbEntity
  8
TRMODEL1
  6
Continuous
 62
     2
100
AcDbLine
 10
14.4354939489
 20
6.8918297845
 30
0.0
 11
14.9354939489
 21
7.3918297845
 31
0.0
  0
LINE
  5
209
330
1F
100
AcDbEntity
  8
TRMODEL1
  6
Continuous
 62
     2
100
AcDbLine
 10
14.2587172536
 20
6.8918297845
 30
0.0
 11
14.7587172536
 21
7.3918297845
 31
0.0
  0
LINE
  5
20A
330
1F
100
AcDbEntity
  8
TRMODEL1
  6
Continuous
 62
     2
100
AcDbLine
 10
14.0819405583
 20
6.8918297845
 30
0.0
 11
14.5819405583
 21
7.3918297845
 31
0.0
  0
LINE
  5
20B
330
1F
100
AcDbEntity
  8
TRMODEL1
  6
Continuous
 62
     2
100
AcDbLine
 10
13.905163863
 20
6.8918297845
 30
0.0
 11
14.405163863
 21
7.3918297845
 31
0.0
  0
LINE
  5
20C
330
1F
100
AcDbEntity
  8
TRMODEL1
  6
Continuous
 62
     2
100
AcDbLine
 10
13.7283871677
 20
6.8918297845
 30
0.0
 11
14.2283871677
 21
7.3918297845
 31
0.0
  0
LINE
  5
20D
330
1F
100
AcDbEntity
  8
TRMODEL1
  6
Continuous
 62
     2
100
AcDbLine
 10
13.5516104724
 20
6.8918297845
 30
0.0
 11
14.0516104724
 21
7.3918297845
 31
0.0
  0
LINE
  5
20E
330
1F
100
AcDbEntity
  8
TRMODEL1
  6
Continuous
 62
     2
100
AcDbLine
 10
13.3748337771
 20
6.8918297845
 30
0.0
 11
13.8748337771
 21
7.3918297845
 31
0.0
  0
LINE
  5
20F
330
1F
100
AcDbEntity
  8
TRMODEL1
  6
Continuous
 62
     2
100
AcDbLine
 10
13.1980570818
 20
6.8918297845
 30
0.0
 11
13.6980570818
 21
7.3918297845
 31
0.0
  0
LINE
  5
210
330
1F
100
AcDbEntity
  8
TRMODEL1
  6
Continuous
 62
     2
100
AcDbLine
 10
13.0212803866
 20
6.8918297845
 30
0.0
 11
13.5212803866
 21
7.3918297845
 31
0.0
  0
LINE
  5
211
330
1F
100
AcDbEntity
  8
TRMODEL1
  6
Continuous
 62
     2
100
AcDbLine
 10
12.8445036913
 20
6.8918297845
 30
0.0
 11
13.3445036913
 21
7.3918297845
 31
0.0
  0
LINE
  5
212
330
1F
100
AcDbEntity
  8
TRMODEL1
  6
Continuous
 62
     2
100
AcDbLine
 10
12.667726996
 20
6.8918297845
 30
0.0
 11
13.167726996
 21
7.3918297845
 31
0.0
  0
LINE
  5
213
330
1F
100
AcDbEntity
  8
TRMODEL1
  6
Continuous
 62
     2
100
AcDbLine
 10
12.4909503007
 20
6.8918297845
 30
0.0
 11
12.9909503007
 21
7.3918297845
 31
0.0
  0
LINE
  5
214
330
1F
100
AcDbEntity
  8
TRDETAIL2
  6
HIDDEN
 62
     3
100
AcDbLine
 10
15.1615808546
 20
5.9218297845
 30
0.0
 11
15.8959100982
 21
5.9218297845
 31
0.0
  0
LINE
  5
215
330
1F
100
AcDbEntity
  8
TRDETAIL2
  6
HIDDEN
 62
     3
100
AcDbLine
 10
15.1484037472
 20
5.8718297845
 30
0.0
 11
15.2037566873
 21
5.8932489537
 31
0.0
  0
LINE
  5
216
330
1F
100
AcDbEntity
  8
TRDETAIL2
  6
HIDDEN
 62
     3
100
AcDbLine
 10
15.2037566873
 20
5.8932489537
 30
0.0
 11
15.2821190038
 21
5.9140466422
 31
0.0
  0
LINE
  5
217
330
1F
100
AcDbEntity
  8
TRDETAIL2
  6
HIDDEN
 62
     3
100
AcDbLine
 10
15.2821190038
 20
5.9140466422
 30
0.0
 11
15.3649100982
 21
5.9218297845
 31
0.0
  0
LINE
  5
218
330
1F
100
AcDbEntity
  8
TRMODEL1
  6
Continuous
 62
     2
100
AcDbLine
 10
13.030163863
 20
6.0168297845
 30
0.0
 11
13.1149100982
 21
6.1015760197
 31
0.0
  0
LINE
  5
219
330
1F
100
AcDbEntity
  8
TRMODEL1
  6
Continuous
 62
     2
100
AcDbLine
 10
12.8649100982
 20
6.028352715
 30
0.0
 11
13.1149100982
 21
6.278352715
 31
0.0
  0
LINE
  5
21A
330
1F
100
AcDbEntity
  8
TRMODEL1
  6
Continuous
 62
     2
100
AcDbLine
 10
12.8649100982
 20
6.2051294103
 30
0.0
 11
13.1149100982
 21
6.4551294103
 31
0.0
  0
LINE
  5
21B
330
1F
100
AcDbEntity
  8
TRMODEL1
  6
Continuous
 62
     2
100
AcDbLine
 10
12.8649100982
 20
6.3819061056
 30
0.0
 11
12.9998337771
 21
6.5168297845
 31
0.0
  0
LINE
  5
21C
330
1F
100
AcDbEntity
  8
TRMODEL1
  6
Continuous
 62
     2
100
AcDbLine
 10
13.1149100982
 20
6.8175844315
 30
0.0
 11
13.0406647451
 21
6.8918297845
 31
0.0
  0
LINE
  5
21D
330
1F
100
AcDbEntity
  8
TRMODEL1
  6
Continuous
 62
     2
100
AcDbLine
 10
13.1149100982
 20
6.6408077362
 30
0.0
 11
12.8649100982
 21
6.8908077362
 31
0.0
  0
LINE
  5
21E
330
1F
100
AcDbEntity
  8
TRMODEL1
  6
Continuous
 62
     2
100
AcDbLine
 10
13.0621113545
 20
6.5168297845
 30
0.0
 11
12.8649100982
 21
6.7140310409
 31
0.0
  0
LINE
  5
21F
330
1F
100
AcDbEntity
  8
TRMODEL1
  6
Continuous
 62
     2
100
AcDbLine
 10
12.8853346592
 20
6.5168297845
 30
0.0
 11
12.8649100982
 21
6.5372543456
 31
0.0
  0
LINE
  5
220
330
1F
100
AcDbEntity
  8
TRDETAIL2
  6
HIDDEN
 62
     3
100
AcDbLine
 10
14.9318973963
 20
5.8718297845
 30
0.0
 11
14.9899100982
 21
5.9218297845
 31
0.0
  0
LINE
  5
221
330
1F
100
AcDbEntity
  8
TRDETAIL2
  6
HIDDEN
 62
     3
100
AcDbLine
 10
14.8339100982
 20
5.9218297845
 30
0.0
 11
15.1615808546
 21
5.9218297845
 31
0.0
  0
LINE
  5
222
330
1F
100
AcDbEntity
  8
TRDETAIL2
  6
HIDDEN
 62
     3
100
AcDbLine
 10
14.8339100982
 20
5.9218297845
 30
0.0
 11
14.8339100982
 21
6.0168297845
 31
0.0
  0
LINE
  5
223
330
1F
100
AcDbEntity
  8
TRDETAIL2
  6
HIDDEN
 62
     3
100
AcDbLine
 10
15.0401505718
 20
5.9218297845
 30
0.0
 11
14.9949767314
 21
5.912581731
 31
0.0
  0
LINE
  5
224
330
1F
100
AcDbEntity
  8
TRDETAIL2
  6
HIDDEN
 62
     3
100
AcDbLine
 10
14.9949767314
 20
5.912581731
 30
0.0
 11
14.949802891
 21
5.8862650599
 31
0.0
  0
LINE
  5
225
330
1F
100
AcDbEntity
  8
TRDETAIL2
  6
HIDDEN
 62
     3
100
AcDbLine
 10
14.949802891
 20
5.8862650599
 30
0.0
 11
14.9318973963
 21
5.8718297845
 31
0.0
  0
LINE
  5
226
330
1F
100
AcDbEntity
  8
TRDETAIL2
  6
HIDDEN
 62
     3
100
AcDbLine
 10
15.1484037472
 20
5.8718297845
 30
0.0
 11
15.0972690871
 21
5.9071656193
 31
0.0
  0
LINE
  5
227
330
1F
100
AcDbEntity
  8
TRDETAIL2
  6
HIDDEN
 62
     3
100
AcDbLine
 10
15.0972690871
 20
5.9071656193
 30
0.0
 11
15.0416779906
 21
5.9218190606
 31
0.0
  0
LINE
  5
228
330
1F
100
AcDbEntity
  8
TRDETAIL2
  6
HIDDEN
 62
     3
100
AcDbLine
 10
15.0416779906
 20
5.9218190606
 30
0.0
 11
15.0401505718
 21
5.9218297845
 31
0.0
  0
LINE
  5
229
330
1F
100
AcDbEntity
  8
TRMODEL1
  6
Continuous
 62
     4
100
AcDbLine
 10
12.8649100982
 20
6.0168297845
 30
0.0
 11
13.1149100982
 21
6.0168297845
 31
0.0
  0
LINE
  5
22A
330
1F
100
AcDbEntity
  8
TRMODEL1
  6
Continuous
 62
     4
100
AcDbLine
 10
12.8649100982
 20
6.5168297845
 30
0.0
 11
13.1149100982
 21
6.5168297845
 31
0.0
  0
LINE
  5
22B
330
1F
100
AcDbEntity
  8
TRDETAIL2
  6
HIDDEN
 62
     3
100
AcDbLine
 10
15.7399100982
 20
5.9218297845
 30
0.0
 11
15.7979228001
 21
5.8718297845
 31
0.0
  0
LINE
  5
22C
330
1F
100
AcDbEntity
  8
TRDETAIL2
  6
HIDDEN
 62
     3
100
AcDbLine
 10
15.8959100982
 20
6.0168297845
 30
0.0
 11
15.8959100982
 21
5.9218297845
 31
0.0
  0
LINE
  5
22D
330
1F
100
AcDbEntity
  8
TRDETAIL2
  6
HIDDEN
 62
     3
100
AcDbLine
 10
15.6896696246
 20
5.9218297845
 30
0.0
 11
15.6444957842
 21
5.912581731
 31
0.0
  0
LINE
  5
22E
330
1F
100
AcDbEntity
  8
TRDETAIL2
  6
HIDDEN
 62
     3
100
AcDbLine
 10
15.6444957842
 20
5.912581731
 30
0.0
 11
15.5993219438
 21
5.8862650599
 31
0.0
  0
LINE
  5
22F
330
1F
100
AcDbEntity
  8
TRDETAIL2
  6
HIDDEN
 62
     3
100
AcDbLine
 10
15.5993219438
 20
5.8862650599
 30
0.0
 11
15.5814164491
 21
5.8718297845
 31
0.0
  0
LINE
  5
230
330
1F
100
AcDbEntity
  8
TRDETAIL2
  6
HIDDEN
 62
     3
100
AcDbLine
 10
15.7979228001
 20
5.8718297845
 30
0.0
 11
15.74678814
 21
5.9071656193
 31
0.0
  0
LINE
  5
231
330
1F
100
AcDbEntity
  8
TRDETAIL2
  6
HIDDEN
 62
     3
100
AcDbLine
 10
15.74678814
 20
5.9071656193
 30
0.0
 11
15.6911970434
 21
5.9218190606
 31
0.0
  0
LINE
  5
232
330
1F
100
AcDbEntity
  8
TRDETAIL2
  6
HIDDEN
 62
     3
100
AcDbLine
 10
15.6911970434
 20
5.9218190606
 30
0.0
 11
15.6896696246
 21
5.9218297845
 31
0.0
  0
LINE
  5
233
330
1F
100
AcDbEntity
  8
TRDETAIL2
  6
HIDDEN
 62
     3
100
AcDbLine
 10
15.3649100982
 20
5.9218297845
 30
0.0
 11
15.3797846371
 21
5.9215756276
 31
0.0
  0
LINE
  5
234
330
1F
100
AcDbEntity
  8
TRDETAIL2
  6
HIDDEN
 62
     3
100
AcDbLine
 10
15.3797846371
 20
5.9215756276
 30
0.0
 11
15.4615900177
 21
5.9112612422
 31
0.0
  0
LINE
  5
235
330
1F
100
AcDbEntity
  8
TRDETAIL2
  6
HIDDEN
 62
     3
100
AcDbLine
 10
15.4615900177
 20
5.9112612422
 30
0.0
 11
15.5429278823
 21
5.8872607871
 31
0.0
  0
LINE
  5
236
330
1F
100
AcDbEntity
  8
TRDETAIL2
  6
HIDDEN
 62
     3
100
AcDbLine
 10
15.5429278823
 20
5.8872607871
 30
0.0
 11
15.5814164491
 21
5.8718297845
 31
0.0
  0
LINE
  5
237
330
1F
100
AcDbEntity
  8
TRDETAIL2
  6
HIDDEN
 62
     3
100
AcDbLine
 10
17.5234037472
 20
5.8718297845
 30
0.0
 11
17.4722690871
 21
5.9071656193
 31
0.0
  0
LINE
  5
238
330
1F
100
AcDbEntity
  8
TRDETAIL2
  6
HIDDEN
 62
     3
100
AcDbLine
 10
17.4722690871
 20
5.9071656193
 30
0.0
 11
17.4166779906
 21
5.9218190606
 31
0.0
  0
LINE
  5
239
330
1F
100
AcDbEntity
  8
TRDETAIL2
  6
HIDDEN
 62
     3
100
AcDbLine
 10
17.4166779906
 20
5.9218190606
 30
0.0
 11
17.4151505718
 21
5.9218297845
 31
0.0
  0
LINE
  5
23A
330
1F
100
AcDbEntity
  8
TRDETAIL2
  6
HIDDEN
 62
     3
100
AcDbLine
 10
17.4151505718
 20
5.9218297845
 30
0.0
 11
17.3699767314
 21
5.912581731
 31
0.0
  0
LINE
  5
23B
330
1F
100
AcDbEntity
  8
TRDETAIL2
  6
HIDDEN
 62
     3
100
AcDbLine
 10
17.3699767314
 20
5.912581731
 30
0.0
 11
17.324802891
 21
5.8862650599
 31
0.0
  0
LINE
  5
23C
330
1F
100
AcDbEntity
  8
TRDETAIL2
  6
HIDDEN
 62
     3
100
AcDbLine
 10
17.324802891
 20
5.8862650599
 30
0.0
 11
17.3068973963
 21
5.8718297845
 31
0.0
  0
LINE
  5
23D
330
1F
100
AcDbEntity
  8
TRDETAIL2
  6
HIDDEN
 62
     3
100
AcDbLine
 10
17.7399100982
 20
5.9218297845
 30
0.0
 11
17.7547846371
 21
5.9215756276
 31
0.0
  0
LINE
  5
23E
330
1F
100
AcDbEntity
  8
TRDETAIL2
  6
HIDDEN
 62
     3
100
AcDbLine
 10
17.7547846371
 20
5.9215756276
 30
0.0
 11
17.8365900177
 21
5.9112612422
 31
0.0
  0
LINE
  5
23F
330
1F
100
AcDbEntity
  8
TRDETAIL2
  6
HIDDEN
 62
     3
100
AcDbLine
 10
17.8365900177
 20
5.9112612422
 30
0.0
 11
17.9179278823
 21
5.8872607871
 31
0.0
  0
LINE
  5
240
330
1F
100
AcDbEntity
  8
TRDETAIL2
  6
HIDDEN
 62
     3
100
AcDbLine
 10
17.9179278823
 20
5.8872607871
 30
0.0
 11
17.9564164491
 21
5.8718297845
 31
0.0
  0
LINE
  5
241
330
1F
100
AcDbEntity
  8
TRDETAIL2
  6
HIDDEN
 62
     3
100
AcDbLine
 10
17.5234037472
 20
5.8718297845
 30
0.0
 11
17.5787566873
 21
5.8932489537
 31
0.0
  0
LINE
  5
242
330
1F
100
AcDbEntity
  8
TRDETAIL2
  6
HIDDEN
 62
     3
100
AcDbLine
 10
17.5787566873
 20
5.8932489537
 30
0.0
 11
17.6571190038
 21
5.9140466422
 31
0.0
  0
LINE
  5
243
330
1F
100
AcDbEntity
  8
TRDETAIL2
  6
HIDDEN
 62
     3
100
AcDbLine
 10
17.6571190038
 20
5.9140466422
 30
0.0
 11
17.7399100982
 21
5.9218297845
 31
0.0
  0
LINE
  5
244
330
1F
100
AcDbEntity
  8
TRDETAIL2
  6
HIDDEN
 62
     3
100
AcDbLine
 10
18.1729228001
 20
5.8718297845
 30
0.0
 11
18.12178814
 21
5.9071656193
 31
0.0
  0
LINE
  5
245
330
1F
100
AcDbEntity
  8
TRDETAIL2
  6
HIDDEN
 62
     3
100
AcDbLine
 10
18.12178814
 20
5.9071656193
 30
0.0
 11
18.0661970434
 21
5.9218190606
 31
0.0
  0
LINE
  5
246
330
1F
100
AcDbEntity
  8
TRDETAIL2
  6
HIDDEN
 62
     3
100
AcDbLine
 10
18.0661970434
 20
5.9218190606
 30
0.0
 11
18.0646696246
 21
5.9218297845
 31
0.0
  0
LINE
  5
247
330
1F
100
AcDbEntity
  8
TRDETAIL2
  6
HIDDEN
 62
     3
100
AcDbLine
 10
18.0646696246
 20
5.9218297845
 30
0.0
 11
18.0194957842
 21
5.912581731
 31
0.0
  0
LINE
  5
248
330
1F
100
AcDbEntity
  8
TRDETAIL2
  6
HIDDEN
 62
     3
100
AcDbLine
 10
18.0194957842
 20
5.912581731
 30
0.0
 11
17.9743219438
 21
5.8862650599
 31
0.0
  0
LINE
  5
249
330
1F
100
AcDbEntity
  8
TRDETAIL2
  6
HIDDEN
 62
     3
100
AcDbLine
 10
17.9743219438
 20
5.8862650599
 30
0.0
 11
17.9564164491
 21
5.8718297845
 31
0.0
  0
LINE
  5
24A
330
1F
100
AcDbEntity
  8
TRDETAIL2
  6
HIDDEN
 62
     3
100
AcDbLine
 10
17.2089100982
 20
5.9218297845
 30
0.0
 11
17.2089100982
 21
6.0168297845
 31
0.0
  0
LINE
  5
24B
330
1F
100
AcDbEntity
  8
TRDETAIL2
  6
HIDDEN
 62
     3
100
AcDbLine
 10
17.2089100982
 20
5.9218297845
 30
0.0
 11
17.5365808546
 21
5.9218297845
 31
0.0
  0
LINE
  5
24C
330
1F
100
AcDbEntity
  8
TRDETAIL2
  6
HIDDEN
 62
     3
100
AcDbLine
 10
17.3068973963
 20
5.8718297845
 30
0.0
 11
17.3649100982
 21
5.9218297845
 31
0.0
  0
LINE
  5
24D
330
1F
100
AcDbEntity
  8
TRDETAIL2
  6
HIDDEN
 62
     3
100
AcDbLine
 10
18.1149100982
 20
5.9218297845
 30
0.0
 11
18.1729228001
 21
5.8718297845
 31
0.0
  0
LINE
  5
24E
330
1F
100
AcDbEntity
  8
TRMODEL1
  6
Continuous
 62
     2
100
AcDbLine
 10
15.8959100982
 20
7.4868297845
 30
0.0
 11
14.9896802337
 21
7.4868297845
 31
0.0
  0
LINE
  5
24F
330
1F
100
AcDbEntity
  8
TRMODEL1
  6
Continuous
 62
     2
100
AcDbLine
 10
15.462202374
 20
7.8508297845
 30
0.0
 11
15.4473329628
 21
7.8506473754
 31
0.0
  0
LINE
  5
250
330
1F
100
AcDbEntity
  8
TRMODEL1
  6
Continuous
 62
     2
100
AcDbLine
 10
15.4473329628
 20
7.8506473754
 30
0.0
 11
15.3500681475
 21
7.8406891567
 31
0.0
  0
LINE
  5
251
330
1F
100
AcDbEntity
  8
TRMODEL1
  6
Continuous
 62
     2
100
AcDbLine
 10
15.3500681475
 20
7.8406891567
 30
0.0
 11
15.2531097206
 21
7.8173361355
 31
0.0
  0
LINE
  5
252
330
1F
100
AcDbEntity
  8
TRMODEL1
  6
Continuous
 62
     2
100
AcDbLine
 10
15.099917256
 20
7.8508297845
 30
0.0
 11
15.462202374
 21
7.8508297845
 31
0.0
  0
LINE
  5
253
330
1F
100
AcDbEntity
  8
TRMODEL1
  6
Continuous
 62
     2
100
AcDbLine
 10
14.8339100982
 20
7.3918297845
 30
0.0
 11
14.8339100982
 21
7.4868297845
 31
0.0
  0
LINE
  5
254
330
1F
100
AcDbEntity
  8
TRMODEL1
  6
Continuous
 62
     2
100
AcDbLine
 10
14.9764177112
 20
7.8430399513
 30
0.0
 11
14.9899100982
 21
7.8508297845
 31
0.0
  0
LINE
  5
255
330
1F
100
AcDbEntity
  8
TRMODEL1
  6
Continuous
 62
     2
100
AcDbLine
 10
14.9896802337
 20
7.4868297845
 30
0.0
 11
14.8339100982
 21
7.4868297845
 31
0.0
  0
LINE
  5
256
330
1F
100
AcDbEntity
  8
TRMODEL1
  6
Continuous
 62
     2
100
AcDbLine
 10
15.2531097206
 20
7.4868297845
 30
0.0
 11
15.2531097206
 21
7.8173361355
 31
0.0
  0
LINE
  5
257
330
1F
100
AcDbEntity
  8
TRMODEL1
  6
Continuous
 62
     2
100
AcDbLine
 10
15.2531097206
 20
7.8173361355
 30
0.0
 11
15.2186691704
 21
7.8301354738
 31
0.0
  0
LINE
  5
258
330
1F
100
AcDbEntity
  8
TRMODEL1
  6
Continuous
 62
     2
100
AcDbLine
 10
15.2186691704
 20
7.8301354738
 30
0.0
 11
15.099917256
 21
7.8508297845
 31
0.0
  0
LINE
  5
259
330
1F
100
AcDbEntity
  8
TRMODEL1
  6
Continuous
 62
     2
100
AcDbLine
 10
15.099917256
 20
7.8508297845
 30
0.0
 11
15.0616903901
 21
7.8485944333
 31
0.0
  0
LINE
  5
25A
330
1F
100
AcDbEntity
  8
TRMODEL1
  6
Continuous
 62
     2
100
AcDbLine
 10
15.0616903901
 20
7.8485944333
 30
0.0
 11
14.9467247915
 21
7.8173361355
 31
0.0
  0
LINE
  5
25B
330
1F
100
AcDbEntity
  8
TRMODEL1
  6
Continuous
 62
     2
100
AcDbLine
 10
14.9467247915
 20
7.4868297845
 30
0.0
 11
14.9467247915
 21
7.8173361355
 31
0.0
  0
LINE
  5
25C
330
1F
100
AcDbEntity
  8
TRMODEL1
  6
Continuous
 62
     2
100
AcDbLine
 10
14.9467247915
 20
7.8173361355
 30
0.0
 11
14.9741118737
 21
7.8416367648
 31
0.0
  0
LINE
  5
25D
330
1F
100
AcDbEntity
  8
TRMODEL1
  6
Continuous
 62
     2
100
AcDbLine
 10
14.9741118737
 20
7.8416367648
 30
0.0
 11
14.9767388423
 21
7.8424837358
 31
0.0
  0
LINE
  5
25E
330
1F
100
AcDbEntity
  8
TRMODEL1
  6
Continuous
 62
     2
100
AcDbLine
 10
15.099917256
 20
7.8508297845
 30
0.0
 11
14.9899100982
 21
7.8508297845
 31
0.0
  0
LINE
  5
25F
330
1F
100
AcDbEntity
  8
TRMODEL1
  6
Continuous
 62
     2
100
AcDbLine
 10
15.8959100982
 20
7.4868297845
 30
0.0
 11
15.8959100982
 21
7.3918297845
 31
0.0
  0
LINE
  5
260
330
1F
100
AcDbEntity
  8
TRMODEL1
  6
Continuous
 62
     2
100
AcDbLine
 10
15.7399100982
 20
7.8508297845
 30
0.0
 11
15.7534024852
 21
7.8430399513
 31
0.0
  0
LINE
  5
261
330
1F
100
AcDbEntity
  8
TRMODEL1
  6
Continuous
 62
     2
100
AcDbLine
 10
15.6712950273
 20
7.4868297845
 30
0.0
 11
15.6712950273
 21
7.8173361355
 31
0.0
  0
LINE
  5
262
330
1F
100
AcDbEntity
  8
TRMODEL1
  6
Continuous
 62
     2
100
AcDbLine
 10
15.6712950273
 20
7.8173361355
 30
0.0
 11
15.5688546274
 21
7.8416367648
 31
0.0
  0
LINE
  5
263
330
1F
100
AcDbEntity
  8
TRMODEL1
  6
Continuous
 62
     2
100
AcDbLine
 10
15.5688546274
 20
7.8416367648
 30
0.0
 11
15.462202374
 21
7.8508297845
 31
0.0
  0
LINE
  5
264
330
1F
100
AcDbEntity
  8
TRMODEL1
  6
Continuous
 62
     2
100
AcDbLine
 10
15.7271952161
 20
7.8508297845
 30
0.0
 11
15.7232199311
 21
7.8506473754
 31
0.0
  0
LINE
  5
265
330
1F
100
AcDbEntity
  8
TRMODEL1
  6
Continuous
 62
     2
100
AcDbLine
 10
15.7232199311
 20
7.8506473754
 30
0.0
 11
15.6972165233
 21
7.8406891567
 31
0.0
  0
LINE
  5
266
330
1F
100
AcDbEntity
  8
TRMODEL1
  6
Continuous
 62
     2
100
AcDbLine
 10
15.6972165233
 20
7.8406891567
 30
0.0
 11
15.6712950273
 21
7.8173361355
 31
0.0
  0
LINE
  5
267
330
1F
100
AcDbEntity
  8
TRMODEL1
  6
Continuous
 62
     2
100
AcDbLine
 10
15.462202374
 20
7.8508297845
 30
0.0
 11
15.7271952161
 21
7.8508297845
 31
0.0
  0
LINE
  5
268
330
1F
100
AcDbEntity
  8
TRMODEL1
  6
Continuous
 62
     2
100
AcDbLine
 10
15.7830954049
 20
7.4868297845
 30
0.0
 11
15.7830954049
 21
7.8173361355
 31
0.0
  0
LINE
  5
269
330
1F
100
AcDbEntity
  8
TRMODEL1
  6
Continuous
 62
     2
100
AcDbLine
 10
15.7830954049
 20
7.8173361355
 30
0.0
 11
15.7557083227
 21
7.8416367648
 31
0.0
  0
LINE
  5
26A
330
1F
100
AcDbEntity
  8
TRMODEL1
  6
Continuous
 62
     2
100
AcDbLine
 10
15.7557083227
 20
7.8416367648
 30
0.0
 11
15.7271952161
 21
7.8508297845
 31
0.0
  0
LINE
  5
26B
330
1F
100
AcDbEntity
  8
TRMODEL1
  6
Continuous
 62
     2
100
AcDbLine
 10
15.7271952161
 20
7.8508297845
 30
0.0
 11
15.7399100982
 21
7.8508297845
 31
0.0
  0
LINE
  5
26C
330
1F
100
AcDbEntity
  8
TRMODEL1
  6
Continuous
 62
     2
100
AcDbLine
 10
17.837202374
 20
7.8508297845
 30
0.0
 11
17.8223329628
 21
7.8506473754
 31
0.0
  0
LINE
  5
26D
330
1F
100
AcDbEntity
  8
TRMODEL1
  6
Continuous
 62
     2
100
AcDbLine
 10
17.8223329628
 20
7.8506473754
 30
0.0
 11
17.7250681475
 21
7.8406891567
 31
0.0
  0
LINE
  5
26E
330
1F
100
AcDbEntity
  8
TRMODEL1
  6
Continuous
 62
     2
100
AcDbLine
 10
17.7250681475
 20
7.8406891567
 30
0.0
 11
17.6281097206
 21
7.8173361355
 31
0.0
  0
LINE
  5
26F
330
1F
100
AcDbEntity
  8
TRMODEL1
  6
Continuous
 62
     2
100
AcDbLine
 10
17.474917256
 20
7.8508297845
 30
0.0
 11
17.837202374
 21
7.8508297845
 31
0.0
  0
LINE
  5
270
330
1F
100
AcDbEntity
  8
TRMODEL1
  6
Continuous
 62
     2
100
AcDbLine
 10
18.0462950273
 20
7.4868297845
 30
0.0
 11
18.0462950273
 21
7.8173361355
 31
0.0
  0
LINE
  5
271
330
1F
100
AcDbEntity
  8
TRMODEL1
  6
Continuous
 62
     2
100
AcDbLine
 10
18.0462950273
 20
7.8173361355
 30
0.0
 11
17.9438546274
 21
7.8416367648
 31
0.0
  0
LINE
  5
272
330
1F
100
AcDbEntity
  8
TRMODEL1
  6
Continuous
 62
     2
100
AcDbLine
 10
17.9438546274
 20
7.8416367648
 30
0.0
 11
17.837202374
 21
7.8508297845
 31
0.0
  0
LINE
  5
273
330
1F
100
AcDbEntity
  8
TRMODEL1
  6
Continuous
 62
     2
100
AcDbLine
 10
18.1149100982
 20
7.8508297845
 30
0.0
 11
18.1284024852
 21
7.8430399513
 31
0.0
  0
LINE
  5
274
330
1F
100
AcDbEntity
  8
TRMODEL1
  6
Continuous
 62
     2
100
AcDbLine
 10
18.1580954049
 20
7.4868297845
 30
0.0
 11
18.1580954049
 21
7.8173361355
 31
0.0
  0
LINE
  5
275
330
1F
100
AcDbEntity
  8
TRMODEL1
  6
Continuous
 62
     2
100
AcDbLine
 10
18.1580954049
 20
7.8173361355
 30
0.0
 11
18.1307083227
 21
7.8416367648
 31
0.0
  0
LINE
  5
276
330
1F
100
AcDbEntity
  8
TRMODEL1
  6
Continuous
 62
     2
100
AcDbLine
 10
18.1307083227
 20
7.8416367648
 30
0.0
 11
18.1021952161
 21
7.8508297845
 31
0.0
  0
LINE
  5
277
330
1F
100
AcDbEntity
  8
TRMODEL1
  6
Continuous
 62
     2
100
AcDbLine
 10
18.1021952161
 20
7.8508297845
 30
0.0
 11
18.1149100982
 21
7.8508297845
 31
0.0
  0
LINE
  5
278
330
1F
100
AcDbEntity
  8
TRMODEL1
  6
Continuous
 62
     2
100
AcDbLine
 10
18.1021952161
 20
7.8508297845
 30
0.0
 11
18.0982199311
 21
7.8506473754
 31
0.0
  0
LINE
  5
279
330
1F
100
AcDbEntity
  8
TRMODEL1
  6
Continuous
 62
     2
100
AcDbLine
 10
18.0982199311
 20
7.8506473754
 30
0.0
 11
18.0722165233
 21
7.8406891567
 31
0.0
  0
LINE
  5
27A
330
1F
100
AcDbEntity
  8
TRMODEL1
  6
Continuous
 62
     2
100
AcDbLine
 10
18.0722165233
 20
7.8406891567
 30
0.0
 11
18.0462950273
 21
7.8173361355
 31
0.0
  0
LINE
  5
27B
330
1F
100
AcDbEntity
  8
TRMODEL1
  6
Continuous
 62
     2
100
AcDbLine
 10
17.837202374
 20
7.8508297845
 30
0.0
 11
18.1021952161
 21
7.8508297845
 31
0.0
  0
LINE
  5
27C
330
1F
100
AcDbEntity
  8
TRMODEL1
  6
Continuous
 62
     2
100
AcDbLine
 10
17.2089100982
 20
7.3918297845
 30
0.0
 11
17.2089100982
 21
7.4868297845
 31
0.0
  0
LINE
  5
27D
330
1F
100
AcDbEntity
  8
TRMODEL1
  6
Continuous
 62
     2
100
AcDbLine
 10
17.3514177112
 20
7.8430399513
 30
0.0
 11
17.3649100982
 21
7.8508297845
 31
0.0
  0
LINE
  5
27E
330
1F
100
AcDbEntity
  8
TRMODEL1
  6
Continuous
 62
     2
100
AcDbLine
 10
17.3646802337
 20
7.4868297845
 30
0.0
 11
17.2089100982
 21
7.4868297845
 31
0.0
  0
LINE
  5
27F
330
1F
100
AcDbEntity
  8
TRMODEL1
  6
Continuous
 62
     2
100
AcDbLine
 10
17.6281097206
 20
7.4868297845
 30
0.0
 11
17.6281097206
 21
7.8173361355
 31
0.0
  0
LINE
  5
280
330
1F
100
AcDbEntity
  8
TRMODEL1
  6
Continuous
 62
     2
100
AcDbLine
 10
17.6281097206
 20
7.8173361355
 30
0.0
 11
17.5936691704
 21
7.8301354738
 31
0.0
  0
LINE
  5
281
330
1F
100
AcDbEntity
  8
TRMODEL1
  6
Continuous
 62
     2
100
AcDbLine
 10
17.5936691704
 20
7.8301354738
 30
0.0
 11
17.474917256
 21
7.8508297845
 31
0.0
  0
LINE
  5
282
330
1F
100
AcDbEntity
  8
TRMODEL1
  6
Continuous
 62
     2
100
AcDbLine
 10
17.474917256
 20
7.8508297845
 30
0.0
 11
17.4366903901
 21
7.8485944333
 31
0.0
  0
LINE
  5
283
330
1F
100
AcDbEntity
  8
TRMODEL1
  6
Continuous
 62
     2
100
AcDbLine
 10
17.4366903901
 20
7.8485944333
 30
0.0
 11
17.3217247915
 21
7.8173361355
 31
0.0
  0
LINE
  5
284
330
1F
100
AcDbEntity
  8
TRMODEL1
  6
Continuous
 62
     2
100
AcDbLine
 10
17.3217247915
 20
7.4868297845
 30
0.0
 11
17.3217247915
 21
7.8173361355
 31
0.0
  0
LINE
  5
285
330
1F
100
AcDbEntity
  8
TRMODEL1
  6
Continuous
 62
     2
100
AcDbLine
 10
17.3217247915
 20
7.8173361355
 30
0.0
 11
17.3491118737
 21
7.8416367648
 31
0.0
  0
LINE
  5
286
330
1F
100
AcDbEntity
  8
TRMODEL1
  6
Continuous
 62
     2
100
AcDbLine
 10
17.3491118737
 20
7.8416367648
 30
0.0
 11
17.3517388423
 21
7.8424837358
 31
0.0
  0
LINE
  5
287
330
1F
100
AcDbEntity
  8
TRMODEL1
  6
Continuous
 62
     2
100
AcDbLine
 10
17.474917256
 20
7.8508297845
 30
0.0
 11
17.3649100982
 21
7.8508297845
 31
0.0
  0
LINE
  5
288
330
1F
100
AcDbEntity
  8
TRMODEL1
  6
Continuous
 62
     2
100
AcDbLine
 10
19.5620181125
 20
6.8918297845
 30
0.0
 11
20.0620181125
 21
7.3918297845
 31
0.0
  0
LINE
  5
289
330
1F
100
AcDbEntity
  8
TRMODEL1
  6
Continuous
 62
     2
100
AcDbLine
 10
19.3852414172
 20
6.8918297845
 30
0.0
 11
19.8852414172
 21
7.3918297845
 31
0.0
  0
LINE
  5
28A
330
1F
100
AcDbEntity
  8
TRMODEL1
  6
Continuous
 62
     2
100
AcDbLine
 10
19.2084647219
 20
6.8918297845
 30
0.0
 11
19.7084647219
 21
7.3918297845
 31
0.0
  0
LINE
  5
28B
330
1F
100
AcDbEntity
  8
TRMODEL1
  6
Continuous
 62
     2
100
AcDbLine
 10
19.0316880266
 20
6.8918297845
 30
0.0
 11
19.5316880266
 21
7.3918297845
 31
0.0
  0
LINE
  5
28C
330
1F
100
AcDbEntity
  8
TRMODEL1
  6
Continuous
 62
     2
100
AcDbLine
 10
18.8549113313
 20
6.8918297845
 30
0.0
 11
19.3549113313
 21
7.3918297845
 31
0.0
  0
LINE
  5
28D
330
1F
100
AcDbEntity
  8
TRMODEL1
  6
Continuous
 62
     2
100
AcDbLine
 10
18.678134636
 20
6.8918297845
 30
0.0
 11
19.178134636
 21
7.3918297845
 31
0.0
  0
LINE
  5
28E
330
1F
100
AcDbEntity
  8
TRMODEL1
  6
Continuous
 62
     2
100
AcDbLine
 10
18.5013579407
 20
6.8918297845
 30
0.0
 11
19.0013579407
 21
7.3918297845
 31
0.0
  0
LINE
  5
28F
330
1F
100
AcDbEntity
  8
TRMODEL1
  6
Continuous
 62
     2
100
AcDbLine
 10
18.3245812455
 20
6.8918297845
 30
0.0
 11
18.8245812455
 21
7.3918297845
 31
0.0
  0
LINE
  5
290
330
1F
100
AcDbEntity
  8
TRMODEL1
  6
Continuous
 62
     4
100
AcDbLine
 10
20.1149100982
 20
6.8918297845
 30
0.0
 11
20.1149100982
 21
7.3918297845
 31
0.0
  0
LINE
  5
291
330
1F
100
AcDbEntity
  8
TRMODEL1
  6
Continuous
 62
     2
100
AcDbLine
 10
20.8028290461
 20
7.2736027632
 30
0.0
 11
20.7442352961
 21
6.9220402632
 31
0.0
  0
LINE
  5
292
330
1F
100
AcDbEntity
  8
TRMODEL1
  6
Continuous
 62
     2
100
AcDbLine
 10
20.7442352961
 20
6.9220402632
 30
0.0
 11
20.6856415461
 21
7.2736027632
 31
0.0
  0
LINE
  5
293
330
1F
100
AcDbEntity
  8
TRMODEL1
  6
Continuous
 62
     2
100
AcDbLine
 10
20.6856415461
 20
7.2736027632
 30
0.0
 11
20.8028290461
 21
7.2736027632
 31
0.0
  0
LINE
  5
294
330
1F
100
AcDbEntity
  8
TRMODEL1
  6
Continuous
 62
     2
100
AcDbLine
 10
20.0923481984
 20
6.8918297845
 30
0.0
 11
20.1149100982
 21
6.9143916843
 31
0.0
  0
LINE
  5
295
330
1F
100
AcDbEntity
  8
TRMODEL1
  6
Continuous
 62
     2
100
AcDbLine
 10
19.9155715031
 20
6.8918297845
 30
0.0
 11
20.1149100982
 21
7.0911683796
 31
0.0
  0
LINE
  5
296
330
1F
100
AcDbEntity
  8
TRMODEL1
  6
Continuous
 62
     2
100
AcDbLine
 10
19.7387948078
 20
6.8918297845
 30
0.0
 11
20.1149100982
 21
7.2679450749
 31
0.0
  0
LINE
  5
297
330
1F
100
AcDbEntity
  8
TRDETAIL2
  6
HIDDEN
 62
     3
100
AcDbLine
 10
18.2709100982
 20
6.0168297845
 30
0.0
 11
18.2709100982
 21
5.9218297845
 31
0.0
  0
LINE
  5
298
330
1F
100
AcDbEntity
  8
TRMODEL1
  6
Continuous
 62
     2
100
AcDbLine
 10
18.2709100982
 20
7.4868297845
 30
0.0
 11
18.2709100982
 21
7.3918297845
 31
0.0
  0
LINE
  5
299
330
1F
100
AcDbEntity
  8
TRMODEL1
  6
Continuous
 62
     2
100
AcDbLine
 10
6.62405396
 20
4.3527672845
 30
0.0
 11
6.62405396
 21
3.2901162222
 31
0.0
  0
LINE
  5
29A
330
1F
100
AcDbEntity
  8
TRMODEL1
  6
Continuous
 62
     2
100
AcDbLine
 10
6.62405396
 20
3.2901162222
 30
0.0
 11
5.956319689
 21
3.2901162222
 31
0.0
  0
ARC
  5
29B
330
1F
100
AcDbEntity
  8
TRMODEL1
  6
Continuous
 62
     2
100
AcDbCircle
 10
21.7787605799
 20
5.2512047845
 30
0.0
 40
0.8600986731956527
100
AcDbArc
 50
140.5185616278
 51
219.4814383722
  0
ARC
  5
29C
330
1F
100
AcDbEntity
  8
TRMODEL1
  6
Continuous
 62
     2
100
AcDbCircle
 10
20.4510596165
 20
6.3449547845
 30
0.0
 40
0.8600986731956527
100
AcDbArc
 50
320.5185616278
 51
39.4814383722
  0
ARC
  5
29D
330
1F
100
AcDbEntity
  8
TRMODEL1
  6
Continuous
 62
     2
100
AcDbCircle
 10
5.5287605799
 20
5.2512047845
 30
0.0
 40
0.8600986731956519
100
AcDbArc
 50
140.5185616278
 51
219.4814383722
  0
ARC
  5
29E
330
1F
100
AcDbEntity
  8
TRMODEL1
  6
Continuous
 62
     2
100
AcDbCircle
 10
4.2010596165
 20
6.3449547845
 30
0.0
 40
0.8600986731956516
100
AcDbArc
 50
320.5185616278
 51
39.4814383722
  0
MTEXT
  5
2A0
330
1F
100
AcDbEntity
  8
TRMODEL1
 62
     4
100
AcDbMText
 10
19.0289653574
 20
2.5942215385
 30
0.0
 40
0.5625
 41
0.0
 71
     1
 72
     1
  1
BOLT ASSEMBLY
  7
SLDTEXTSTYLE0
 73
     1
 44
1.0
  0
MTEXT
  5
2A1
330
1F
100
AcDbEntity
  8
TRMODEL1
 62
     4
100
AcDbMText
 10
19.0289653574
 20
1.64652174
 30
0.0
 40
0.5625
 41
0.0
 71
     1
 72
     1
  1
FIELD INSTALL
  7
SLDTEXTSTYLE0
 73
     1
 44
1.0
  0
MTEXT
  5
2A2
330
1F
100
AcDbEntity
  8
TRMODEL1
 62
     4
100
AcDbMText
 10
21.2986094139
 20
3.5434324183
 30
0.0
 40
0.5625
 41
0.0
 71
     1
 72
     1
  1
 x 2 1/4" Lg.
  7
SLDTEXTSTYLE0
 73
     1
 44
1.0
  0
MTEXT
  5
2A3
330
1F
100
AcDbEntity
  8
TRMODEL1
 62
     4
100
AcDbMText
 10
20.689643665
 20
3.5434324183
 30
0.0
 40
0.5625
 41
0.0
 71
     1
 72
     1
  1
%%c
  7
SLDTEXTSTYLE0
 73
     1
 44
1.0
  0
MTEXT
  5
2A4
330
1F
100
AcDbEntity
  8
TRMODEL1
 62
     4
100
AcDbMText
 10
18.9994992728
 20
3.5434324183
 30
0.0
 40
0.5625
 41
0.0
 71
     1
 72
     1
  1
1/2"
  7
SLDTEXTSTYLE0
 73
     1
 44
1.0
  0
MTEXT
  5
2A5
330
1F
100
AcDbEntity
  8
TRMODEL1
 62
     4
100
AcDbMText
 10
13.7972822175
 20
9.7578561482
 30
0.0
 40
0.5625
 41
0.0
 71
     1
 72
     1
  1
FIELD INSTALL
  7
SLDTEXTSTYLE0
 73
     1
 44
1.0
  0
MTEXT
  5
2A6
330
1F
100
AcDbEntity
  8
TRMODEL1
 62
     4
100
AcDbMText
 10
0.0543989255
 20
9.808964754
 30
0.0
 40
0.5625
 41
0.0
 71
     1
 72
     1
  1
SHOP ATTACHED
  7
SLDTEXTSTYLE0
 73
     1
 44
1.0
  0
MTEXT
  5
2A7
330
1F
100
AcDbEntity
  8
TRMODEL1
 62
     4
100
AcDbMText
 10
2.299110141
 20
11.7073865136
 30
0.0
 40
0.5625
 41
0.0
 71
     1
 72
     1
  1
 x 2 1/4" Lg.
  7
SLDTEXTSTYLE0
 73
     1
 44
1.0
  0
MTEXT
  5
2A8
330
1F
100
AcDbEntity
  8
TRMODEL1
 62
     4
100
AcDbMText
 10
0.0294660846
 20
10.7581756338
 30
0.0
 40
0.5625
 41
0.0
 71
     1
 72
     1
  1
BOLT ASSEMBLY
  7
SLDTEXTSTYLE0
 73
     1
 44
1.0
  0
MTEXT
  5
2A9
330
1F
100
AcDbEntity
  8
TRMODEL1
 62
     4
100
AcDbMText
 10
0.0
 20
11.7073865136
 30
0.0
 40
0.5625
 41
0.0
 71
     1
 72
     1
  1
1/2"
  7
SLDTEXTSTYLE0
 73
     1
 44
1.0
  0
MTEXT
  5
2AA
330
1F
100
AcDbEntity
  8
TRMODEL1
 62
     4
100
AcDbMText
 10
1.6901443922
 20
11.7073865136
 30
0.0
 40
0.5625
 41
0.0
 71
     1
 72
     1
  1
%%c
  7
SLDTEXTSTYLE0
 73
     1
 44
1.0
  0
MTEXT
  5
2AB
330
1F
100
AcDbEntity
  8
TRMODEL1
 62
     4
100
AcDbMText
 10
13.7972822175
 20
10.7055559468
 30
0.0
 40
0.5625
 41
0.0
 71
     1
 72
     1
  1
FRP CHANNEL
  7
SLDTEXTSTYLE0
 73
     1
 44
1.0
  0
MTEXT
  5
2AC
330
1F
100
AcDbEntity
  8
TRMODEL1
 62
     4
100
AcDbMText
 10
13.8267483022
 20
11.6532557453
 30
0.0
 40
0.5625
 41
0.0
 71
     1
 72
     1
  1
8x2 3/16x3/8"
  7
SLDTEXTSTYLE0
 73
     1
 44
1.0
  0
MTEXT
  5
2AD
330
1F
100
AcDbEntity
  8
TRMODEL1
 62
     4
100
AcDbMText
 10
0.185635546
 20
0.7328543594
 30
0.0
 40
0.5625
 41
0.0
 71
     1
 72
     1
  1
SHOP ATTACHED
  7
SLDTEXTSTYLE0
 73
     1
 44
1.0
  0
MTEXT
  5
2AE
330
1F
100
AcDbEntity
  8
TRMODEL1
 62
     4
100
AcDbMText
 10
0.1607027051
 20
2.6297650377
 30
0.0
 40
0.5625
 41
0.0
 71
     1
 72
     1
  1
FRP CHANNEL
  7
SLDTEXTSTYLE0
 73
     1
 44
1.0
  0
MTEXT
  5
2AF
330
1F
100
AcDbEntity
  8
TRMODEL1
 62
     4
100
AcDbMText
 10
0.2015018992
 20
1.6820652391
 30
0.0
 40
0.5625
 41
0.0
 71
     1
 72
     1
  1
WITH PLATES
  7
SLDTEXTSTYLE0
 73
     1
 44
1.0
  0
MTEXT
  5
2B0
330
1F
100
AcDbEntity
  8
TRMODEL1
 62
     4
100
AcDbMText
 10
0.1901687898
 20
3.5774648362
 30
0.0
 40
0.5625
 41
0.0
 71
     1
 72
     1
  1
8x2 3/16x3/8"
  7
SLDTEXTSTYLE0
 73
     1
 44
1.0
  0
ENDSEC
  0
SECTION
  2
OBJECTS
  0
DICTIONARY
  5
C
330
0
100
AcDbDictionary
281
     1
  3
ACAD_GROUP
350
D
  3
ACAD_LAYOUT
350
1A
  3
ACAD_MLINESTYLE
350
17
  3
ACAD_PLOTSETTINGS
350
19
  3
ACAD_PLOTSTYLENAME
350
E
  3
ACAD_TABLESTYLE
350
2B1
  3
ACAD_VISUALSTYLE
350
2A
  0
DICTIONARY
  5
D
102
{ACAD_REACTORS
330
C
102
}
330
C
100
AcDbDictionary
281
     1
  0
DICTIONARY
  5
1A
102
{ACAD_REACTORS
330
C
102
}
330
C
100
AcDbDictionary
281
     1
  3
Layout1
350
1E
  3
Layout2
350
26
  3
Model
350
22
  0
DICTIONARY
  5
17
102
{ACAD_REACTORS
330
C
102
}
330
C
100
AcDbDictionary
281
     1
  3
Standard
350
18
  0
DICTIONARY
  5
19
102
{ACAD_REACTORS
330
C
102
}
330
C
100
AcDbDictionary
281
     1
  0
ACDBDICTIONARYWDFLT
  5
E
102
{ACAD_REACTORS
330
C
102
}
330
C
100
AcDbDictionary
281
     1
  3
Normal
350
F
100
AcDbDictionaryWithDefault
340
F
  0
DICTIONARY
  5
2B1
102
{ACAD_REACTORS
330
C
102
}
330
C
100
AcDbDictionary
281
     1
  0
DICTIONARY
  5
2A
102
{ACAD_REACTORS
330
C
102
}
330
C
100
AcDbDictionary
281
     1
  3
2dWireframe
350
2F
  3
3D Hidden
350
31
  3
3dWireframe
350
30
  3
Basic
350
32
  3
Brighten
350
36
  3
ColorChange
350
3A
  3
Conceptual
350
34
  3
Dim
350
35
  3
Facepattern
350
39
  3
Flat
350
2B
  3
FlatWithEdges
350
2C
  3
Gouraud
350
2D
  3
GouraudWithEdges
350
2E
  3
Linepattern
350
38
  3
Realistic
350
33
  3
Thicken
350
37
  0
LAYOUT
  5
1E
102
{ACAD_REACTORS
330
1A
102
}
330
1A
100
AcDbPlotSettings
  1

  2
none_device
  4

  6

 40
0.0
 41
0.0
 42
0.0
 43
0.0
 44
0.0
 45
0.0
 46
0.0
 47
0.0
 48
0.0
 49
0.0
140
0.0
141
0.0
142
1.0
143
1.0
 70
   688
 72
     0
 73
     0
 74
     5
  7

 75
    16
147
1.0
148
0.0
149
0.0
100
AcDbLayout
  1
Layout1
 70
     1
 71
     1
 10
0.0
 20
0.0
 11
12.0
 21
9.0
 12
0.0
 22
0.0
 32
0.0
 14
1.0000000000E+20
 24
1.0000000000E+20
 34
1.0000000000E+20
 15
-1.0000000000E+20
 25
-1.0000000000E+20
 35
-1.0000000000E+20
146
0.0
 13
0.0
 23
0.0
 33
0.0
 16
1.0
 26
0.0
 36
0.0
 17
0.0
 27
1.0
 37
0.0
 76
     0
330
1B
  0
LAYOUT
  5
26
102
{ACAD_REACTORS
330
1A
102
}
330
1A
100
AcDbPlotSettings
  1

  2
none_device
  4

  6

 40
0.0
 41
0.0
 42
0.0
 43
0.0
 44
0.0
 45
0.0
 46
0.0
 47
0.0
 48
0.0
 49
0.0
140
0.0
141
0.0
142
1.0
143
1.0
 70
   688
 72
     0
 73
     0
 74
     5
  7

 75
    16
147
1.0
148
0.0
149
0.0
100
AcDbLayout
  1
Layout2
 70
     1
 71
     2
 10
0.0
 20
0.0
 11
0.0
 21
0.0
 12
0.0
 22
0.0
 32
0.0
 14
0.0
 24
0.0
 34
0.0
 15
0.0
 25
0.0
 35
0.0
146
0.0
 13
0.0
 23
0.0
 33
0.0
 16
1.0
 26
0.0
 36
0.0
 17
0.0
 27
1.0
 37
0.0
 76
     0
330
23
  0
LAYOUT
  5
22
102
{ACAD_REACTORS
330
1A
102
}
330
1A
100
AcDbPlotSettings
  1

  2
none_device
  4

  6

 40
0.0
 41
0.0
 42
0.0
 43
0.0
 44
0.0
 45
0.0
 46
0.0
 47
0.0
 48
0.0
 49
0.0
140
0.0
141
0.0
142
1.0
143
1.0
 70
  1712
 72
     0
 73
     0
 74
     0
  7

 75
     0
147
1.0
148
0.0
149
0.0
100
AcDbLayout
  1
Model
 70
     1
 71
     0
 10
0.0
 20
0.0
 11
11.0
 21
8.5
 12
0.0
 22
0.0
 32
0.0
 14
0.0
 24
0.0
 34
0.0
 15
11.0
 25
8.5
 35
0.0
146
0.0
 13
0.0
 23
0.0
 33
0.0
 16
1.0
 26
0.0
 36
0.0
 17
0.0
 27
1.0
 37
0.0
 76
     0
330
1F
331
29
  0
MLINESTYLE
  5
18
102
{ACAD_REACTORS
330
17
102
}
330
17
100
AcDbMlineStyle
  2
Standard
 70
     0
  3

 62
   256
 51
90.0
 52
90.0
 71
     2
 49
0.5
 62
   256
  6
BYLAYER
 49
-0.5
 62
   256
  6
BYLAYER
  0
ACDBPLACEHOLDER
  5
F
102
{ACAD_REACTORS
330
E
102
}
330
E
  0
VISUALSTYLE
  5
2F
102
{ACAD_REACTORS
330
2A
102
}
330
2A
100
AcDbVisualStyle
  2
2dWireframe
 70
     4
 71
     0
 72
     2
 73
     0
 90
        0
 40
-0.6
 41
-30.0
 62
     5
 63
     7
 74
     1
 91
        4
 64
     7
 65
   257
 75
     1
175
     1
 42
1.0
 92
        0
 66
   257
 43
1.0
 76
     1
 77
     6
 78
     2
 67
     7
 79
     5
170
     0
171
     0
290
     0
174
     0
 93
        1
 44
0.0
173
     0
291
     0
 45
0.0
1001
ACAD
1000
AcDbSavedByObjectVersion
1070
     0
  0
VISUALSTYLE
  5
31
102
{ACAD_REACTORS
330
2A
102
}
330
2A
100
AcDbVisualStyle
  2
3D Hidden
 70
     6
 71
     1
 72
     2
 73
     2
 90
        0
 40
-0.6
 41
-30.0
 62
     5
 63
     7
 74
     2
 91
        2
 64
     7
 65
   257
 75
     2
175
     1
 42
40.0
 92
        0
 66
   257
 43
1.0
 76
     1
 77
     6
 78
     2
 67
     7
 79
     3
170
     0
171
     0
290
     0
174
     0
 93
        1
 44
0.0
173
     0
291
     0
 45
0.0
1001
ACAD
1000
AcDbSavedByObjectVersion
1070
     0
  0
VISUALSTYLE
  5
30
102
{ACAD_REACTORS
330
2A
102
}
330
2A
100
AcDbVisualStyle
  2
3dWireframe
 70
     5
 71
     0
 72
     2
 73
     0
 90
        0
 40
-0.6
 41
-30.0
 62
     5
 63
     7
 74
     1
 91
        4
 64
     7
 65
   257
 75
     1
175
     1
 42
1.0
 92
        0
 66
   257
 43
1.0
 76
     1
 77
     6
 78
     2
 67
     7
 79
     5
170
     0
171
     0
290
     0
174
     0
 93
        1
 44
0.0
173
     0
291
     0
 45
0.0
1001
ACAD
1000
AcDbSavedByObjectVersion
1070
     0
  0
VISUALSTYLE
  5
32
102
{ACAD_REACTORS
330
2A
102
}
330
2A
100
AcDbVisualStyle
  2
Basic
 70
     7
 71
     1
 72
     0
 73
     1
 90
        0
 40
-0.6
 41
-30.0
 62
     5
 63
     7
 74
     0
 91
        4
 64
     7
 65
   257
 75
     1
175
     1
 42
1.0
 92
        8
 66
     7
 43
1.0
 76
     1
 77
     6
 78
     2
 67
     7
 79
     5
170
     0
171
     0
290
     0
174
     0
 93
        1
 44
0.0
173
     0
291
     1
 45
0.0
1001
ACAD
1000
AcDbSavedByObjectVersion
1070
     0
  0
VISUALSTYLE
  5
36
102
{ACAD_REACTORS
330
2A
102
}
330
2A
100
AcDbVisualStyle
  2
Brighten
 70
    12
 71
     2
 72
     2
 73
     0
 90
        0
 40
-0.6
 41
-30.0
 62
     5
 63
     7
 74
     1
 91
        4
 64
     7
 65
   257
 75
     1
175
     1
 42
1.0
 92
        8
 66
     7
 43
1.0
 76
     1
 77
     6
 78
     2
 67
     7
 79
     5
170
     0
171
     0
290
     0
174
     0
 93
        1
 44
50.0
173
     0
291
     1
 45
0.0
1001
ACAD
1000
AcDbSavedByObjectVersion
1070
     0
  0
VISUALSTYLE
  5
3A
102
{ACAD_REACTORS
330
2A
102
}
330
2A
100
AcDbVisualStyle
  2
ColorChange
 70
    16
 71
     2
 72
     2
 73
     3
 90
        0
 40
-0.6
 41
-30.0
 62
     5
 63
     8
 74
     1
 91
        4
 64
     7
 65
   257
 75
     1
175
     1
 42
1.0
 92
        8
 66
     8
 43
1.0
 76
     1
 77
     6
 78
     2
 67
     7
 79
     5
170
     0
171
     0
290
     0
174
     0
 93
        1
 44
0.0
173
     0
291
     1
 45
0.0
1001
ACAD
1000
AcDbSavedByObjectVersion
1070
     0
  0
VISUALSTYLE
  5
34
102
{ACAD_REACTORS
330
2A
102
}
330
2A
100
AcDbVisualStyle
  2
Conceptual
 70
     9
 71
     3
 72
     2
 73
     0
 90
        0
 40
-0.6
 41
-30.0
 62
     5
 63
     7
 74
     2
 91
        2
 64
     7
 65
   257
 75
     1
175
     1
 42
40.0
 92
        8
 66
     7
 43
1.0
 76
     1
 77
     6
 78
     2
 67
     7
 79
     3
170
     0
171
     0
290
     0
174
     0
 93
        1
 44
0.0
173
     0
291
     0
 45
0.0
1001
ACAD
1000
AcDbSavedByObjectVersion
1070
     0
  0
VISUALSTYLE
  5
35
102
{ACAD_REACTORS
330
2A
102
}
330
2A
100
AcDbVisualStyle
  2
Dim
 70
    11
 71
     2
 72
     2
 73
     0
 90
        0
 40
-0.6
 41
-30.0
 62
     5
 63
     7
 74
     1
 91
        4
 64
     7
 65
   257
 75
     1
175
     1
 42
1.0
 92
        8
 66
     7
 43
1.0
 76
     1
 77
     6
 78
     2
 67
     7
 79
     5
170
     0
171
     0
290
     0
174
     0
 93
        1
 44
-50.0
173
     0
291
     1
 45
0.0
1001
ACAD
1000
AcDbSavedByObjectVersion
1070
     0
  0
VISUALSTYLE
  5
39
102
{ACAD_REACTORS
330
2A
102
}
330
2A
100
AcDbVisualStyle
  2
Facepattern
 70
    15
 71
     2
 72
     2
 73
     0
 90
        0
 40
-0.6
 41
-30.0
 62
     5
 63
     7
 74
     1
 91
        4
 64
     7
 65
   257
 75
     1
175
     1
 42
1.0
 92
        8
 66
     7
 43
1.0
 76
     1
 77
     6
 78
     2
 67
     7
 79
     5
170
     0
171
     0
290
     0
174
     0
 93
        1
 44
0.0
173
     0
291
     1
 45
0.0
1001
ACAD
1000
AcDbSavedByObjectVersion
1070
     0
  0
VISUALSTYLE
  5
2B
102
{ACAD_REACTORS
330
2A
102
}
330
2A
100
AcDbVisualStyle
  2
Flat
 70
     0
 71
     2
 72
     1
 73
     1
 90
        2
 40
-0.6
 41
30.0
 62
     5
 63
     7
 74
     0
 91
        4
 64
     7
 65
   257
 75
     1
175
     1
 42
1.0
 92
        8
 66
     7
 43
1.0
 76
     1
 77
     6
 78
     2
 67
     7
 79
     5
170
     0
171
     0
290
     0
174
     0
 93
       13
 44
0.0
173
     0
291
     1
 45
0.0
1001
ACAD
1000
AcDbSavedByObjectVersion
1070
     0
  0
VISUALSTYLE
  5
2C
102
{ACAD_REACTORS
330
2A
102
}
330
2A
100
AcDbVisualStyle
  2
FlatWithEdges
 70
     1
 71
     2
 72
     1
 73
     1
 90
        2
 40
-0.6
 41
30.0
 62
     5
 63
     7
 74
     1
 91
        4
 64
     7
 65
   257
 75
     1
175
     1
 42
1.0
 92
        0
 66
   257
 43
1.0
 76
     1
 77
     6
 78
     2
 67
     7
 79
     5
170
     0
171
     0
290
     0
174
     0
 93
       13
 44
0.0
173
     0
291
     1
 45
0.0
1001
ACAD
1000
AcDbSavedByObjectVersion
1070
     0
  0
VISUALSTYLE
  5
2D
102
{ACAD_REACTORS
330
2A
102
}
330
2A
100
AcDbVisualStyle
  2
Gouraud
 70
     2
 71
     2
 72
     2
 73
     1
 90
        2
 40
-0.6
 41
30.0
 62
     5
 63
     7
 74
     0
 91
        4
 64
     7
 65
   257
 75
     1
175
     1
 42
1.0
 92
        0
 66
     7
 43
1.0
 76
     1
 77
     6
 78
     2
 67
     7
 79
     5
170
     0
171
     0
290
     0
174
     0
 93
       13
 44
0.0
173
     0
291
     1
 45
0.0
1001
ACAD
1000
AcDbSavedByObjectVersion
1070
     0
  0
VISUALSTYLE
  5
2E
102
{ACAD_REACTORS
330
2A
102
}
330
2A
100
AcDbVisualStyle
  2
GouraudWithEdges
 70
     3
 71
     2
 72
     2
 73
     1
 90
        2
 40
-0.6
 41
30.0
 62
     5
 63
     7
 74
     1
 91
        4
 64
     7
 65
   257
 75
     1
175
     1
 42
1.0
 92
        0
 66
   257
 43
1.0
 76
     1
 77
     6
 78
     2
 67
     7
 79
     5
170
     0
171
     0
290
     0
174
     0
 93
       13
 44
0.0
173
     0
291
     1
 45
0.0
1001
ACAD
1000
AcDbSavedByObjectVersion
1070
     0
  0
VISUALSTYLE
  5
38
102
{ACAD_REACTORS
330
2A
102
}
330
2A
100
AcDbVisualStyle
  2
Linepattern
 70
    14
 71
     2
 72
     2
 73
     0
 90
        0
 40
-0.6
 41
-30.0
 62
     5
 63
     7
 74
     1
 91
        4
 64
     7
 65
   257
 75
     7
175
     7
 42
1.0
 92
        8
 66
     7
 43
1.0
 76
     1
 77
     6
 78
     2
 67
     7
 79
     5
170
     0
171
     0
290
     0
174
     0
 93
        1
 44
0.0
173
     0
291
     1
 45
0.0
1001
ACAD
1000
AcDbSavedByObjectVersion
1070
     0
  0
VISUALSTYLE
  5
33
102
{ACAD_REACTORS
330
2A
102
}
330
2A
100
AcDbVisualStyle
  2
Realistic
 70
     8
 71
     2
 72
     2
 73
     0
 90
        0
 40
-0.6
 41
-30.0
 62
     5
 63
     7
 74
     1
 91
        0
 64
     7
 65
   257
 75
     1
175
     1
 42
1.0
 92
        8
 66
     8
 43
1.0
 76
     1
 77
     6
 78
     2
 67
     7
 79
     5
170
     0
171
     0
290
     0
174
     0
 93
       13
 44
0.0
173
     0
291
     0
 45
0.0
1001
ACAD
1000
AcDbSavedByObjectVersion
1070
     0
  0
VISUALSTYLE
  5
37
102
{ACAD_REACTORS
330
2A
102
}
330
2A
100
AcDbVisualStyle
  2
Thicken
 70
    13
 71
     2
 72
     2
 73
     0
 90
        0
 40
-0.6
 41
-30.0
 62
     5
 63
     7
 74
     1
 91
        4
 64
     7
 65
   257
 75
     1
175
     1
 42
1.0
 92
       12
 66
     7
 43
1.0
 76
     1
 77
     6
 78
     2
 67
     7
 79
     5
170
     0
171
     0
290
     0
174
     0
 93
        1
 44
0.0
173
     0
291
     1
 45
0.0
1001
ACAD
1000
AcDbSavedByObjectVersion
1070
     0
  0
ENDSEC
  0
EOF
