  0
SECTION
  2
HEADER
  9
$ACADVER
  1
AC1015
  9
$ACADMAINTVER
 70
     6
  9
$DWGCODEPAGE
  3
ANSI_1252
  9
$INSBASE
 10
0.0
 20
0.0
 30
0.0
  9
$EXTMIN
 10
0.0
 20
0.0
 30
0.0
  9
$EXTMAX
 10
8.5
 20
11.0
 30
0.0
  9
$LIMMIN
 10
0.0
 20
0.0
  9
$LIMMAX
 10
8.5
 20
11.0
  9
$ORTHOMODE
 70
     0
  9
$REGENMODE
 70
     1
  9
$FILLMODE
 70
     1
  9
$QTEXTMODE
 70
     0
  9
$MIRRTEXT
 70
     1
  9
$LTSCALE
 40
1.0
  9
$ATTMODE
 70
     1
  9
$TEXTSIZE
 40
0.1377952756
  9
$TRACEWID
 40
0.05
  9
$TEXTSTYLE
  7
Standard
  9
$CLAYER
  8
0
  9
$CELTYPE
  6
ByLayer
  9
$CECOLOR
 62
   256
  9
$CELTSCALE
 40
1.0
  9
$DISPSILH
 70
     0
  9
$DIMSCALE
 40
1.0
  9
$DIMASZ
 40
0.2362204724
  9
$DIMEXO
 40
0.0393700787
  9
$DIMDLI
 40
0.38
  9
$DIMRND
 40
0.0
  9
$DIMDLE
 40
0.0
  9
$DIMEXE
 40
0.0393700787
  9
$DIMTP
 40
0.0
  9
$DIMTM
 40
0.0
  9
$DIMTXT
 40
0.1377952756
  9
$DIMCEN
 40
0.09
  9
$DIMTSZ
 40
0.0
  9
$DIMTOL
 70
     0
  9
$DIMLIM
 70
     0
  9
$DIMTIH
 70
     1
  9
$DIMTOH
 70
     1
  9
$DIMSE1
 70
     0
  9
$DIMSE2
 70
     0
  9
$DIMTAD
 70
     1
  9
$DIMZIN
 70
     1
  9
$DIMBLK
  1

  9
$DIMASO
 70
     1
  9
$DIMSHO
 70
     1
  9
$DIMPOST
  1

  9
$DIMAPOST
  1

  9
$DIMALT
 70
     0
  9
$DIMALTD
 70
     2
  9
$DIMALTF
 40
25.4
  9
$DIMLFAC
 40
6.0
  9
$DIMTOFL
 70
     0
  9
$DIMTVP
 40
0.0
  9
$DIMTIX
 70
     0
  9
$DIMSOXD
 70
     0
  9
$DIMSAH
 70
     0
  9
$DIMBLK1
  1

  9
$DIMBLK2
  1

  9
$DIMSTYLE
  2
Standard
  9
$DIMCLRD
 70
     0
  9
$DIMCLRE
 70
     0
  9
$DIMCLRT
 70
     0
  9
$DIMTFAC
 40
1.0
  9
$DIMGAP
 40
0.06
  9
$DIMJUST
 70
     0
  9
$DIMSD1
 70
     0
  9
$DIMSD2
 70
     0
  9
$DIMTOLJ
 70
     1
  9
$DIMTZIN
 70
     1
  9
$DIMALTZ
 70
     0
  9
$DIMALTTZ
 70
     0
  9
$DIMUPT
 70
     0
  9
$DIMDEC
 70
     4
  9
$DIMTDEC
 70
     4
  9
$DIMALTU
 70
     2
  9
$DIMALTTD
 70
     2
  9
$DIMTXSTY
  7
Standard
  9
$DIMAUNIT
 70
     0
  9
$DIMADEC
 70
     0
  9
$DIMALTRND
 40
0.0
  9
$DIMAZIN
 70
     0
  9
$DIMDSEP
 70
    46
  9
$DIMATFIT
 70
     3
  9
$DIMFRAC
 70
     0
  9
$DIMLDRBLK
  1

  9
$DIMLUNIT
 70
     2
  9
$DIMLWD
 70
    -2
  9
$DIMLWE
 70
    -2
  9
$DIMTMOVE
 70
     0
  9
$LUNITS
 70
     2
  9
$LUPREC
 70
     4
  9
$SKETCHINC
 40
0.1
  9
$FILLETRAD
 40
0.5
  9
$AUNITS
 70
     0
  9
$AUPREC
 70
     0
  9
$MENU
  1
.
  9
$ELEVATION
 40
0.0
  9
$PELEVATION
 40
0.0
  9
$THICKNESS
 40
0.0
  9
$LIMCHECK
 70
     0
  9
$CHAMFERA
 40
0.5
  9
$CHAMFERB
 40
0.5
  9
$CHAMFERC
 40
1.0
  9
$CHAMFERD
 40
0.0
  9
$SKPOLY
 70
     0
  9
$TDCREATE
 40
2454441.221410463
  9
$TDUCREATE
 40
2454441.554743796
  9
$TDUPDATE
 40
2454441.221410475
  9
$TDUUPDATE
 40
2454441.554743808
  9
$TDINDWG
 40
0.0000000116
  9
$TDUSRTIMER
 40
0.0000000116
  9
$USRTIMER
 70
     1
  9
$ANGBASE
 50
0.0
  9
$ANGDIR
 70
     0
  9
$PDMODE
 70
     0
  9
$PDSIZE
 40
-1.0
  9
$PLINEWID
 40
0.0
  9
$SPLFRAME
 70
     0
  9
$SPLINETYPE
 70
     6
  9
$SPLINESEGS
 70
     8
  9
$HANDSEED
  5
1E6
  9
$SURFTAB1
 70
     6
  9
$SURFTAB2
 70
     6
  9
$SURFTYPE
 70
     6
  9
$SURFU
 70
     6
  9
$SURFV
 70
     6
  9
$UCSBASE
  2

  9
$UCSNAME
  2

  9
$UCSORG
 10
0.0
 20
0.0
 30
0.0
  9
$UCSXDIR
 10
1.0
 20
0.0
 30
0.0
  9
$UCSYDIR
 10
0.0
 20
1.0
 30
0.0
  9
$UCSORTHOREF
  2

  9
$UCSORTHOVIEW
 70
     0
  9
$UCSORGTOP
 10
0.0
 20
0.0
 30
0.0
  9
$UCSORGBOTTOM
 10
0.0
 20
0.0
 30
0.0
  9
$UCSORGLEFT
 10
0.0
 20
0.0
 30
0.0
  9
$UCSORGRIGHT
 10
0.0
 20
0.0
 30
0.0
  9
$UCSORGFRONT
 10
0.0
 20
0.0
 30
0.0
  9
$UCSORGBACK
 10
0.0
 20
0.0
 30
0.0
  9
$PUCSBASE
  2

  9
$PUCSNAME
  2

  9
$PUCSORG
 10
0.0
 20
0.0
 30
0.0
  9
$PUCSXDIR
 10
1.0
 20
0.0
 30
0.0
  9
$PUCSYDIR
 10
0.0
 20
1.0
 30
0.0
  9
$PUCSORTHOREF
  2

  9
$PUCSORTHOVIEW
 70
     0
  9
$PUCSORGTOP
 10
0.0
 20
0.0
 30
0.0
  9
$PUCSORGBOTTOM
 10
0.0
 20
0.0
 30
0.0
  9
$PUCSORGLEFT
 10
0.0
 20
0.0
 30
0.0
  9
$PUCSORGRIGHT
 10
0.0
 20
0.0
 30
0.0
  9
$PUCSORGFRONT
 10
0.0
 20
0.0
 30
0.0
  9
$PUCSORGBACK
 10
0.0
 20
0.0
 30
0.0
  9
$USERI1
 70
     0
  9
$USERI2
 70
     0
  9
$USERI3
 70
     0
  9
$USERI4
 70
     0
  9
$USERI5
 70
     0
  9
$USERR1
 40
0.0
  9
$USERR2
 40
0.0
  9
$USERR3
 40
0.0
  9
$USERR4
 40
0.0
  9
$USERR5
 40
0.0
  9
$WORLDVIEW
 70
     1
  9
$SHADEDGE
 70
     3
  9
$SHADEDIF
 70
    70
  9
$TILEMODE
 70
     1
  9
$MAXACTVP
 70
    64
  9
$PINSBASE
 10
0.0
 20
0.0
 30
0.0
  9
$PLIMCHECK
 70
     0
  9
$PEXTMIN
 10
1.0000000000E+20
 20
1.0000000000E+20
 30
1.0000000000E+20
  9
$PEXTMAX
 10
-1.0000000000E+20
 20
-1.0000000000E+20
 30
-1.0000000000E+20
  9
$PLIMMIN
 10
0.0
 20
0.0
  9
$PLIMMAX
 10
12.0
 20
9.0
  9
$UNITMODE
 70
     0
  9
$VISRETAIN
 70
     1
  9
$PLINEGEN
 70
     0
  9
$PSLTSCALE
 70
     1
  9
$TREEDEPTH
 70
  3020
  9
$CMLSTYLE
  2
Standard
  9
$CMLJUST
 70
     0
  9
$CMLSCALE
 40
1.0
  9
$PROXYGRAPHICS
 70
     1
  9
$MEASUREMENT
 70
     0
  9
$CELWEIGHT
370
    -1
  9
$ENDCAPS
280
     0
  9
$JOINSTYLE
280
     0
  9
$LWDISPLAY
290
     1
  9
$INSUNITS
 70
     1
  9
$HYPERLINKBASE
  1

  9
$STYLESHEET
  1

  9
$XEDIT
290
     1
  9
$CEPSNTYPE
380
     0
  9
$PSTYLEMODE
290
     1
  9
$FINGERPRINTGUID
  2
{9A9C9756-033E-4708-9535-EE12DCD7E9BF}
  9
$VERSIONGUID
  2
{FAEB1C32-E019-11D5-929B-00C0DF256EC4}
  9
$EXTNAMES
290
     1
  9
$PSVPSCALE
 40
0.0
  9
$OLESTARTUP
290
     0
  0
ENDSEC
  0
SECTION
  2
CLASSES
  0
CLASS
  1
ACDBDICTIONARYWDFLT
  2
AcDbDictionaryWithDefault
  3
ObjectDBX Classes
 90
        0
280
     0
281
     0
  0
CLASS
  1
VISUALSTYLE
  2
AcDbVisualStyle
  3
ObjectDBX Classes
 90
     4095
280
     0
281
     0
  0
CLASS
  1
ACDBPLACEHOLDER
  2
AcDbPlaceHolder
  3
ObjectDBX Classes
 90
        0
280
     0
281
     0
  0
CLASS
  1
LAYOUT
  2
AcDbLayout
  3
ObjectDBX Classes
 90
        0
280
     0
281
     0
  0
ENDSEC
  0
SECTION
  2
TABLES
  0
TABLE
  2
VPORT
  5
8
330
0
100
AcDbSymbolTable
 70
     1
  0
VPORT
  5
29
330
8
100
AcDbSymbolTableRecord
100
AcDbViewportTableRecord
  2
*Active
 70
     0
 10
0.0
 20
0.0
 11
1.0
 21
1.0
 12
4.25
 22
5.5
 13
0.0
 23
0.0
 14
0.5
 24
0.5
 15
0.5
 25
0.5
 16
0.0
 26
0.0
 36
1.0
 17
0.0
 27
0.0
 37
0.0
 40
11.0
 41
0.7727272727
 42
50.0
 43
0.0
 44
0.0
 50
0.0
 51
0.0
 71
     0
 72
  2000
 73
     1
 74
     3
 75
     0
 76
     0
 77
     0
 78
     0
281
     0
 65
     1
110
0.0
120
0.0
130
0.0
111
1.0
121
0.0
131
0.0
112
0.0
122
1.0
132
0.0
 79
     0
146
0.0
  0
ENDTAB
  0
TABLE
  2
LTYPE
  5
5
330
0
100
AcDbSymbolTable
 70
     6
  0
LTYPE
  5
14
330
5
100
AcDbSymbolTableRecord
100
AcDbLinetypeTableRecord
  2
ByBlock
 70
     0
  3

 72
    65
 73
     0
 40
0.0
  0
LTYPE
  5
15
330
5
100
AcDbSymbolTableRecord
100
AcDbLinetypeTableRecord
  2
ByLayer
 70
     0
  3

 72
    65
 73
     0
 40
0.0
  0
LTYPE
  5
16
330
5
100
AcDbSymbolTableRecord
100
AcDbLinetypeTableRecord
  2
Continuous
 70
     0
  3
Solid line
 72
    65
 73
     0
 40
0.0
  0
LTYPE
  5
3B
330
5
100
AcDbSymbolTableRecord
100
AcDbLinetypeTableRecord
  2
HIDDEN
 70
     0
  3
Hidden __ __ __ __ __ __ __ __ __ __ __ __ __ __
 72
    65
 73
     2
 40
0.075
 49
0.05
 74
     0
 49
-0.025
 74
     0
  0
LTYPE
  5
3C
330
5
100
AcDbSymbolTableRecord
100
AcDbLinetypeTableRecord
  2
PHANTOM
 70
     0
  3
Phantom ______  __  __  ______  __  __  ______
 72
    65
 73
     6
 40
0.5
 49
0.25
 74
     0
 49
-0.05
 74
     0
 49
0.05
 74
     0
 49
-0.05
 74
     0
 49
0.05
 74
     0
 49
-0.05
 74
     0
  0
LTYPE
  5
3D
330
5
100
AcDbSymbolTableRecord
100
AcDbLinetypeTableRecord
  2
CENTER
 70
     0
  3
Center ____ _ ____ _ ____ _ ____ _ ____ _ ____
 72
    65
 73
     4
 40
0.4
 49
0.25
 74
     0
 49
-0.05
 74
     0
 49
0.05
 74
     0
 49
-0.05
 74
     0
  0
LTYPE
  5
3E
330
5
100
AcDbSymbolTableRecord
100
AcDbLinetypeTableRecord
  2
CENTERX2
 70
     0
  3
Center (2x) ________  __  ________  __  _____
 72
    65
 73
     4
 40
0.8
 49
0.5
 74
     0
 49
-0.1
 74
     0
 49
0.1
 74
     0
 49
-0.1
 74
     0
  0
LTYPE
  5
3F
330
5
100
AcDbSymbolTableRecord
100
AcDbLinetypeTableRecord
  2
DOT2
 70
     0
  3
Dot (.5x) ........................................
 72
    65
 73
     2
 40
0.025
 49
0.0
 74
     0
 49
-0.025
 74
     0
  0
ENDTAB
  0
TABLE
  2
LAYER
  5
2
330
0
100
AcDbSymbolTable
 70
    13
  0
LAYER
  5
10
330
2
100
AcDbSymbolTableRecord
100
AcDbLayerTableRecord
  2
0
 70
     0
 62
     7
  6
Continuous
370
    -3
390
F
  0
LAYER
  5
40
330
2
100
AcDbSymbolTableRecord
100
AcDbLayerTableRecord
  2
SLD-0
 70
     0
 62
   179
  6
Continuous
370
    -3
390
F
  0
LAYER
  5
41
330
2
100
AcDbSymbolTableRecord
100
AcDbLayerTableRecord
  2
2
 70
     0
 62
     2
  6
Continuous
370
    -3
390
F
  0
LAYER
  5
42
330
2
100
AcDbSymbolTableRecord
100
AcDbLayerTableRecord
  2
4
 70
     0
 62
     4
  6
Continuous
370
    -3
390
F
  0
LAYER
  5
43
330
2
100
AcDbSymbolTableRecord
100
AcDbLayerTableRecord
  2
99
 70
     0
 62
     1
  6
Continuous
370
    -3
390
F
  0
LAYER
  5
44
330
2
100
AcDbSymbolTableRecord
100
AcDbLayerTableRecord
  2
TRMODEL1
 70
     0
 62
   179
  6
Continuous
370
    -3
390
F
  0
LAYER
  5
45
330
2
100
AcDbSymbolTableRecord
100
AcDbLayerTableRecord
  2
TRMODEL2
 70
     0
 62
     3
  6
Continuous
370
    -3
390
F
  0
LAYER
  5
46
330
2
100
AcDbSymbolTableRecord
100
AcDbLayerTableRecord
  2
TRMODEL3
 70
     0
 62
     1
  6
HIDDEN
370
    -3
390
F
  0
LAYER
  5
47
330
2
100
AcDbSymbolTableRecord
100
AcDbLayerTableRecord
  2
TRDIM
 70
     0
 62
     3
  6
Continuous
370
    -3
390
F
  0
LAYER
  5
48
330
2
100
AcDbSymbolTableRecord
100
AcDbLayerTableRecord
  2
TRDETAIL1
 70
     0
 62
     1
  6
Continuous
370
    -3
390
F
  0
LAYER
  5
49
330
2
100
AcDbSymbolTableRecord
100
AcDbLayerTableRecord
  2
TRDETAIL2
 70
     0
 62
     6
  6
HIDDEN
370
    -3
390
F
  0
LAYER
  5
4A
330
2
100
AcDbSymbolTableRecord
100
AcDbLayerTableRecord
  2
TRDETAIL3
 70
     0
 62
     4
  6
CENTERX2
370
    -3
390
F
  0
LAYER
  5
4B
330
2
100
AcDbSymbolTableRecord
100
AcDbLayerTableRecord
  2
TRTEXT
 70
     0
 62
   179
  6
Continuous
370
    -3
390
F
  0
ENDTAB
  0
TABLE
  2
STYLE
  5
3
330
0
100
AcDbSymbolTable
 70
     2
  0
STYLE
  5
11
330
3
100
AcDbSymbolTableRecord
100
AcDbTextStyleTableRecord
  2
Standard
 70
     0
 40
0.0
 41
1.0
 50
0.0
 71
     0
 42
0.2
  3
txt
  4

  0
STYLE
  5
1DE
330
3
100
AcDbSymbolTableRecord
100
AcDbTextStyleTableRecord
  2
SLDTEXTSTYLE0
 70
     0
 40
0.0
 41
0.7
 50
0.0
 71
     0
 42
0.2
  3
TXT
  4

  0
ENDTAB
  0
TABLE
  2
VIEW
  5
6
330
0
100
AcDbSymbolTable
 70
     0
  0
ENDTAB
  0
TABLE
  2
UCS
  5
7
330
0
100
AcDbSymbolTable
 70
     0
  0
ENDTAB
  0
TABLE
  2
APPID
  5
9
330
0
100
AcDbSymbolTable
 70
     1
  0
APPID
  5
12
330
9
100
AcDbSymbolTableRecord
100
AcDbRegAppTableRecord
  2
ACAD
 70
     0
  0
ENDTAB
  0
TABLE
  2
DIMSTYLE
  5
A
330
0
100
AcDbSymbolTable
 70
     1
100
AcDbDimStyleTable
  0
DIMSTYLE
105
27
330
A
100
AcDbSymbolTableRecord
100
AcDbDimStyleTableRecord
  2
Standard
 70
     0
340
11
  0
ENDTAB
  0
TABLE
  2
BLOCK_RECORD
  5
1
330
0
100
AcDbSymbolTable
 70
     1
  0
BLOCK_RECORD
  5
1F
330
1
100
AcDbSymbolTableRecord
100
AcDbBlockTableRecord
  2
*Model_Space
340
22
  0
BLOCK_RECORD
  5
1B
330
1
100
AcDbSymbolTableRecord
100
AcDbBlockTableRecord
  2
*Paper_Space
340
1E
  0
BLOCK_RECORD
  5
23
330
1
100
AcDbSymbolTableRecord
100
AcDbBlockTableRecord
  2
*Paper_Space0
340
26
  0
ENDTAB
  0
ENDSEC
  0
SECTION
  2
BLOCKS
  0
BLOCK
  5
20
330
1F
100
AcDbEntity
  8
0
100
AcDbBlockBegin
  2
*Model_Space
 70
     0
 71
     0
 10
0.0
 20
0.0
 30
0.0
  3
*Model_Space
  1

  0
ENDBLK
  5
21
330
1F
100
AcDbEntity
  8
0
100
AcDbBlockEnd
  0
BLOCK
  5
1C
330
1B
100
AcDbEntity
 67
     1
  8
0
100
AcDbBlockBegin
  2
*Paper_Space
 70
     0
 71
     0
 10
0.0
 20
0.0
 30
0.0
  3
*Paper_Space
  1

  0
ENDBLK
  5
1D
330
1B
100
AcDbEntity
 67
     1
  8
0
100
AcDbBlockEnd
  0
BLOCK
  5
24
330
23
100
AcDbEntity
  8
0
100
AcDbBlockBegin
  2
*Paper_Space0
 70
     0
 71
     0
 10
0.0
 20
0.0
 30
0.0
  3
*Paper_Space0
  1

  0
ENDBLK
  5
25
330
23
100
AcDbEntity
  8
0
100
AcDbBlockEnd
  0
ENDSEC
  0
SECTION
  2
ENTITIES
  0
LINE
  5
4C
330
1F
100
AcDbEntity
  8
TRMODEL1
  6
Continuous
 62
     2
100
AcDbLine
 10
7.7293565008
 20
8.3039452293
 30
0.0
 11
7.439332235
 21
8.0967850395
 31
0.0
  0
LINE
  5
4D
330
1F
100
AcDbEntity
  8
TRMODEL1
  6
Continuous
 62
     2
100
AcDbLine
 10
7.439332235
 20
8.0967850395
 30
0.0
 11
7.6464924248
 21
8.3868093052
 31
0.0
  0
LINE
  5
4E
330
1F
100
AcDbEntity
  8
TRMODEL1
  6
Continuous
 62
     2
100
AcDbLine
 10
7.6464924248
 20
8.3868093052
 30
0.0
 11
7.7293565008
 21
8.3039452293
 31
0.0
  0
LINE
  5
4F
330
1F
100
AcDbEntity
  8
TRMODEL1
  6
Continuous
 62
     2
100
AcDbLine
 10
6.5549368603
 20
4.5217489533
 30
0.0
 11
4.6310770961
 21
4.5217489533
 31
0.0
  0
LINE
  5
50
330
1F
100
AcDbEntity
  8
TRMODEL1
  6
Continuous
 62
     2
100
AcDbLine
 10
6.4998783878
 20
7.6767766953
 30
0.0
 11
6.1248783878
 21
8.0517766953
 31
0.0
  0
LINE
  5
51
330
1F
100
AcDbEntity
  8
TRMODEL1
  6
Continuous
 62
     2
100
AcDbLine
 10
6.3231016925
 20
7.6767766953
 30
0.0
 11
5.9481016925
 21
8.0517766953
 31
0.0
  0
LINE
  5
52
330
1F
100
AcDbEntity
  8
TRMODEL1
  6
Continuous
 62
     2
100
AcDbLine
 10
6.52348049
 20
0.0517766953
 30
0.0
 11
6.14848049
 21
0.4267766953
 31
0.0
  0
LINE
  5
53
330
1F
100
AcDbEntity
  8
TRMODEL1
  6
Continuous
 62
     2
100
AcDbLine
 10
6.3467037947
 20
0.0517766953
 30
0.0
 11
5.9717037947
 21
0.4267766953
 31
0.0
  0
LINE
  5
54
330
1F
100
AcDbEntity
  8
TRMODEL1
  6
Continuous
 62
     2
100
AcDbLine
 10
6.231614818
 20
5.7559766953
 30
0.0
 11
6.1995453127
 21
5.8017766953
 31
0.0
  0
LINE
  5
55
330
1F
100
AcDbEntity
  8
TRMODEL1
  6
Continuous
 62
     2
100
AcDbLine
 10
6.231614818
 20
2.7559766953
 30
0.0
 11
6.1995453127
 21
2.8017766953
 31
0.0
  0
LINE
  5
56
330
1F
100
AcDbEntity
  8
TRMODEL1
  6
Continuous
 62
     2
100
AcDbLine
 10
6.1995453127
 20
2.3017766953
 30
0.0
 11
6.231614818
 21
2.3475766953
 31
0.0
  0
LINE
  5
57
330
1F
100
AcDbEntity
  8
TRMODEL1
  6
Continuous
 62
     2
100
AcDbLine
 10
6.1995453127
 20
5.3017766953
 30
0.0
 11
6.231614818
 21
5.3475766953
 31
0.0
  0
LINE
  5
58
330
1F
100
AcDbEntity
  8
TRMODEL1
  6
Continuous
 62
     4
100
AcDbLine
 10
7.3617458525
 20
7.5517766953
 30
0.0
 11
7.3617458525
 21
0.5517766953
 31
0.0
  0
LINE
  5
59
330
1F
100
AcDbEntity
  8
TRMODEL1
  6
Continuous
 62
     4
100
AcDbLine
 10
7.2367458525
 20
0.4267766953
 30
0.0
 11
5.5994863261
 21
0.4267766953
 31
0.0
  0
LINE
  5
5A
330
1F
100
AcDbEntity
  8
TRMODEL1
  6
Continuous
 62
     4
100
AcDbLine
 10
5.5994863261
 20
0.0517766953
 30
0.0
 11
7.4867458525
 21
0.0517766953
 31
0.0
  0
LINE
  5
5B
330
1F
100
AcDbEntity
  8
TRMODEL1
  6
Continuous
 62
     4
100
AcDbLine
 10
7.7367458525
 20
0.3017766953
 30
0.0
 11
7.7367458525
 21
7.8017766953
 31
0.0
  0
LINE
  5
5C
330
1F
100
AcDbEntity
  8
TRMODEL1
  6
Continuous
 62
     4
100
AcDbLine
 10
7.4867458525
 20
8.0517766953
 30
0.0
 11
5.5994863261
 21
8.0517766953
 31
0.0
  0
LINE
  5
5D
330
1F
100
AcDbEntity
  8
TRMODEL1
  6
Continuous
 62
     4
100
AcDbLine
 10
5.5994863261
 20
7.6767766953
 30
0.0
 11
7.2367458525
 21
7.6767766953
 31
0.0
  0
LINE
  5
5E
330
1F
100
AcDbEntity
  8
TRMODEL1
  6
Continuous
 62
     2
100
AcDbLine
 10
6.1699270994
 20
0.0517766953
 30
0.0
 11
5.7949270994
 21
0.4267766953
 31
0.0
  0
LINE
  5
5F
330
1F
100
AcDbEntity
  8
TRMODEL1
  6
Continuous
 62
     2
100
AcDbLine
 10
5.9931504041
 20
0.0517766953
 30
0.0
 11
5.6181504041
 21
0.4267766953
 31
0.0
  0
LINE
  5
60
330
1F
100
AcDbEntity
  8
TRMODEL1
  6
Continuous
 62
     2
100
AcDbLine
 10
5.8163737088
 20
0.0517766953
 30
0.0
 11
5.5563296188
 21
0.3118207853
 31
0.0
  0
LINE
  5
61
330
1F
100
AcDbEntity
  8
TRMODEL1
  6
Continuous
 62
     2
100
AcDbLine
 10
5.6395970135
 20
0.0517766953
 30
0.0
 11
5.5674180957
 21
0.1239556132
 31
0.0
  0
LINE
  5
62
330
1F
100
AcDbEntity
  8
TRMODEL1
  6
Continuous
 62
     2
100
AcDbLine
 10
6.0817458525
 20
2.7559766953
 30
0.0
 11
6.0817458525
 21
2.6962616082
 31
0.0
  0
LINE
  5
63
330
1F
100
AcDbEntity
  8
TRMODEL1
  6
Continuous
 62
     2
100
AcDbLine
 10
6.0817458525
 20
2.6962616082
 30
0.0
 11
6.0817458525
 21
2.3475766953
 31
0.0
  0
LINE
  5
64
330
1F
100
AcDbEntity
  8
TRMODEL1
  6
Continuous
 62
     2
100
AcDbLine
 10
6.1258195794
 20
2.3035029684
 30
0.0
 11
6.1258195794
 21
2.3763346672
 31
0.0
  0
LINE
  5
65
330
1F
100
AcDbEntity
  8
TRMODEL1
  6
Continuous
 62
     2
100
AcDbLine
 10
6.1258195794
 20
2.3763346672
 30
0.0
 11
6.1258195794
 21
2.8000504222
 31
0.0
  0
LINE
  5
66
330
1F
100
AcDbEntity
  8
TRMODEL1
  6
Continuous
 62
     2
100
AcDbLine
 10
6.1887498405
 20
2.8017766953
 30
0.0
 11
6.1887498405
 21
2.3017766953
 31
0.0
  0
LINE
  5
67
330
1F
100
AcDbEntity
  8
TRMODEL1
  6
Continuous
 62
     2
100
AcDbLine
 10
6.1995453127
 20
2.8017766953
 30
0.0
 11
6.1995453127
 21
2.3017766953
 31
0.0
  0
LINE
  5
68
330
1F
100
AcDbEntity
  8
TRMODEL1
  6
Continuous
 62
     2
100
AcDbLine
 10
6.1566803352
 20
2.7559766953
 30
0.0
 11
6.1566803352
 21
2.3475766953
 31
0.0
  0
LINE
  5
69
330
1F
100
AcDbEntity
  8
TRMODEL1
  6
Continuous
 62
     2
100
AcDbLine
 10
6.0817458525
 20
2.3475766953
 30
0.0
 11
6.1258195794
 21
2.3035029684
 31
0.0
  0
LINE
  5
6A
330
1F
100
AcDbEntity
  8
TRMODEL1
  6
Continuous
 62
     2
100
AcDbLine
 10
6.1258195794
 20
2.8000504222
 30
0.0
 11
6.0817458525
 21
2.7559766953
 31
0.0
  0
LINE
  5
6B
330
1F
100
AcDbEntity
  8
TRMODEL1
  6
Continuous
 62
     2
100
AcDbLine
 10
6.1566803352
 20
2.7559766953
 30
0.0
 11
6.1258195794
 21
2.8000504222
 31
0.0
  0
LINE
  5
6C
330
1F
100
AcDbEntity
  8
TRMODEL1
  6
Continuous
 62
     2
100
AcDbLine
 10
6.1258195794
 20
2.3035029684
 30
0.0
 11
6.1566803352
 21
2.3475766953
 31
0.0
  0
LINE
  5
6D
330
1F
100
AcDbEntity
  8
TRMODEL1
  6
Continuous
 62
     2
100
AcDbLine
 10
6.1887498405
 20
2.3017766953
 30
0.0
 11
6.1995453127
 21
2.3017766953
 31
0.0
  0
LINE
  5
6E
330
1F
100
AcDbEntity
  8
TRMODEL1
  6
Continuous
 62
     2
100
AcDbLine
 10
6.1995453127
 20
2.8017766953
 30
0.0
 11
6.1887498405
 21
2.8017766953
 31
0.0
  0
LINE
  5
6F
330
1F
100
AcDbEntity
  8
TRMODEL1
  6
Continuous
 62
     2
100
AcDbLine
 10
6.1566803352
 20
2.3475766953
 30
0.0
 11
6.1887498405
 21
2.3017766953
 31
0.0
  0
LINE
  5
70
330
1F
100
AcDbEntity
  8
TRMODEL1
  6
Continuous
 62
     2
100
AcDbLine
 10
6.1887498405
 20
2.8017766953
 30
0.0
 11
6.1566803352
 21
2.7559766953
 31
0.0
  0
LINE
  5
71
330
1F
100
AcDbEntity
  8
TRMODEL1
  6
Continuous
 62
     2
100
AcDbLine
 10
6.0817458525
 20
5.7559766953
 30
0.0
 11
6.0817458525
 21
5.6962616082
 31
0.0
  0
LINE
  5
72
330
1F
100
AcDbEntity
  8
TRMODEL1
  6
Continuous
 62
     2
100
AcDbLine
 10
6.1258195794
 20
5.8000504222
 30
0.0
 11
6.0817458525
 21
5.7559766953
 31
0.0
  0
LINE
  5
73
330
1F
100
AcDbEntity
  8
TRMODEL1
  6
Continuous
 62
     2
100
AcDbLine
 10
6.1566803352
 20
5.7559766953
 30
0.0
 11
6.1258195794
 21
5.8000504222
 31
0.0
  0
LINE
  5
74
330
1F
100
AcDbEntity
  8
TRMODEL1
  6
Continuous
 62
     2
100
AcDbLine
 10
6.1887498405
 20
5.8017766953
 30
0.0
 11
6.1566803352
 21
5.7559766953
 31
0.0
  0
LINE
  5
75
330
1F
100
AcDbEntity
  8
TRMODEL1
  6
Continuous
 62
     2
100
AcDbLine
 10
6.1995453127
 20
5.8017766953
 30
0.0
 11
6.1887498405
 21
5.8017766953
 31
0.0
  0
LINE
  5
76
330
1F
100
AcDbEntity
  8
TRMODEL1
  6
Continuous
 62
     2
100
AcDbLine
 10
6.1258195794
 20
5.3035029684
 30
0.0
 11
6.1258195794
 21
5.3763346672
 31
0.0
  0
LINE
  5
77
330
1F
100
AcDbEntity
  8
TRMODEL1
  6
Continuous
 62
     2
100
AcDbLine
 10
6.0817458525
 20
5.3475766953
 30
0.0
 11
6.1258195794
 21
5.3035029684
 31
0.0
  0
LINE
  5
78
330
1F
100
AcDbEntity
  8
TRMODEL1
  6
Continuous
 62
     2
100
AcDbLine
 10
6.1258195794
 20
5.3035029684
 30
0.0
 11
6.1566803352
 21
5.3475766953
 31
0.0
  0
LINE
  5
79
330
1F
100
AcDbEntity
  8
TRMODEL1
  6
Continuous
 62
     2
100
AcDbLine
 10
6.1566803352
 20
5.3475766953
 30
0.0
 11
6.1887498405
 21
5.3017766953
 31
0.0
  0
LINE
  5
7A
330
1F
100
AcDbEntity
  8
TRMODEL1
  6
Continuous
 62
     2
100
AcDbLine
 10
6.1887498405
 20
5.3017766953
 30
0.0
 11
6.1995453127
 21
5.3017766953
 31
0.0
  0
LINE
  5
7B
330
1F
100
AcDbEntity
  8
TRMODEL1
  6
Continuous
 62
     2
100
AcDbLine
 10
6.0817458525
 20
5.6962616082
 30
0.0
 11
6.0817458525
 21
5.3475766953
 31
0.0
  0
LINE
  5
7C
330
1F
100
AcDbEntity
  8
TRMODEL1
  6
Continuous
 62
     2
100
AcDbLine
 10
6.1258195794
 20
5.3763346672
 30
0.0
 11
6.1258195794
 21
5.8000504222
 31
0.0
  0
LINE
  5
7D
330
1F
100
AcDbEntity
  8
TRMODEL1
  6
Continuous
 62
     2
100
AcDbLine
 10
6.1566803352
 20
5.7559766953
 30
0.0
 11
6.1566803352
 21
5.3475766953
 31
0.0
  0
LINE
  5
7E
330
1F
100
AcDbEntity
  8
TRMODEL1
  6
Continuous
 62
     2
100
AcDbLine
 10
6.1887498405
 20
5.8017766953
 30
0.0
 11
6.1887498405
 21
5.3017766953
 31
0.0
  0
LINE
  5
7F
330
1F
100
AcDbEntity
  8
TRMODEL1
  6
Continuous
 62
     2
100
AcDbLine
 10
6.1995453127
 20
5.8017766953
 30
0.0
 11
6.1995453127
 21
5.3017766953
 31
0.0
  0
LINE
  5
80
330
1F
100
AcDbEntity
  8
TRMODEL1
  6
Continuous
 62
     2
100
AcDbLine
 10
6.1463249972
 20
7.6767766953
 30
0.0
 11
5.7713249972
 21
8.0517766953
 31
0.0
  0
LINE
  5
81
330
1F
100
AcDbEntity
  8
TRMODEL1
  6
Continuous
 62
     2
100
AcDbLine
 10
5.9695483019
 20
7.6767766953
 30
0.0
 11
5.5976916718
 21
8.0486333254
 31
0.0
  0
LINE
  5
82
330
1F
100
AcDbEntity
  8
TRMODEL1
  6
Continuous
 62
     2
100
AcDbLine
 10
5.7927716066
 20
7.6767766953
 30
0.0
 11
5.5529183235
 21
7.9166299784
 31
0.0
  0
LINE
  5
83
330
1F
100
AcDbEntity
  8
TRMODEL1
  6
Continuous
 62
     2
100
AcDbLine
 10
5.6159949113
 20
7.6767766953
 30
0.0
 11
5.5821883715
 21
7.7105832351
 31
0.0
  0
LINE
  5
84
330
1F
100
AcDbEntity
  8
TRMODEL1
  6
Continuous
 62
     2
100
AcDbLine
 10
7.7873267648
 20
0.8642766953
 30
0.0
 11
8.2367458525
 21
1.313695783
 31
0.0
  0
LINE
  5
85
330
1F
100
AcDbEntity
  8
TRMODEL1
  6
Continuous
 62
     2
100
AcDbLine
 10
7.7367458525
 20
0.9904724783
 30
0.0
 11
8.2367458525
 21
1.4904724783
 31
0.0
  0
LINE
  5
86
330
1F
100
AcDbEntity
  8
TRMODEL1
  6
Continuous
 62
     2
100
AcDbLine
 10
7.7367458525
 20
1.1672491736
 30
0.0
 11
8.2367458525
 21
1.6672491736
 31
0.0
  0
LINE
  5
87
330
1F
100
AcDbEntity
  8
TRMODEL1
  6
Continuous
 62
     2
100
AcDbLine
 10
6.9034432883
 20
0.8642766953
 30
0.0
 11
7.3617458525
 21
1.3225792594
 31
0.0
  0
LINE
  5
88
330
1F
100
AcDbEntity
  8
TRMODEL1
  6
Continuous
 62
     2
100
AcDbLine
 10
6.8617458525
 20
0.9993559547
 30
0.0
 11
7.3617458525
 21
1.4993559547
 31
0.0
  0
LINE
  5
89
330
1F
100
AcDbEntity
  8
TRMODEL1
  6
Continuous
 62
     2
100
AcDbLine
 10
6.8617458525
 20
1.17613265
 30
0.0
 11
7.3617458525
 21
1.67613265
 31
0.0
  0
LINE
  5
8A
330
1F
100
AcDbEntity
  8
TRMODEL1
  6
Continuous
 62
     2
100
AcDbLine
 10
7.7367458525
 20
1.1366083717
 30
0.0
 11
7.3617458525
 21
1.5116083717
 31
0.0
  0
LINE
  5
8B
330
1F
100
AcDbEntity
  8
TRMODEL1
  6
Continuous
 62
     2
100
AcDbLine
 10
7.7367458525
 20
0.9598316764
 30
0.0
 11
7.3617458525
 21
1.3348316764
 31
0.0
  0
LINE
  5
8C
330
1F
100
AcDbEntity
  8
TRMODEL1
  6
Continuous
 62
     4
100
AcDbLine
 10
6.8617458525
 20
0.8642766953
 30
0.0
 11
6.8617458525
 21
7.2392766953
 31
0.0
  0
LINE
  5
8D
330
1F
100
AcDbEntity
  8
TRMODEL1
  6
Continuous
 62
     4
100
AcDbLine
 10
8.2367458525
 20
0.8642766953
 30
0.0
 11
8.2367458525
 21
7.2392766953
 31
0.0
  0
LINE
  5
8E
330
1F
100
AcDbEntity
  8
TRMODEL1
  6
Continuous
 62
     2
100
AcDbLine
 10
8.1408801554
 20
0.8642766953
 30
0.0
 11
8.2367458525
 21
0.9601423924
 31
0.0
  0
LINE
  5
8F
330
1F
100
AcDbEntity
  8
TRMODEL1
  6
Continuous
 62
     2
100
AcDbLine
 10
7.9641034601
 20
0.8642766953
 30
0.0
 11
8.2367458525
 21
1.1369190877
 31
0.0
  0
LINE
  5
90
330
1F
100
AcDbEntity
  8
TRMODEL1
  6
Continuous
 62
     2
100
AcDbLine
 10
7.2569966789
 20
0.8642766953
 30
0.0
 11
7.3617458525
 21
0.9690258689
 31
0.0
  0
LINE
  5
91
330
1F
100
AcDbEntity
  8
TRMODEL1
  6
Continuous
 62
     2
100
AcDbLine
 10
7.0802199836
 20
0.8642766953
 30
0.0
 11
7.3617458525
 21
1.1458025641
 31
0.0
  0
LINE
  5
92
330
1F
100
AcDbEntity
  8
TRMODEL1
  6
Continuous
 62
     2
100
AcDbLine
 10
7.7367458525
 20
0.7830549811
 30
0.0
 11
7.3617458525
 21
1.1580549811
 31
0.0
  0
LINE
  5
93
330
1F
100
AcDbEntity
  8
TRMODEL1
  6
Continuous
 62
     2
100
AcDbLine
 10
7.7367458525
 20
0.6062782858
 30
0.0
 11
7.3617458525
 21
0.9812782858
 31
0.0
  0
LINE
  5
94
330
1F
100
AcDbEntity
  8
TRMODEL1
  6
Continuous
 62
     2
100
AcDbLine
 10
7.7367458525
 20
0.4295015905
 30
0.0
 11
7.3617458525
 21
0.8045015905
 31
0.0
  0
LINE
  5
95
330
1F
100
AcDbEntity
  8
TRMODEL1
  6
Continuous
 62
     2
100
AcDbLine
 10
7.7326673836
 20
0.2568033641
 30
0.0
 11
7.3617458525
 21
0.6277248952
 31
0.0
  0
LINE
  5
96
330
1F
100
AcDbEntity
  8
TRMODEL1
  6
Continuous
 62
     2
100
AcDbLine
 10
7.6751946808
 20
0.1374993716
 30
0.0
 11
7.3363897831
 21
0.4763042693
 31
0.0
  0
LINE
  5
97
330
1F
100
AcDbEntity
  8
TRMODEL1
  6
Continuous
 62
     2
100
AcDbLine
 10
7.5699045814
 20
0.0660127757
 30
0.0
 11
7.2091406618
 21
0.4267766953
 31
0.0
  0
LINE
  5
98
330
1F
100
AcDbEntity
  8
TRMODEL1
  6
Continuous
 62
     2
100
AcDbLine
 10
7.4073639665
 20
0.0517766953
 30
0.0
 11
7.0323639665
 21
0.4267766953
 31
0.0
  0
LINE
  5
99
330
1F
100
AcDbEntity
  8
TRMODEL1
  6
Continuous
 62
     2
100
AcDbLine
 10
7.2305872712
 20
0.0517766953
 30
0.0
 11
6.8555872712
 21
0.4267766953
 31
0.0
  0
LINE
  5
9A
330
1F
100
AcDbEntity
  8
TRMODEL1
  6
Continuous
 62
     2
100
AcDbLine
 10
7.0538105759
 20
0.0517766953
 30
0.0
 11
6.6788105759
 21
0.4267766953
 31
0.0
  0
LINE
  5
9B
330
1F
100
AcDbEntity
  8
TRMODEL1
  6
Continuous
 62
     2
100
AcDbLine
 10
6.8770338806
 20
0.0517766953
 30
0.0
 11
6.5020338806
 21
0.4267766953
 31
0.0
  0
LINE
  5
9C
330
1F
100
AcDbEntity
  8
TRMODEL1
  6
Continuous
 62
     2
100
AcDbLine
 10
6.7002571853
 20
0.0517766953
 30
0.0
 11
6.3252571853
 21
0.4267766953
 31
0.0
  0
LINE
  5
9D
330
1F
100
AcDbEntity
  8
TRMODEL1
  6
Continuous
 62
     4
100
AcDbLine
 10
7.7367458525
 20
0.8642766953
 30
0.0
 11
8.2367458525
 21
0.8642766953
 31
0.0
  0
LINE
  5
9E
330
1F
100
AcDbEntity
  8
TRMODEL1
  6
Continuous
 62
     4
100
AcDbLine
 10
6.8617458525
 20
0.8642766953
 30
0.0
 11
7.3617458525
 21
0.8642766953
 31
0.0
  0
LINE
  5
9F
330
1F
100
AcDbEntity
  8
TRMODEL1
  6
Continuous
 62
     2
100
AcDbLine
 10
7.7367458525
 20
4.3492296889
 30
0.0
 11
8.2367458525
 21
4.8492296889
 31
0.0
  0
LINE
  5
A0
330
1F
100
AcDbEntity
  8
TRMODEL1
  6
Continuous
 62
     2
100
AcDbLine
 10
7.7367458525
 20
4.5260063842
 30
0.0
 11
8.2367458525
 21
5.0260063842
 31
0.0
  0
LINE
  5
A1
330
1F
100
AcDbEntity
  8
TRMODEL1
  6
Continuous
 62
     2
100
AcDbLine
 10
7.7367458525
 20
4.7027830795
 30
0.0
 11
8.2367458525
 21
5.2027830795
 31
0.0
  0
LINE
  5
A2
330
1F
100
AcDbEntity
  8
TRMODEL1
  6
Continuous
 62
     2
100
AcDbLine
 10
6.8617458525
 20
4.3581131654
 30
0.0
 11
7.3617458525
 21
4.8581131654
 31
0.0
  0
LINE
  5
A3
330
1F
100
AcDbEntity
  8
TRMODEL1
  6
Continuous
 62
     2
100
AcDbLine
 10
6.8617458525
 20
4.5348898607
 30
0.0
 11
7.3617458525
 21
5.0348898607
 31
0.0
  0
LINE
  5
A4
330
1F
100
AcDbEntity
  8
TRMODEL1
  6
Continuous
 62
     2
100
AcDbLine
 10
6.8617458525
 20
4.711666556
 30
0.0
 11
7.3617458525
 21
5.211666556
 31
0.0
  0
LINE
  5
A5
330
1F
100
AcDbEntity
  8
TRMODEL1
  6
Continuous
 62
     2
100
AcDbLine
 10
7.7367458525
 20
4.6721422776
 30
0.0
 11
7.3617458525
 21
5.0471422776
 31
0.0
  0
LINE
  5
A6
330
1F
100
AcDbEntity
  8
TRMODEL1
  6
Continuous
 62
     2
100
AcDbLine
 10
7.7367458525
 20
4.4953655824
 30
0.0
 11
7.3617458525
 21
4.8703655824
 31
0.0
  0
LINE
  5
A7
330
1F
100
AcDbEntity
  8
TRMODEL1
  6
Continuous
 62
     2
100
AcDbLine
 10
7.7367458525
 20
2.5814627359
 30
0.0
 11
8.2367458525
 21
3.0814627359
 31
0.0
  0
LINE
  5
A8
330
1F
100
AcDbEntity
  8
TRMODEL1
  6
Continuous
 62
     2
100
AcDbLine
 10
7.7367458525
 20
2.7582394312
 30
0.0
 11
8.2367458525
 21
3.2582394312
 31
0.0
  0
LINE
  5
A9
330
1F
100
AcDbEntity
  8
TRMODEL1
  6
Continuous
 62
     2
100
AcDbLine
 10
7.7367458525
 20
2.9350161265
 30
0.0
 11
8.2367458525
 21
3.4350161265
 31
0.0
  0
LINE
  5
AA
330
1F
100
AcDbEntity
  8
TRMODEL1
  6
Continuous
 62
     2
100
AcDbLine
 10
6.8617458525
 20
2.5903462124
 30
0.0
 11
7.3617458525
 21
3.0903462124
 31
0.0
  0
LINE
  5
AB
330
1F
100
AcDbEntity
  8
TRMODEL1
  6
Continuous
 62
     2
100
AcDbLine
 10
6.8617458525
 20
2.7671229077
 30
0.0
 11
7.3617458525
 21
3.2671229077
 31
0.0
  0
LINE
  5
AC
330
1F
100
AcDbEntity
  8
TRMODEL1
  6
Continuous
 62
     2
100
AcDbLine
 10
6.8617458525
 20
2.943899603
 30
0.0
 11
7.3617458525
 21
3.443899603
 31
0.0
  0
LINE
  5
AD
330
1F
100
AcDbEntity
  8
TRMODEL1
  6
Continuous
 62
     2
100
AcDbLine
 10
7.7367458525
 20
2.9043753247
 30
0.0
 11
7.3617458525
 21
3.2793753247
 31
0.0
  0
LINE
  5
AE
330
1F
100
AcDbEntity
  8
TRMODEL1
  6
Continuous
 62
     2
100
AcDbLine
 10
7.7367458525
 20
2.7275986294
 30
0.0
 11
7.3617458525
 21
3.1025986294
 31
0.0
  0
LINE
  5
AF
330
1F
100
AcDbEntity
  8
TRMODEL1
  6
Continuous
 62
     2
100
AcDbLine
 10
8.3317458525
 20
3.0827766953
 30
0.0
 11
8.3317458525
 21
2.9274940742
 31
0.0
  0
LINE
  5
B0
330
1F
100
AcDbEntity
  8
TRMODEL1
  6
Continuous
 62
     2
100
AcDbLine
 10
6.3687458525
 20
2.9847893972
 30
0.0
 11
6.3334100177
 21
2.9336547371
 31
0.0
  0
LINE
  5
B1
330
1F
100
AcDbEntity
  8
TRMODEL1
  6
Continuous
 62
     2
100
AcDbLine
 10
6.3334100177
 20
2.9336547371
 30
0.0
 11
6.3187565764
 21
2.8780636405
 31
0.0
  0
LINE
  5
B2
330
1F
100
AcDbEntity
  8
TRMODEL1
  6
Continuous
 62
     2
100
AcDbLine
 10
6.3187565764
 20
2.8780636405
 30
0.0
 11
6.3187458525
 21
2.8765362217
 31
0.0
  0
LINE
  5
B3
330
1F
100
AcDbEntity
  8
TRMODEL1
  6
Continuous
 62
     2
100
AcDbLine
 10
6.7167458525
 20
2.9847893972
 30
0.0
 11
6.7520816873
 21
2.9336547371
 31
0.0
  0
LINE
  5
B4
330
1F
100
AcDbEntity
  8
TRMODEL1
  6
Continuous
 62
     2
100
AcDbLine
 10
6.7520816873
 20
2.9336547371
 30
0.0
 11
6.7667351285
 21
2.8780636405
 31
0.0
  0
LINE
  5
B5
330
1F
100
AcDbEntity
  8
TRMODEL1
  6
Continuous
 62
     2
100
AcDbLine
 10
6.7667351285
 20
2.8780636405
 30
0.0
 11
6.7667458525
 21
2.8765362217
 31
0.0
  0
LINE
  5
B6
330
1F
100
AcDbEntity
  8
TRMODEL1
  6
Continuous
 62
     2
100
AcDbLine
 10
6.7667458525
 20
2.3484474517
 30
0.0
 11
6.7667458525
 21
3.0827766953
 31
0.0
  0
LINE
  5
B7
330
1F
100
AcDbEntity
  8
TRMODEL1
  6
Continuous
 62
     2
100
AcDbLine
 10
6.3687458525
 20
2.9847893972
 30
0.0
 11
6.3187458525
 21
2.9267766953
 31
0.0
  0
LINE
  5
B8
330
1F
100
AcDbEntity
  8
TRMODEL1
  6
Continuous
 62
     2
100
AcDbLine
 10
6.7667458525
 20
2.9267766953
 30
0.0
 11
6.7167458525
 21
2.9847893972
 31
0.0
  0
LINE
  5
B9
330
1F
100
AcDbEntity
  8
TRMODEL1
  6
Continuous
 62
     2
100
AcDbLine
 10
7.7367458525
 20
1.3440258689
 30
0.0
 11
8.2367458525
 21
1.8440258689
 31
0.0
  0
LINE
  5
BA
330
1F
100
AcDbEntity
  8
TRMODEL1
  6
Continuous
 62
     2
100
AcDbLine
 10
7.7367458525
 20
1.5208025641
 30
0.0
 11
8.2367458525
 21
2.0208025641
 31
0.0
  0
LINE
  5
BB
330
1F
100
AcDbEntity
  8
TRMODEL1
  6
Continuous
 62
     2
100
AcDbLine
 10
7.7367458525
 20
1.6975792594
 30
0.0
 11
8.2367458525
 21
2.1975792594
 31
0.0
  0
LINE
  5
BC
330
1F
100
AcDbEntity
  8
TRMODEL1
  6
Continuous
 62
     2
100
AcDbLine
 10
7.7367458525
 20
1.8743559547
 30
0.0
 11
8.2367458525
 21
2.3743559547
 31
0.0
  0
LINE
  5
BD
330
1F
100
AcDbEntity
  8
TRMODEL1
  6
Continuous
 62
     2
100
AcDbLine
 10
7.7367458525
 20
2.05113265
 30
0.0
 11
8.2367458525
 21
2.55113265
 31
0.0
  0
LINE
  5
BE
330
1F
100
AcDbEntity
  8
TRMODEL1
  6
Continuous
 62
     2
100
AcDbLine
 10
7.7367458525
 20
2.2279093453
 30
0.0
 11
8.2367458525
 21
2.7279093453
 31
0.0
  0
LINE
  5
BF
330
1F
100
AcDbEntity
  8
TRMODEL1
  6
Continuous
 62
     2
100
AcDbLine
 10
6.8617458525
 20
1.3529093453
 30
0.0
 11
7.3617458525
 21
1.8529093453
 31
0.0
  0
LINE
  5
C0
330
1F
100
AcDbEntity
  8
TRMODEL1
  6
Continuous
 62
     2
100
AcDbLine
 10
7.7367458525
 20
2.4046860406
 30
0.0
 11
8.2367458525
 21
2.9046860406
 31
0.0
  0
LINE
  5
C1
330
1F
100
AcDbEntity
  8
TRMODEL1
  6
Continuous
 62
     2
100
AcDbLine
 10
6.8617458525
 20
1.5296860406
 30
0.0
 11
7.3617458525
 21
2.0296860406
 31
0.0
  0
LINE
  5
C2
330
1F
100
AcDbEntity
  8
TRMODEL1
  6
Continuous
 62
     2
100
AcDbLine
 10
6.8617458525
 20
1.7064627359
 30
0.0
 11
7.3617458525
 21
2.2064627359
 31
0.0
  0
LINE
  5
C3
330
1F
100
AcDbEntity
  8
TRMODEL1
  6
Continuous
 62
     2
100
AcDbLine
 10
6.8617458525
 20
1.8832394312
 30
0.0
 11
7.3617458525
 21
2.3832394312
 31
0.0
  0
LINE
  5
C4
330
1F
100
AcDbEntity
  8
TRMODEL1
  6
Continuous
 62
     2
100
AcDbLine
 10
6.8617458525
 20
2.0600161265
 30
0.0
 11
7.3617458525
 21
2.5600161265
 31
0.0
  0
LINE
  5
C5
330
1F
100
AcDbEntity
  8
TRMODEL1
  6
Continuous
 62
     2
100
AcDbLine
 10
6.8617458525
 20
2.2367928218
 30
0.0
 11
7.3617458525
 21
2.7367928218
 31
0.0
  0
LINE
  5
C6
330
1F
100
AcDbEntity
  8
TRMODEL1
  6
Continuous
 62
     2
100
AcDbLine
 10
6.8617458525
 20
2.4135695171
 30
0.0
 11
7.3617458525
 21
2.9135695171
 31
0.0
  0
LINE
  5
C7
330
1F
100
AcDbEntity
  8
TRMODEL1
  6
Continuous
 62
     2
100
AcDbLine
 10
7.7367458525
 20
2.5508219341
 30
0.0
 11
7.3617458525
 21
2.9258219341
 31
0.0
  0
LINE
  5
C8
330
1F
100
AcDbEntity
  8
TRMODEL1
  6
Continuous
 62
     2
100
AcDbLine
 10
7.7367458525
 20
2.3740452388
 30
0.0
 11
7.3617458525
 21
2.7490452388
 31
0.0
  0
LINE
  5
C9
330
1F
100
AcDbEntity
  8
TRMODEL1
  6
Continuous
 62
     2
100
AcDbLine
 10
7.7367458525
 20
2.1972685435
 30
0.0
 11
7.3617458525
 21
2.5722685435
 31
0.0
  0
LINE
  5
CA
330
1F
100
AcDbEntity
  8
TRMODEL1
  6
Continuous
 62
     2
100
AcDbLine
 10
7.7367458525
 20
2.0204918482
 30
0.0
 11
7.3617458525
 21
2.3954918482
 31
0.0
  0
LINE
  5
CB
330
1F
100
AcDbEntity
  8
TRMODEL1
  6
Continuous
 62
     2
100
AcDbLine
 10
7.7367458525
 20
1.8437151529
 30
0.0
 11
7.3617458525
 21
2.2187151529
 31
0.0
  0
LINE
  5
CC
330
1F
100
AcDbEntity
  8
TRMODEL1
  6
Continuous
 62
     2
100
AcDbLine
 10
7.7367458525
 20
1.6669384576
 30
0.0
 11
7.3617458525
 21
2.0419384576
 31
0.0
  0
LINE
  5
CD
330
1F
100
AcDbEntity
  8
TRMODEL1
  6
Continuous
 62
     2
100
AcDbLine
 10
7.7367458525
 20
1.4901617623
 30
0.0
 11
7.3617458525
 21
1.8651617623
 31
0.0
  0
LINE
  5
CE
330
1F
100
AcDbEntity
  8
TRMODEL1
  6
Continuous
 62
     2
100
AcDbLine
 10
7.7367458525
 20
1.313385067
 30
0.0
 11
7.3617458525
 21
1.688385067
 31
0.0
  0
LINE
  5
CF
330
1F
100
AcDbEntity
  8
TRMODEL1
  6
Continuous
 62
     2
100
AcDbLine
 10
8.6957458525
 20
2.1767766953
 30
0.0
 11
8.6957458525
 21
2.1896175962
 31
0.0
  0
LINE
  5
D0
330
1F
100
AcDbEntity
  8
TRMODEL1
  6
Continuous
 62
     2
100
AcDbLine
 10
8.6957458525
 20
2.8171138273
 30
0.0
 11
8.6957458525
 21
2.9267766953
 31
0.0
  0
LINE
  5
D1
330
1F
100
AcDbEntity
  8
TRMODEL1
  6
Continuous
 62
     2
100
AcDbLine
 10
8.6871209656
 20
2.9400829017
 30
0.0
 11
8.6856052246
 21
2.9440601075
 31
0.0
  0
LINE
  5
D2
330
1F
100
AcDbEntity
  8
TRMODEL1
  6
Continuous
 62
     2
100
AcDbLine
 10
8.6856052246
 20
2.9440601075
 30
0.0
 11
8.6622522034
 21
2.970107516
 31
0.0
  0
LINE
  5
D3
330
1F
100
AcDbEntity
  8
TRMODEL1
  6
Continuous
 62
     2
100
AcDbLine
 10
8.3317458525
 20
2.1334458746
 30
0.0
 11
8.6622522034
 21
2.1334458746
 31
0.0
  0
LINE
  5
D4
330
1F
100
AcDbEntity
  8
TRMODEL1
  6
Continuous
 62
     2
100
AcDbLine
 10
8.6957458525
 20
2.1896175962
 30
0.0
 11
8.6955634434
 21
2.1856230014
 31
0.0
  0
LINE
  5
D5
330
1F
100
AcDbEntity
  8
TRMODEL1
  6
Continuous
 62
     2
100
AcDbLine
 10
8.6955634434
 20
2.1856230014
 30
0.0
 11
8.6856052246
 21
2.1594932831
 31
0.0
  0
LINE
  5
D6
330
1F
100
AcDbEntity
  8
TRMODEL1
  6
Continuous
 62
     2
100
AcDbLine
 10
8.6856052246
 20
2.1594932831
 30
0.0
 11
8.6622522034
 21
2.1334458746
 31
0.0
  0
LINE
  5
D7
330
1F
100
AcDbEntity
  8
TRMODEL1
  6
Continuous
 62
     2
100
AcDbLine
 10
8.6622522034
 20
2.970107516
 30
0.0
 11
8.6750515417
 21
2.9357116544
 31
0.0
  0
LINE
  5
D8
330
1F
100
AcDbEntity
  8
TRMODEL1
  6
Continuous
 62
     2
100
AcDbLine
 10
8.6750515417
 20
2.9357116544
 30
0.0
 11
8.6957458525
 21
2.8171138273
 31
0.0
  0
LINE
  5
D9
330
1F
100
AcDbEntity
  8
TRMODEL1
  6
Continuous
 62
     2
100
AcDbLine
 10
8.3317458525
 20
2.970107516
 30
0.0
 11
8.6622522034
 21
2.970107516
 31
0.0
  0
LINE
  5
DA
330
1F
100
AcDbEntity
  8
TRMODEL1
  6
Continuous
 62
     2
100
AcDbLine
 10
8.6957458525
 20
2.1896175962
 30
0.0
 11
8.6957458525
 21
2.4549547281
 31
0.0
  0
LINE
  5
DB
330
1F
100
AcDbEntity
  8
TRMODEL1
  6
Continuous
 62
     2
100
AcDbLine
 10
8.6622522034
 20
2.2457893178
 30
0.0
 11
8.6865528327
 21
2.2182692039
 31
0.0
  0
LINE
  5
DC
330
1F
100
AcDbEntity
  8
TRMODEL1
  6
Continuous
 62
     2
100
AcDbLine
 10
8.6865528327
 20
2.2182692039
 30
0.0
 11
8.6957458525
 21
2.1896175962
 31
0.0
  0
LINE
  5
DD
330
1F
100
AcDbEntity
  8
TRMODEL1
  6
Continuous
 62
     2
100
AcDbLine
 10
8.6957458525
 20
2.8171138273
 30
0.0
 11
8.6957458525
 21
2.4549547281
 31
0.0
  0
LINE
  5
DE
330
1F
100
AcDbEntity
  8
TRMODEL1
  6
Continuous
 62
     2
100
AcDbLine
 10
8.6957458525
 20
2.8171138273
 30
0.0
 11
8.6935105012
 21
2.7789365628
 31
0.0
  0
LINE
  5
DF
330
1F
100
AcDbEntity
  8
TRMODEL1
  6
Continuous
 62
     2
100
AcDbLine
 10
8.6935105012
 20
2.7789365628
 30
0.0
 11
8.6622522034
 21
2.6641201385
 31
0.0
  0
LINE
  5
E0
330
1F
100
AcDbEntity
  8
TRMODEL1
  6
Continuous
 62
     2
100
AcDbLine
 10
8.6622522034
 20
2.6641201385
 30
0.0
 11
8.6865528327
 21
2.5616440929
 31
0.0
  0
LINE
  5
E1
330
1F
100
AcDbEntity
  8
TRMODEL1
  6
Continuous
 62
     2
100
AcDbLine
 10
8.6865528327
 20
2.5616440929
 30
0.0
 11
8.6957458525
 21
2.4549547281
 31
0.0
  0
LINE
  5
E2
330
1F
100
AcDbEntity
  8
TRMODEL1
  6
Continuous
 62
     2
100
AcDbLine
 10
8.3317458525
 20
2.6641201385
 30
0.0
 11
8.6622522034
 21
2.6641201385
 31
0.0
  0
LINE
  5
E3
330
1F
100
AcDbEntity
  8
TRMODEL1
  6
Continuous
 62
     2
100
AcDbLine
 10
8.3317458525
 20
2.2457893178
 30
0.0
 11
8.6622522034
 21
2.2457893178
 31
0.0
  0
LINE
  5
E4
330
1F
100
AcDbEntity
  8
TRMODEL1
  6
Continuous
 62
     2
100
AcDbLine
 10
8.6957458525
 20
2.4549547281
 30
0.0
 11
8.6955634434
 21
2.4400801429
 31
0.0
  0
LINE
  5
E5
330
1F
100
AcDbEntity
  8
TRMODEL1
  6
Continuous
 62
     2
100
AcDbLine
 10
8.6955634434
 20
2.4400801429
 30
0.0
 11
8.6856052246
 21
2.3427814828
 31
0.0
  0
LINE
  5
E6
330
1F
100
AcDbEntity
  8
TRMODEL1
  6
Continuous
 62
     2
100
AcDbLine
 10
8.6856052246
 20
2.3427814828
 30
0.0
 11
8.6622522034
 21
2.2457893178
 31
0.0
  0
LINE
  5
E7
330
1F
100
AcDbEntity
  8
TRMODEL1
  6
Continuous
 62
     2
100
AcDbLine
 10
8.3317458525
 20
2.9274940742
 30
0.0
 11
8.3317458525
 21
2.0207766953
 31
0.0
  0
LINE
  5
E8
330
1F
100
AcDbEntity
  8
TRMODEL1
  6
Continuous
 62
     2
100
AcDbLine
 10
8.6878278744
 20
2.1630623549
 30
0.0
 11
8.6957458525
 21
2.1767766953
 31
0.0
  0
LINE
  5
E9
330
1F
100
AcDbEntity
  8
TRMODEL1
  6
Continuous
 62
     2
100
AcDbLine
 10
8.6957458525
 20
2.9267766953
 30
0.0
 11
8.6878278744
 21
2.9404910357
 31
0.0
  0
LINE
  5
EA
330
1F
100
AcDbEntity
  8
TRMODEL1
  6
Continuous
 62
     2
100
AcDbLine
 10
8.2367458525
 20
2.0207766953
 30
0.0
 11
8.3317458525
 21
2.0207766953
 31
0.0
  0
LINE
  5
EB
330
1F
100
AcDbEntity
  8
TRMODEL1
  6
Continuous
 62
     2
100
AcDbLine
 10
6.7667458525
 20
2.0207766953
 30
0.0
 11
6.8617458525
 21
2.0207766953
 31
0.0
  0
LINE
  5
EC
330
1F
100
AcDbEntity
  8
TRMODEL1
  6
Continuous
 62
     2
100
AcDbLine
 10
6.2636843232
 20
2.8017766953
 30
0.0
 11
6.2636843232
 21
2.3017766953
 31
0.0
  0
LINE
  5
ED
330
1F
100
AcDbEntity
  8
TRMODEL1
  6
Continuous
 62
     2
100
AcDbLine
 10
6.231614818
 20
2.7559766953
 30
0.0
 11
6.231614818
 21
2.3475766953
 31
0.0
  0
LINE
  5
EE
330
1F
100
AcDbEntity
  8
TRMODEL1
  6
Continuous
 62
     2
100
AcDbLine
 10
6.3065493007
 20
2.7559766953
 30
0.0
 11
6.3065493007
 21
2.3475766953
 31
0.0
  0
LINE
  5
EF
330
1F
100
AcDbEntity
  8
TRMODEL1
  6
Continuous
 62
     2
100
AcDbLine
 10
6.2744797955
 20
2.8017766953
 30
0.0
 11
6.2744797955
 21
2.3017766953
 31
0.0
  0
LINE
  5
F0
330
1F
100
AcDbEntity
  8
TRMODEL1
  6
Continuous
 62
     2
100
AcDbLine
 10
6.3187458525
 20
2.1767766953
 30
0.0
 11
6.3187458525
 21
2.2270171689
 31
0.0
  0
LINE
  5
F1
330
1F
100
AcDbEntity
  8
TRMODEL1
  6
Continuous
 62
     2
100
AcDbLine
 10
6.3187458525
 20
2.8765362217
 30
0.0
 11
6.3187458525
 21
2.9267766953
 31
0.0
  0
LINE
  5
F2
330
1F
100
AcDbEntity
  8
TRMODEL1
  6
Continuous
 62
     2
100
AcDbLine
 10
6.3187458525
 20
2.2270171689
 30
0.0
 11
6.3187458525
 21
2.5517766953
 31
0.0
  0
LINE
  5
F3
330
1F
100
AcDbEntity
  8
TRMODEL1
  6
Continuous
 62
     2
100
AcDbLine
 10
6.7167458525
 20
2.3352703444
 30
0.0
 11
6.3687458525
 21
2.3352703444
 31
0.0
  0
LINE
  5
F4
330
1F
100
AcDbEntity
  8
TRMODEL1
  6
Continuous
 62
     2
100
AcDbLine
 10
6.3687458525
 20
2.3352703444
 30
0.0
 11
6.3334100177
 21
2.2841356842
 31
0.0
  0
LINE
  5
F5
330
1F
100
AcDbEntity
  8
TRMODEL1
  6
Continuous
 62
     2
100
AcDbLine
 10
6.3334100177
 20
2.2841356842
 30
0.0
 11
6.3187565764
 21
2.2285445877
 31
0.0
  0
LINE
  5
F6
330
1F
100
AcDbEntity
  8
TRMODEL1
  6
Continuous
 62
     2
100
AcDbLine
 10
6.3187565764
 20
2.2285445877
 30
0.0
 11
6.3187458525
 21
2.2270171689
 31
0.0
  0
LINE
  5
F7
330
1F
100
AcDbEntity
  8
TRMODEL1
  6
Continuous
 62
     2
100
AcDbLine
 10
6.3187458525
 20
2.2270171689
 30
0.0
 11
6.327993906
 21
2.1818433285
 31
0.0
  0
LINE
  5
F8
330
1F
100
AcDbEntity
  8
TRMODEL1
  6
Continuous
 62
     2
100
AcDbLine
 10
6.327993906
 20
2.1818433285
 30
0.0
 11
6.3543105771
 21
2.1366694881
 31
0.0
  0
LINE
  5
F9
330
1F
100
AcDbEntity
  8
TRMODEL1
  6
Continuous
 62
     2
100
AcDbLine
 10
6.3543105771
 20
2.1366694881
 30
0.0
 11
6.3687458525
 21
2.1187639934
 31
0.0
  0
LINE
  5
FA
330
1F
100
AcDbEntity
  8
TRMODEL1
  6
Continuous
 62
     2
100
AcDbLine
 10
6.7167458525
 20
2.1187639934
 30
0.0
 11
6.3687458525
 21
2.1187639934
 31
0.0
  0
LINE
  5
FB
330
1F
100
AcDbEntity
  8
TRMODEL1
  6
Continuous
 62
     2
100
AcDbLine
 10
6.7667458525
 20
2.2270171689
 30
0.0
 11
6.757497799
 21
2.1818433285
 31
0.0
  0
LINE
  5
FC
330
1F
100
AcDbEntity
  8
TRMODEL1
  6
Continuous
 62
     2
100
AcDbLine
 10
6.757497799
 20
2.1818433285
 30
0.0
 11
6.7311811279
 21
2.1366694881
 31
0.0
  0
LINE
  5
FD
330
1F
100
AcDbEntity
  8
TRMODEL1
  6
Continuous
 62
     2
100
AcDbLine
 10
6.7311811279
 20
2.1366694881
 30
0.0
 11
6.7167458525
 21
2.1187639934
 31
0.0
  0
LINE
  5
FE
330
1F
100
AcDbEntity
  8
TRMODEL1
  6
Continuous
 62
     2
100
AcDbLine
 10
6.7167458525
 20
2.3352703444
 30
0.0
 11
6.7520816873
 21
2.2841356842
 31
0.0
  0
LINE
  5
FF
330
1F
100
AcDbEntity
  8
TRMODEL1
  6
Continuous
 62
     2
100
AcDbLine
 10
6.7520816873
 20
2.2841356842
 30
0.0
 11
6.7667351285
 21
2.2285445877
 31
0.0
  0
LINE
  5
100
330
1F
100
AcDbEntity
  8
TRMODEL1
  6
Continuous
 62
     2
100
AcDbLine
 10
6.7667351285
 20
2.2285445877
 30
0.0
 11
6.7667458525
 21
2.2270171689
 31
0.0
  0
LINE
  5
101
330
1F
100
AcDbEntity
  8
TRMODEL1
  6
Continuous
 62
     2
100
AcDbLine
 10
6.3687458525
 20
2.3352703444
 30
0.0
 11
6.3473266833
 21
2.3906232844
 31
0.0
  0
LINE
  5
102
330
1F
100
AcDbEntity
  8
TRMODEL1
  6
Continuous
 62
     2
100
AcDbLine
 10
6.3473266833
 20
2.3906232844
 30
0.0
 11
6.3265289949
 21
2.4689856009
 31
0.0
  0
LINE
  5
103
330
1F
100
AcDbEntity
  8
TRMODEL1
  6
Continuous
 62
     2
100
AcDbLine
 10
6.3265289949
 20
2.4689856009
 30
0.0
 11
6.3187458525
 21
2.5517766953
 31
0.0
  0
LINE
  5
104
330
1F
100
AcDbEntity
  8
TRMODEL1
  6
Continuous
 62
     2
100
AcDbLine
 10
6.7167458525
 20
2.3352703444
 30
0.0
 11
6.7381650216
 21
2.3906232844
 31
0.0
  0
LINE
  5
105
330
1F
100
AcDbEntity
  8
TRMODEL1
  6
Continuous
 62
     2
100
AcDbLine
 10
6.7381650216
 20
2.3906232844
 30
0.0
 11
6.7589627101
 21
2.4689856009
 31
0.0
  0
LINE
  5
106
330
1F
100
AcDbEntity
  8
TRMODEL1
  6
Continuous
 62
     2
100
AcDbLine
 10
6.7589627101
 20
2.4689856009
 30
0.0
 11
6.7667458525
 21
2.5517766953
 31
0.0
  0
LINE
  5
107
330
1F
100
AcDbEntity
  8
TRMODEL1
  6
Continuous
 62
     2
100
AcDbLine
 10
6.7667458525
 20
2.5517766953
 30
0.0
 11
6.7664916955
 21
2.5666512342
 31
0.0
  0
LINE
  5
108
330
1F
100
AcDbEntity
  8
TRMODEL1
  6
Continuous
 62
     2
100
AcDbLine
 10
6.7664916955
 20
2.5666512342
 30
0.0
 11
6.7561773101
 21
2.6484566148
 31
0.0
  0
LINE
  5
109
330
1F
100
AcDbEntity
  8
TRMODEL1
  6
Continuous
 62
     2
100
AcDbLine
 10
6.7561773101
 20
2.6484566148
 30
0.0
 11
6.7321768551
 21
2.7297944794
 31
0.0
  0
LINE
  5
10A
330
1F
100
AcDbEntity
  8
TRMODEL1
  6
Continuous
 62
     2
100
AcDbLine
 10
6.7321768551
 20
2.7297944794
 30
0.0
 11
6.7167458525
 21
2.7682830462
 31
0.0
  0
LINE
  5
10B
330
1F
100
AcDbEntity
  8
TRMODEL1
  6
Continuous
 62
     2
100
AcDbLine
 10
6.7167458525
 20
2.7682830462
 30
0.0
 11
6.3687458525
 21
2.7682830462
 31
0.0
  0
LINE
  5
10C
330
1F
100
AcDbEntity
  8
TRMODEL1
  6
Continuous
 62
     2
100
AcDbLine
 10
6.3187458525
 20
2.5517766953
 30
0.0
 11
6.3190000094
 21
2.5666512342
 31
0.0
  0
LINE
  5
10D
330
1F
100
AcDbEntity
  8
TRMODEL1
  6
Continuous
 62
     2
100
AcDbLine
 10
6.3190000094
 20
2.5666512342
 30
0.0
 11
6.3293143948
 21
2.6484566148
 31
0.0
  0
LINE
  5
10E
330
1F
100
AcDbEntity
  8
TRMODEL1
  6
Continuous
 62
     2
100
AcDbLine
 10
6.3293143948
 20
2.6484566148
 30
0.0
 11
6.3533148499
 21
2.7297944794
 31
0.0
  0
LINE
  5
10F
330
1F
100
AcDbEntity
  8
TRMODEL1
  6
Continuous
 62
     2
100
AcDbLine
 10
6.3533148499
 20
2.7297944794
 30
0.0
 11
6.3687458525
 21
2.7682830462
 31
0.0
  0
LINE
  5
110
330
1F
100
AcDbEntity
  8
TRMODEL1
  6
Continuous
 62
     2
100
AcDbLine
 10
6.3187458525
 20
2.5517766953
 30
0.0
 11
6.3187458525
 21
2.8765362217
 31
0.0
  0
LINE
  5
111
330
1F
100
AcDbEntity
  8
TRMODEL1
  6
Continuous
 62
     2
100
AcDbLine
 10
6.3187458525
 20
2.8765362217
 30
0.0
 11
6.327993906
 21
2.8313623813
 31
0.0
  0
LINE
  5
112
330
1F
100
AcDbEntity
  8
TRMODEL1
  6
Continuous
 62
     2
100
AcDbLine
 10
6.327993906
 20
2.8313623813
 30
0.0
 11
6.3543105771
 21
2.7861885409
 31
0.0
  0
LINE
  5
113
330
1F
100
AcDbEntity
  8
TRMODEL1
  6
Continuous
 62
     2
100
AcDbLine
 10
6.3543105771
 20
2.7861885409
 30
0.0
 11
6.3687458525
 21
2.7682830462
 31
0.0
  0
LINE
  5
114
330
1F
100
AcDbEntity
  8
TRMODEL1
  6
Continuous
 62
     2
100
AcDbLine
 10
6.7667458525
 20
2.8765362217
 30
0.0
 11
6.757497799
 21
2.8313623813
 31
0.0
  0
LINE
  5
115
330
1F
100
AcDbEntity
  8
TRMODEL1
  6
Continuous
 62
     2
100
AcDbLine
 10
6.757497799
 20
2.8313623813
 30
0.0
 11
6.7311811279
 21
2.7861885409
 31
0.0
  0
LINE
  5
116
330
1F
100
AcDbEntity
  8
TRMODEL1
  6
Continuous
 62
     2
100
AcDbLine
 10
6.7311811279
 20
2.7861885409
 30
0.0
 11
6.7167458525
 21
2.7682830462
 31
0.0
  0
LINE
  5
117
330
1F
100
AcDbEntity
  8
TRMODEL1
  6
Continuous
 62
     2
100
AcDbLine
 10
6.7667458525
 20
2.0207766953
 30
0.0
 11
6.7667458525
 21
2.3484474517
 31
0.0
  0
LINE
  5
118
330
1F
100
AcDbEntity
  8
TRMODEL1
  6
Continuous
 62
     2
100
AcDbLine
 10
6.231614818
 20
2.3475766953
 30
0.0
 11
6.2636843232
 21
2.3017766953
 31
0.0
  0
LINE
  5
119
330
1F
100
AcDbEntity
  8
TRMODEL1
  6
Continuous
 62
     2
100
AcDbLine
 10
6.2636843232
 20
2.8017766953
 30
0.0
 11
6.231614818
 21
2.7559766953
 31
0.0
  0
LINE
  5
11A
330
1F
100
AcDbEntity
  8
TRMODEL1
  6
Continuous
 62
     2
100
AcDbLine
 10
6.3065493007
 20
2.3475766953
 30
0.0
 11
6.3187458525
 21
2.3301582143
 31
0.0
  0
LINE
  5
11B
330
1F
100
AcDbEntity
  8
TRMODEL1
  6
Continuous
 62
     2
100
AcDbLine
 10
6.3187458525
 20
2.7733951763
 30
0.0
 11
6.3065493007
 21
2.7559766953
 31
0.0
  0
LINE
  5
11C
330
1F
100
AcDbEntity
  8
TRMODEL1
  6
Continuous
 62
     2
100
AcDbLine
 10
6.2636843232
 20
2.3017766953
 30
0.0
 11
6.2744797955
 21
2.3017766953
 31
0.0
  0
LINE
  5
11D
330
1F
100
AcDbEntity
  8
TRMODEL1
  6
Continuous
 62
     2
100
AcDbLine
 10
6.2744797955
 20
2.8017766953
 30
0.0
 11
6.2636843232
 21
2.8017766953
 31
0.0
  0
LINE
  5
11E
330
1F
100
AcDbEntity
  8
TRMODEL1
  6
Continuous
 62
     2
100
AcDbLine
 10
6.3065493007
 20
2.7559766953
 30
0.0
 11
6.2744797955
 21
2.8017766953
 31
0.0
  0
LINE
  5
11F
330
1F
100
AcDbEntity
  8
TRMODEL1
  6
Continuous
 62
     2
100
AcDbLine
 10
6.2744797955
 20
2.3017766953
 30
0.0
 11
6.3065493007
 21
2.3475766953
 31
0.0
  0
LINE
  5
120
330
1F
100
AcDbEntity
  8
TRMODEL1
  6
Continuous
 62
     2
100
AcDbLine
 10
6.3187458525
 20
2.1767766953
 30
0.0
 11
6.3687458525
 21
2.1187639934
 31
0.0
  0
LINE
  5
121
330
1F
100
AcDbEntity
  8
TRMODEL1
  6
Continuous
 62
     2
100
AcDbLine
 10
6.7167458525
 20
2.1187639934
 30
0.0
 11
6.7667458525
 21
2.1767766953
 31
0.0
  0
LINE
  5
122
330
1F
100
AcDbEntity
  8
TRMODEL1
  6
Continuous
 62
     2
100
AcDbLine
 10
8.6637628442
 20
4.5217489533
 30
0.0
 11
10.4116037931
 21
4.5217489533
 31
0.0
  0
LINE
  5
123
330
1F
100
AcDbEntity
  8
TRMODEL1
  6
Continuous
 62
     2
100
AcDbLine
 10
6.5549368603
 20
4.5803427033
 30
0.0
 11
6.9064993603
 21
4.5217489533
 31
0.0
  0
LINE
  5
124
330
1F
100
AcDbEntity
  8
TRMODEL1
  6
Continuous
 62
     2
100
AcDbLine
 10
6.9064993603
 20
4.5217489533
 30
0.0
 11
6.5549368603
 21
4.4631552033
 31
0.0
  0
LINE
  5
125
330
1F
100
AcDbEntity
  8
TRMODEL1
  6
Continuous
 62
     2
100
AcDbLine
 10
6.5549368603
 20
4.4631552033
 30
0.0
 11
6.5549368603
 21
4.5803427033
 31
0.0
  0
LINE
  5
126
330
1F
100
AcDbEntity
  8
TRMODEL1
  6
Continuous
 62
     2
100
AcDbLine
 10
8.6637628442
 20
4.4631552033
 30
0.0
 11
8.3122003442
 21
4.5217489533
 31
0.0
  0
LINE
  5
127
330
1F
100
AcDbEntity
  8
TRMODEL1
  6
Continuous
 62
     2
100
AcDbLine
 10
8.3122003442
 20
4.5217489533
 30
0.0
 11
8.6637628442
 21
4.5803427033
 31
0.0
  0
LINE
  5
128
330
1F
100
AcDbEntity
  8
TRMODEL1
  6
Continuous
 62
     2
100
AcDbLine
 10
8.6637628442
 20
4.5803427033
 30
0.0
 11
8.6637628442
 21
4.4631552033
 31
0.0
  0
LINE
  5
129
330
1F
100
AcDbEntity
  8
TRMODEL1
  6
Continuous
 62
     2
100
AcDbLine
 10
7.7367458525
 20
3.1117928218
 30
0.0
 11
8.2367458525
 21
3.6117928218
 31
0.0
  0
LINE
  5
12A
330
1F
100
AcDbEntity
  8
TRMODEL1
  6
Continuous
 62
     2
100
AcDbLine
 10
7.7367458525
 20
3.2885695171
 30
0.0
 11
8.2367458525
 21
3.7885695171
 31
0.0
  0
LINE
  5
12B
330
1F
100
AcDbEntity
  8
TRMODEL1
  6
Continuous
 62
     2
100
AcDbLine
 10
7.7367458525
 20
3.4653462124
 30
0.0
 11
8.2367458525
 21
3.9653462124
 31
0.0
  0
LINE
  5
12C
330
1F
100
AcDbEntity
  8
TRMODEL1
  6
Continuous
 62
     2
100
AcDbLine
 10
7.7367458525
 20
3.6421229077
 30
0.0
 11
8.2367458525
 21
4.1421229077
 31
0.0
  0
LINE
  5
12D
330
1F
100
AcDbEntity
  8
TRMODEL1
  6
Continuous
 62
     2
100
AcDbLine
 10
7.7367458525
 20
3.818899603
 30
0.0
 11
8.2367458525
 21
4.318899603
 31
0.0
  0
LINE
  5
12E
330
1F
100
AcDbEntity
  8
TRMODEL1
  6
Continuous
 62
     2
100
AcDbLine
 10
7.7367458525
 20
3.9956762983
 30
0.0
 11
8.2367458525
 21
4.4956762983
 31
0.0
  0
LINE
  5
12F
330
1F
100
AcDbEntity
  8
TRMODEL1
  6
Continuous
 62
     2
100
AcDbLine
 10
6.8617458525
 20
3.1206762983
 30
0.0
 11
7.3617458525
 21
3.6206762983
 31
0.0
  0
LINE
  5
130
330
1F
100
AcDbEntity
  8
TRMODEL1
  6
Continuous
 62
     2
100
AcDbLine
 10
7.7367458525
 20
4.1724529936
 30
0.0
 11
8.2367458525
 21
4.6724529936
 31
0.0
  0
LINE
  5
131
330
1F
100
AcDbEntity
  8
TRMODEL1
  6
Continuous
 62
     2
100
AcDbLine
 10
6.8617458525
 20
3.2974529936
 30
0.0
 11
7.3617458525
 21
3.7974529936
 31
0.0
  0
LINE
  5
132
330
1F
100
AcDbEntity
  8
TRMODEL1
  6
Continuous
 62
     2
100
AcDbLine
 10
6.8617458525
 20
3.4742296889
 30
0.0
 11
7.3617458525
 21
3.9742296889
 31
0.0
  0
LINE
  5
133
330
1F
100
AcDbEntity
  8
TRMODEL1
  6
Continuous
 62
     2
100
AcDbLine
 10
6.8617458525
 20
3.6510063842
 30
0.0
 11
7.3617458525
 21
4.1510063842
 31
0.0
  0
LINE
  5
134
330
1F
100
AcDbEntity
  8
TRMODEL1
  6
Continuous
 62
     2
100
AcDbLine
 10
6.8617458525
 20
3.8277830795
 30
0.0
 11
7.3617458525
 21
4.3277830795
 31
0.0
  0
LINE
  5
135
330
1F
100
AcDbEntity
  8
TRMODEL1
  6
Continuous
 62
     2
100
AcDbLine
 10
6.8617458525
 20
4.0045597748
 30
0.0
 11
7.3617458525
 21
4.5045597748
 31
0.0
  0
LINE
  5
136
330
1F
100
AcDbEntity
  8
TRMODEL1
  6
Continuous
 62
     2
100
AcDbLine
 10
6.8617458525
 20
4.1813364701
 30
0.0
 11
7.3617458525
 21
4.6813364701
 31
0.0
  0
LINE
  5
137
330
1F
100
AcDbEntity
  8
TRMODEL1
  6
Continuous
 62
     2
100
AcDbLine
 10
7.7367458525
 20
4.3185888871
 30
0.0
 11
7.3617458525
 21
4.6935888871
 31
0.0
  0
LINE
  5
138
330
1F
100
AcDbEntity
  8
TRMODEL1
  6
Continuous
 62
     2
100
AcDbLine
 10
7.7367458525
 20
4.1418121918
 30
0.0
 11
7.3617458525
 21
4.5168121918
 31
0.0
  0
LINE
  5
139
330
1F
100
AcDbEntity
  8
TRMODEL1
  6
Continuous
 62
     2
100
AcDbLine
 10
7.7367458525
 20
3.9650354965
 30
0.0
 11
7.3617458525
 21
4.3400354965
 31
0.0
  0
LINE
  5
13A
330
1F
100
AcDbEntity
  8
TRMODEL1
  6
Continuous
 62
     2
100
AcDbLine
 10
7.7367458525
 20
3.7882588012
 30
0.0
 11
7.3617458525
 21
4.1632588012
 31
0.0
  0
LINE
  5
13B
330
1F
100
AcDbEntity
  8
TRMODEL1
  6
Continuous
 62
     2
100
AcDbLine
 10
7.7367458525
 20
3.6114821059
 30
0.0
 11
7.3617458525
 21
3.9864821059
 31
0.0
  0
LINE
  5
13C
330
1F
100
AcDbEntity
  8
TRMODEL1
  6
Continuous
 62
     2
100
AcDbLine
 10
7.7367458525
 20
3.4347054106
 30
0.0
 11
7.3617458525
 21
3.8097054106
 31
0.0
  0
LINE
  5
13D
330
1F
100
AcDbEntity
  8
TRMODEL1
  6
Continuous
 62
     2
100
AcDbLine
 10
7.7367458525
 20
3.2579287153
 30
0.0
 11
7.3617458525
 21
3.6329287153
 31
0.0
  0
LINE
  5
13E
330
1F
100
AcDbEntity
  8
TRMODEL1
  6
Continuous
 62
     2
100
AcDbLine
 10
7.7367458525
 20
3.08115202
 30
0.0
 11
7.3617458525
 21
3.45615202
 31
0.0
  0
LINE
  5
13F
330
1F
100
AcDbEntity
  8
TRMODEL1
  6
Continuous
 62
     2
100
AcDbLine
 10
8.3317458525
 20
3.0827766953
 30
0.0
 11
8.2367458525
 21
3.0827766953
 31
0.0
  0
LINE
  5
140
330
1F
100
AcDbEntity
  8
TRMODEL1
  6
Continuous
 62
     2
100
AcDbLine
 10
6.8617458525
 20
3.0827766953
 30
0.0
 11
6.7667458525
 21
3.0827766953
 31
0.0
  0
LINE
  5
141
330
1F
100
AcDbEntity
  8
TRMODEL1
  6
Continuous
 62
     2
100
AcDbLine
 10
6.7167458525
 20
2.9847893972
 30
0.0
 11
6.3687458525
 21
2.9847893972
 31
0.0
  0
LINE
  5
142
330
1F
100
AcDbEntity
  8
TRMODEL1
  6
Continuous
 62
     2
100
AcDbLine
 10
7.7367458525
 20
6.1169966419
 30
0.0
 11
8.2367458525
 21
6.6169966419
 31
0.0
  0
LINE
  5
143
330
1F
100
AcDbEntity
  8
TRMODEL1
  6
Continuous
 62
     2
100
AcDbLine
 10
7.7367458525
 20
6.2937733372
 30
0.0
 11
8.2367458525
 21
6.7937733372
 31
0.0
  0
LINE
  5
144
330
1F
100
AcDbEntity
  8
TRMODEL1
  6
Continuous
 62
     2
100
AcDbLine
 10
7.7367458525
 20
6.4705500325
 30
0.0
 11
8.2367458525
 21
6.9705500325
 31
0.0
  0
LINE
  5
145
330
1F
100
AcDbEntity
  8
TRMODEL1
  6
Continuous
 62
     2
100
AcDbLine
 10
6.8617458525
 20
6.1258801183
 30
0.0
 11
7.3617458525
 21
6.6258801183
 31
0.0
  0
LINE
  5
146
330
1F
100
AcDbEntity
  8
TRMODEL1
  6
Continuous
 62
     2
100
AcDbLine
 10
6.8617458525
 20
6.3026568136
 30
0.0
 11
7.3617458525
 21
6.8026568136
 31
0.0
  0
LINE
  5
147
330
1F
100
AcDbEntity
  8
TRMODEL1
  6
Continuous
 62
     2
100
AcDbLine
 10
6.8617458525
 20
6.4794335089
 30
0.0
 11
7.3617458525
 21
6.9794335089
 31
0.0
  0
LINE
  5
148
330
1F
100
AcDbEntity
  8
TRMODEL1
  6
Continuous
 62
     2
100
AcDbLine
 10
7.7367458525
 20
6.4399092306
 30
0.0
 11
7.3617458525
 21
6.8149092306
 31
0.0
  0
LINE
  5
149
330
1F
100
AcDbEntity
  8
TRMODEL1
  6
Continuous
 62
     2
100
AcDbLine
 10
7.7367458525
 20
6.2631325353
 30
0.0
 11
7.3617458525
 21
6.6381325353
 31
0.0
  0
LINE
  5
14A
330
1F
100
AcDbEntity
  8
TRMODEL1
  6
Continuous
 62
     2
100
AcDbLine
 10
7.7367458525
 20
4.8795597748
 30
0.0
 11
8.2367458525
 21
5.3795597748
 31
0.0
  0
LINE
  5
14B
330
1F
100
AcDbEntity
  8
TRMODEL1
  6
Continuous
 62
     2
100
AcDbLine
 10
7.7367458525
 20
5.0563364701
 30
0.0
 11
8.2367458525
 21
5.5563364701
 31
0.0
  0
LINE
  5
14C
330
1F
100
AcDbEntity
  8
TRMODEL1
  6
Continuous
 62
     2
100
AcDbLine
 10
7.7367458525
 20
5.2331131654
 30
0.0
 11
8.2367458525
 21
5.7331131654
 31
0.0
  0
LINE
  5
14D
330
1F
100
AcDbEntity
  8
TRMODEL1
  6
Continuous
 62
     2
100
AcDbLine
 10
7.7367458525
 20
5.4098898607
 30
0.0
 11
8.2367458525
 21
5.9098898607
 31
0.0
  0
LINE
  5
14E
330
1F
100
AcDbEntity
  8
TRMODEL1
  6
Continuous
 62
     2
100
AcDbLine
 10
7.7367458525
 20
5.586666556
 30
0.0
 11
8.2367458525
 21
6.086666556
 31
0.0
  0
LINE
  5
14F
330
1F
100
AcDbEntity
  8
TRMODEL1
  6
Continuous
 62
     2
100
AcDbLine
 10
7.7367458525
 20
5.7634432513
 30
0.0
 11
8.2367458525
 21
6.2634432513
 31
0.0
  0
LINE
  5
150
330
1F
100
AcDbEntity
  8
TRMODEL1
  6
Continuous
 62
     2
100
AcDbLine
 10
6.8617458525
 20
4.8884432513
 30
0.0
 11
7.3617458525
 21
5.3884432513
 31
0.0
  0
LINE
  5
151
330
1F
100
AcDbEntity
  8
TRMODEL1
  6
Continuous
 62
     2
100
AcDbLine
 10
7.7367458525
 20
5.9402199466
 30
0.0
 11
8.2367458525
 21
6.4402199466
 31
0.0
  0
LINE
  5
152
330
1F
100
AcDbEntity
  8
TRMODEL1
  6
Continuous
 62
     2
100
AcDbLine
 10
6.8617458525
 20
5.0652199466
 30
0.0
 11
7.3617458525
 21
5.5652199466
 31
0.0
  0
LINE
  5
153
330
1F
100
AcDbEntity
  8
TRMODEL1
  6
Continuous
 62
     2
100
AcDbLine
 10
6.8617458525
 20
5.2419966419
 30
0.0
 11
7.3617458525
 21
5.7419966419
 31
0.0
  0
LINE
  5
154
330
1F
100
AcDbEntity
  8
TRMODEL1
  6
Continuous
 62
     2
100
AcDbLine
 10
6.8617458525
 20
5.4187733372
 30
0.0
 11
7.3617458525
 21
5.9187733372
 31
0.0
  0
LINE
  5
155
330
1F
100
AcDbEntity
  8
TRMODEL1
  6
Continuous
 62
     2
100
AcDbLine
 10
6.8617458525
 20
5.5955500325
 30
0.0
 11
7.3617458525
 21
6.0955500325
 31
0.0
  0
LINE
  5
156
330
1F
100
AcDbEntity
  8
TRMODEL1
  6
Continuous
 62
     2
100
AcDbLine
 10
6.8617458525
 20
5.7723267278
 30
0.0
 11
7.3617458525
 21
6.2723267278
 31
0.0
  0
LINE
  5
157
330
1F
100
AcDbEntity
  8
TRMODEL1
  6
Continuous
 62
     2
100
AcDbLine
 10
6.8617458525
 20
5.949103423
 30
0.0
 11
7.3617458525
 21
6.449103423
 31
0.0
  0
LINE
  5
158
330
1F
100
AcDbEntity
  8
TRMODEL1
  6
Continuous
 62
     2
100
AcDbLine
 10
7.7367458525
 20
6.08635584
 30
0.0
 11
7.3617458525
 21
6.46135584
 31
0.0
  0
LINE
  5
159
330
1F
100
AcDbEntity
  8
TRMODEL1
  6
Continuous
 62
     2
100
AcDbLine
 10
7.7367458525
 20
5.9095791447
 30
0.0
 11
7.3617458525
 21
6.2845791447
 31
0.0
  0
LINE
  5
15A
330
1F
100
AcDbEntity
  8
TRMODEL1
  6
Continuous
 62
     2
100
AcDbLine
 10
7.7367458525
 20
5.7328024494
 30
0.0
 11
7.3617458525
 21
6.1078024494
 31
0.0
  0
LINE
  5
15B
330
1F
100
AcDbEntity
  8
TRMODEL1
  6
Continuous
 62
     2
100
AcDbLine
 10
7.7367458525
 20
5.5560257541
 30
0.0
 11
7.3617458525
 21
5.9310257541
 31
0.0
  0
LINE
  5
15C
330
1F
100
AcDbEntity
  8
TRMODEL1
  6
Continuous
 62
     2
100
AcDbLine
 10
7.7367458525
 20
5.3792490588
 30
0.0
 11
7.3617458525
 21
5.7542490588
 31
0.0
  0
LINE
  5
15D
330
1F
100
AcDbEntity
  8
TRMODEL1
  6
Continuous
 62
     2
100
AcDbLine
 10
7.7367458525
 20
5.2024723635
 30
0.0
 11
7.3617458525
 21
5.5774723635
 31
0.0
  0
LINE
  5
15E
330
1F
100
AcDbEntity
  8
TRMODEL1
  6
Continuous
 62
     2
100
AcDbLine
 10
7.7367458525
 20
5.0256956682
 30
0.0
 11
7.3617458525
 21
5.4006956682
 31
0.0
  0
LINE
  5
15F
330
1F
100
AcDbEntity
  8
TRMODEL1
  6
Continuous
 62
     2
100
AcDbLine
 10
7.7367458525
 20
4.8489189729
 30
0.0
 11
7.3617458525
 21
5.2239189729
 31
0.0
  0
LINE
  5
160
330
1F
100
AcDbEntity
  8
TRMODEL1
  6
Continuous
 62
     2
100
AcDbLine
 10
8.6957458525
 20
5.8171138273
 30
0.0
 11
8.6957458525
 21
5.9267766953
 31
0.0
  0
LINE
  5
161
330
1F
100
AcDbEntity
  8
TRMODEL1
  6
Continuous
 62
     2
100
AcDbLine
 10
8.6871209656
 20
5.9400829017
 30
0.0
 11
8.6856052246
 21
5.9440601075
 31
0.0
  0
LINE
  5
162
330
1F
100
AcDbEntity
  8
TRMODEL1
  6
Continuous
 62
     2
100
AcDbLine
 10
8.6856052246
 20
5.9440601075
 30
0.0
 11
8.6622522034
 21
5.970107516
 31
0.0
  0
LINE
  5
163
330
1F
100
AcDbEntity
  8
TRMODEL1
  6
Continuous
 62
     2
100
AcDbLine
 10
8.6622522034
 20
5.970107516
 30
0.0
 11
8.6750515417
 21
5.9357116544
 31
0.0
  0
LINE
  5
164
330
1F
100
AcDbEntity
  8
TRMODEL1
  6
Continuous
 62
     2
100
AcDbLine
 10
8.6750515417
 20
5.9357116544
 30
0.0
 11
8.6957458525
 21
5.8171138273
 31
0.0
  0
LINE
  5
165
330
1F
100
AcDbEntity
  8
TRMODEL1
  6
Continuous
 62
     2
100
AcDbLine
 10
8.3317458525
 20
5.970107516
 30
0.0
 11
8.6622522034
 21
5.970107516
 31
0.0
  0
LINE
  5
166
330
1F
100
AcDbEntity
  8
TRMODEL1
  6
Continuous
 62
     2
100
AcDbLine
 10
8.6957458525
 20
5.8171138273
 30
0.0
 11
8.6957458525
 21
5.4549547281
 31
0.0
  0
LINE
  5
167
330
1F
100
AcDbEntity
  8
TRMODEL1
  6
Continuous
 62
     2
100
AcDbLine
 10
8.6957458525
 20
5.8171138273
 30
0.0
 11
8.6935105012
 21
5.7789365628
 31
0.0
  0
LINE
  5
168
330
1F
100
AcDbEntity
  8
TRMODEL1
  6
Continuous
 62
     2
100
AcDbLine
 10
8.6935105012
 20
5.7789365628
 30
0.0
 11
8.6622522034
 21
5.6641201385
 31
0.0
  0
LINE
  5
169
330
1F
100
AcDbEntity
  8
TRMODEL1
  6
Continuous
 62
     2
100
AcDbLine
 10
8.6622522034
 20
5.6641201385
 30
0.0
 11
8.6865528327
 21
5.5616440929
 31
0.0
  0
LINE
  5
16A
330
1F
100
AcDbEntity
  8
TRMODEL1
  6
Continuous
 62
     2
100
AcDbLine
 10
8.6865528327
 20
5.5616440929
 30
0.0
 11
8.6957458525
 21
5.4549547281
 31
0.0
  0
LINE
  5
16B
330
1F
100
AcDbEntity
  8
TRMODEL1
  6
Continuous
 62
     2
100
AcDbLine
 10
8.3317458525
 20
5.6641201385
 30
0.0
 11
8.6622522034
 21
5.6641201385
 31
0.0
  0
LINE
  5
16C
330
1F
100
AcDbEntity
  8
TRMODEL1
  6
Continuous
 62
     2
100
AcDbLine
 10
8.3317458525
 20
6.0827766953
 30
0.0
 11
8.3317458525
 21
5.9274940742
 31
0.0
  0
LINE
  5
16D
330
1F
100
AcDbEntity
  8
TRMODEL1
  6
Continuous
 62
     2
100
AcDbLine
 10
8.6957458525
 20
5.9267766953
 30
0.0
 11
8.6878278744
 21
5.9404910357
 31
0.0
  0
LINE
  5
16E
330
1F
100
AcDbEntity
  8
TRMODEL1
  6
Continuous
 62
     2
100
AcDbLine
 10
8.3317458525
 20
6.0827766953
 30
0.0
 11
8.2367458525
 21
6.0827766953
 31
0.0
  0
LINE
  5
16F
330
1F
100
AcDbEntity
  8
TRMODEL1
  6
Continuous
 62
     2
100
AcDbLine
 10
6.8617458525
 20
6.0827766953
 30
0.0
 11
6.7667458525
 21
6.0827766953
 31
0.0
  0
LINE
  5
170
330
1F
100
AcDbEntity
  8
TRMODEL1
  6
Continuous
 62
     2
100
AcDbLine
 10
6.3187458525
 20
5.8765362217
 30
0.0
 11
6.3187458525
 21
5.9267766953
 31
0.0
  0
LINE
  5
171
330
1F
100
AcDbEntity
  8
TRMODEL1
  6
Continuous
 62
     2
100
AcDbLine
 10
6.7167458525
 20
5.9847893972
 30
0.0
 11
6.3687458525
 21
5.9847893972
 31
0.0
  0
LINE
  5
172
330
1F
100
AcDbEntity
  8
TRMODEL1
  6
Continuous
 62
     2
100
AcDbLine
 10
6.3687458525
 20
5.9847893972
 30
0.0
 11
6.3334100177
 21
5.9336547371
 31
0.0
  0
LINE
  5
173
330
1F
100
AcDbEntity
  8
TRMODEL1
  6
Continuous
 62
     2
100
AcDbLine
 10
6.3334100177
 20
5.9336547371
 30
0.0
 11
6.3187565764
 21
5.8780636405
 31
0.0
  0
LINE
  5
174
330
1F
100
AcDbEntity
  8
TRMODEL1
  6
Continuous
 62
     2
100
AcDbLine
 10
6.3187565764
 20
5.8780636405
 30
0.0
 11
6.3187458525
 21
5.8765362217
 31
0.0
  0
LINE
  5
175
330
1F
100
AcDbEntity
  8
TRMODEL1
  6
Continuous
 62
     2
100
AcDbLine
 10
6.7667458525
 20
5.8765362217
 30
0.0
 11
6.757497799
 21
5.8313623813
 31
0.0
  0
LINE
  5
176
330
1F
100
AcDbEntity
  8
TRMODEL1
  6
Continuous
 62
     2
100
AcDbLine
 10
6.757497799
 20
5.8313623813
 30
0.0
 11
6.7311811279
 21
5.7861885409
 31
0.0
  0
LINE
  5
177
330
1F
100
AcDbEntity
  8
TRMODEL1
  6
Continuous
 62
     2
100
AcDbLine
 10
6.7311811279
 20
5.7861885409
 30
0.0
 11
6.7167458525
 21
5.7682830462
 31
0.0
  0
LINE
  5
178
330
1F
100
AcDbEntity
  8
TRMODEL1
  6
Continuous
 62
     2
100
AcDbLine
 10
6.7167458525
 20
5.9847893972
 30
0.0
 11
6.7520816873
 21
5.9336547371
 31
0.0
  0
LINE
  5
179
330
1F
100
AcDbEntity
  8
TRMODEL1
  6
Continuous
 62
     2
100
AcDbLine
 10
6.7520816873
 20
5.9336547371
 30
0.0
 11
6.7667351285
 21
5.8780636405
 31
0.0
  0
LINE
  5
17A
330
1F
100
AcDbEntity
  8
TRMODEL1
  6
Continuous
 62
     2
100
AcDbLine
 10
6.7667351285
 20
5.8780636405
 30
0.0
 11
6.7667458525
 21
5.8765362217
 31
0.0
  0
LINE
  5
17B
330
1F
100
AcDbEntity
  8
TRMODEL1
  6
Continuous
 62
     2
100
AcDbLine
 10
6.3187458525
 20
5.5517766953
 30
0.0
 11
6.3187458525
 21
5.8765362217
 31
0.0
  0
LINE
  5
17C
330
1F
100
AcDbEntity
  8
TRMODEL1
  6
Continuous
 62
     2
100
AcDbLine
 10
6.3187458525
 20
5.8765362217
 30
0.0
 11
6.327993906
 21
5.8313623813
 31
0.0
  0
LINE
  5
17D
330
1F
100
AcDbEntity
  8
TRMODEL1
  6
Continuous
 62
     2
100
AcDbLine
 10
6.327993906
 20
5.8313623813
 30
0.0
 11
6.3543105771
 21
5.7861885409
 31
0.0
  0
LINE
  5
17E
330
1F
100
AcDbEntity
  8
TRMODEL1
  6
Continuous
 62
     2
100
AcDbLine
 10
6.3543105771
 20
5.7861885409
 30
0.0
 11
6.3687458525
 21
5.7682830462
 31
0.0
  0
LINE
  5
17F
330
1F
100
AcDbEntity
  8
TRMODEL1
  6
Continuous
 62
     2
100
AcDbLine
 10
6.7667458525
 20
5.5517766953
 30
0.0
 11
6.7664916955
 21
5.5666512342
 31
0.0
  0
LINE
  5
180
330
1F
100
AcDbEntity
  8
TRMODEL1
  6
Continuous
 62
     2
100
AcDbLine
 10
6.7664916955
 20
5.5666512342
 30
0.0
 11
6.7561773101
 21
5.6484566148
 31
0.0
  0
LINE
  5
181
330
1F
100
AcDbEntity
  8
TRMODEL1
  6
Continuous
 62
     2
100
AcDbLine
 10
6.7561773101
 20
5.6484566148
 30
0.0
 11
6.7321768551
 21
5.7297944794
 31
0.0
  0
LINE
  5
182
330
1F
100
AcDbEntity
  8
TRMODEL1
  6
Continuous
 62
     2
100
AcDbLine
 10
6.7321768551
 20
5.7297944794
 30
0.0
 11
6.7167458525
 21
5.7682830462
 31
0.0
  0
LINE
  5
183
330
1F
100
AcDbEntity
  8
TRMODEL1
  6
Continuous
 62
     2
100
AcDbLine
 10
6.7167458525
 20
5.7682830462
 30
0.0
 11
6.3687458525
 21
5.7682830462
 31
0.0
  0
LINE
  5
184
330
1F
100
AcDbEntity
  8
TRMODEL1
  6
Continuous
 62
     2
100
AcDbLine
 10
6.3187458525
 20
5.5517766953
 30
0.0
 11
6.3190000094
 21
5.5666512342
 31
0.0
  0
LINE
  5
185
330
1F
100
AcDbEntity
  8
TRMODEL1
  6
Continuous
 62
     2
100
AcDbLine
 10
6.3190000094
 20
5.5666512342
 30
0.0
 11
6.3293143948
 21
5.6484566148
 31
0.0
  0
LINE
  5
186
330
1F
100
AcDbEntity
  8
TRMODEL1
  6
Continuous
 62
     2
100
AcDbLine
 10
6.3293143948
 20
5.6484566148
 30
0.0
 11
6.3533148499
 21
5.7297944794
 31
0.0
  0
LINE
  5
187
330
1F
100
AcDbEntity
  8
TRMODEL1
  6
Continuous
 62
     2
100
AcDbLine
 10
6.3533148499
 20
5.7297944794
 30
0.0
 11
6.3687458525
 21
5.7682830462
 31
0.0
  0
LINE
  5
188
330
1F
100
AcDbEntity
  8
TRMODEL1
  6
Continuous
 62
     2
100
AcDbLine
 10
6.2744797955
 20
5.8017766953
 30
0.0
 11
6.2636843232
 21
5.8017766953
 31
0.0
  0
LINE
  5
189
330
1F
100
AcDbEntity
  8
TRMODEL1
  6
Continuous
 62
     2
100
AcDbLine
 10
6.3187458525
 20
5.7733951763
 30
0.0
 11
6.3065493007
 21
5.7559766953
 31
0.0
  0
LINE
  5
18A
330
1F
100
AcDbEntity
  8
TRMODEL1
  6
Continuous
 62
     2
100
AcDbLine
 10
6.2636843232
 20
5.8017766953
 30
0.0
 11
6.231614818
 21
5.7559766953
 31
0.0
  0
LINE
  5
18B
330
1F
100
AcDbEntity
  8
TRMODEL1
  6
Continuous
 62
     2
100
AcDbLine
 10
6.3065493007
 20
5.7559766953
 30
0.0
 11
6.2744797955
 21
5.8017766953
 31
0.0
  0
LINE
  5
18C
330
1F
100
AcDbEntity
  8
TRMODEL1
  6
Continuous
 62
     2
100
AcDbLine
 10
6.3687458525
 20
5.9847893972
 30
0.0
 11
6.3187458525
 21
5.9267766953
 31
0.0
  0
LINE
  5
18D
330
1F
100
AcDbEntity
  8
TRMODEL1
  6
Continuous
 62
     2
100
AcDbLine
 10
6.7667458525
 20
5.9267766953
 30
0.0
 11
6.7167458525
 21
5.9847893972
 31
0.0
  0
LINE
  5
18E
330
1F
100
AcDbEntity
  8
TRMODEL1
  6
Continuous
 62
     2
100
AcDbLine
 10
8.6957458525
 20
5.1767766953
 30
0.0
 11
8.6957458525
 21
5.1896175962
 31
0.0
  0
LINE
  5
18F
330
1F
100
AcDbEntity
  8
TRMODEL1
  6
Continuous
 62
     2
100
AcDbLine
 10
8.3317458525
 20
5.1334458746
 30
0.0
 11
8.6622522034
 21
5.1334458746
 31
0.0
  0
LINE
  5
190
330
1F
100
AcDbEntity
  8
TRMODEL1
  6
Continuous
 62
     2
100
AcDbLine
 10
8.6957458525
 20
5.1896175962
 30
0.0
 11
8.6955634434
 21
5.1856230014
 31
0.0
  0
LINE
  5
191
330
1F
100
AcDbEntity
  8
TRMODEL1
  6
Continuous
 62
     2
100
AcDbLine
 10
8.6955634434
 20
5.1856230014
 30
0.0
 11
8.6856052246
 21
5.1594932831
 31
0.0
  0
LINE
  5
192
330
1F
100
AcDbEntity
  8
TRMODEL1
  6
Continuous
 62
     2
100
AcDbLine
 10
8.6856052246
 20
5.1594932831
 30
0.0
 11
8.6622522034
 21
5.1334458746
 31
0.0
  0
LINE
  5
193
330
1F
100
AcDbEntity
  8
TRMODEL1
  6
Continuous
 62
     2
100
AcDbLine
 10
8.6622522034
 20
5.2457893178
 30
0.0
 11
8.6865528327
 21
5.2182692039
 31
0.0
  0
LINE
  5
194
330
1F
100
AcDbEntity
  8
TRMODEL1
  6
Continuous
 62
     2
100
AcDbLine
 10
8.6865528327
 20
5.2182692039
 30
0.0
 11
8.6957458525
 21
5.1896175962
 31
0.0
  0
LINE
  5
195
330
1F
100
AcDbEntity
  8
TRMODEL1
  6
Continuous
 62
     2
100
AcDbLine
 10
8.3317458525
 20
5.2457893178
 30
0.0
 11
8.6622522034
 21
5.2457893178
 31
0.0
  0
LINE
  5
196
330
1F
100
AcDbEntity
  8
TRMODEL1
  6
Continuous
 62
     2
100
AcDbLine
 10
8.6878278744
 20
5.1630623549
 30
0.0
 11
8.6957458525
 21
5.1767766953
 31
0.0
  0
LINE
  5
197
330
1F
100
AcDbEntity
  8
TRMODEL1
  6
Continuous
 62
     2
100
AcDbLine
 10
8.2367458525
 20
5.0207766953
 30
0.0
 11
8.3317458525
 21
5.0207766953
 31
0.0
  0
LINE
  5
198
330
1F
100
AcDbEntity
  8
TRMODEL1
  6
Continuous
 62
     2
100
AcDbLine
 10
6.7667458525
 20
5.0207766953
 30
0.0
 11
6.8617458525
 21
5.0207766953
 31
0.0
  0
LINE
  5
199
330
1F
100
AcDbEntity
  8
TRMODEL1
  6
Continuous
 62
     2
100
AcDbLine
 10
6.3187458525
 20
5.1767766953
 30
0.0
 11
6.3187458525
 21
5.2270171689
 31
0.0
  0
LINE
  5
19A
330
1F
100
AcDbEntity
  8
TRMODEL1
  6
Continuous
 62
     2
100
AcDbLine
 10
6.7167458525
 20
5.3352703444
 30
0.0
 11
6.3687458525
 21
5.3352703444
 31
0.0
  0
LINE
  5
19B
330
1F
100
AcDbEntity
  8
TRMODEL1
  6
Continuous
 62
     2
100
AcDbLine
 10
6.3687458525
 20
5.3352703444
 30
0.0
 11
6.3334100177
 21
5.2841356842
 31
0.0
  0
LINE
  5
19C
330
1F
100
AcDbEntity
  8
TRMODEL1
  6
Continuous
 62
     2
100
AcDbLine
 10
6.3334100177
 20
5.2841356842
 30
0.0
 11
6.3187565764
 21
5.2285445877
 31
0.0
  0
LINE
  5
19D
330
1F
100
AcDbEntity
  8
TRMODEL1
  6
Continuous
 62
     2
100
AcDbLine
 10
6.3187565764
 20
5.2285445877
 30
0.0
 11
6.3187458525
 21
5.2270171689
 31
0.0
  0
LINE
  5
19E
330
1F
100
AcDbEntity
  8
TRMODEL1
  6
Continuous
 62
     2
100
AcDbLine
 10
6.3187458525
 20
5.2270171689
 30
0.0
 11
6.327993906
 21
5.1818433285
 31
0.0
  0
LINE
  5
19F
330
1F
100
AcDbEntity
  8
TRMODEL1
  6
Continuous
 62
     2
100
AcDbLine
 10
6.327993906
 20
5.1818433285
 30
0.0
 11
6.3543105771
 21
5.1366694881
 31
0.0
  0
LINE
  5
1A0
330
1F
100
AcDbEntity
  8
TRMODEL1
  6
Continuous
 62
     2
100
AcDbLine
 10
6.3543105771
 20
5.1366694881
 30
0.0
 11
6.3687458525
 21
5.1187639934
 31
0.0
  0
LINE
  5
1A1
330
1F
100
AcDbEntity
  8
TRMODEL1
  6
Continuous
 62
     2
100
AcDbLine
 10
6.7167458525
 20
5.1187639934
 30
0.0
 11
6.3687458525
 21
5.1187639934
 31
0.0
  0
LINE
  5
1A2
330
1F
100
AcDbEntity
  8
TRMODEL1
  6
Continuous
 62
     2
100
AcDbLine
 10
6.7667458525
 20
5.2270171689
 30
0.0
 11
6.757497799
 21
5.1818433285
 31
0.0
  0
LINE
  5
1A3
330
1F
100
AcDbEntity
  8
TRMODEL1
  6
Continuous
 62
     2
100
AcDbLine
 10
6.757497799
 20
5.1818433285
 30
0.0
 11
6.7311811279
 21
5.1366694881
 31
0.0
  0
LINE
  5
1A4
330
1F
100
AcDbEntity
  8
TRMODEL1
  6
Continuous
 62
     2
100
AcDbLine
 10
6.7311811279
 20
5.1366694881
 30
0.0
 11
6.7167458525
 21
5.1187639934
 31
0.0
  0
LINE
  5
1A5
330
1F
100
AcDbEntity
  8
TRMODEL1
  6
Continuous
 62
     2
100
AcDbLine
 10
6.7167458525
 20
5.3352703444
 30
0.0
 11
6.7520816873
 21
5.2841356842
 31
0.0
  0
LINE
  5
1A6
330
1F
100
AcDbEntity
  8
TRMODEL1
  6
Continuous
 62
     2
100
AcDbLine
 10
6.7520816873
 20
5.2841356842
 30
0.0
 11
6.7667351285
 21
5.2285445877
 31
0.0
  0
LINE
  5
1A7
330
1F
100
AcDbEntity
  8
TRMODEL1
  6
Continuous
 62
     2
100
AcDbLine
 10
6.7667351285
 20
5.2285445877
 30
0.0
 11
6.7667458525
 21
5.2270171689
 31
0.0
  0
LINE
  5
1A8
330
1F
100
AcDbEntity
  8
TRMODEL1
  6
Continuous
 62
     2
100
AcDbLine
 10
6.7667458525
 20
5.0207766953
 30
0.0
 11
6.7667458525
 21
5.3484474517
 31
0.0
  0
LINE
  5
1A9
330
1F
100
AcDbEntity
  8
TRMODEL1
  6
Continuous
 62
     2
100
AcDbLine
 10
6.2636843232
 20
5.3017766953
 30
0.0
 11
6.2744797955
 21
5.3017766953
 31
0.0
  0
LINE
  5
1AA
330
1F
100
AcDbEntity
  8
TRMODEL1
  6
Continuous
 62
     2
100
AcDbLine
 10
6.3065493007
 20
5.3475766953
 30
0.0
 11
6.3187458525
 21
5.3301582143
 31
0.0
  0
LINE
  5
1AB
330
1F
100
AcDbEntity
  8
TRMODEL1
  6
Continuous
 62
     2
100
AcDbLine
 10
6.231614818
 20
5.3475766953
 30
0.0
 11
6.2636843232
 21
5.3017766953
 31
0.0
  0
LINE
  5
1AC
330
1F
100
AcDbEntity
  8
TRMODEL1
  6
Continuous
 62
     2
100
AcDbLine
 10
6.2744797955
 20
5.3017766953
 30
0.0
 11
6.3065493007
 21
5.3475766953
 31
0.0
  0
LINE
  5
1AD
330
1F
100
AcDbEntity
  8
TRMODEL1
  6
Continuous
 62
     2
100
AcDbLine
 10
6.7167458525
 20
5.1187639934
 30
0.0
 11
6.7667458525
 21
5.1767766953
 31
0.0
  0
LINE
  5
1AE
330
1F
100
AcDbEntity
  8
TRMODEL1
  6
Continuous
 62
     2
100
AcDbLine
 10
6.3187458525
 20
5.1767766953
 30
0.0
 11
6.3687458525
 21
5.1187639934
 31
0.0
  0
LINE
  5
1AF
330
1F
100
AcDbEntity
  8
TRMODEL1
  6
Continuous
 62
     2
100
AcDbLine
 10
8.6957458525
 20
5.1896175962
 30
0.0
 11
8.6957458525
 21
5.4549547281
 31
0.0
  0
LINE
  5
1B0
330
1F
100
AcDbEntity
  8
TRMODEL1
  6
Continuous
 62
     2
100
AcDbLine
 10
8.6957458525
 20
5.4549547281
 30
0.0
 11
8.6955634434
 21
5.4400801429
 31
0.0
  0
LINE
  5
1B1
330
1F
100
AcDbEntity
  8
TRMODEL1
  6
Continuous
 62
     2
100
AcDbLine
 10
8.6955634434
 20
5.4400801429
 30
0.0
 11
8.6856052246
 21
5.3427814828
 31
0.0
  0
LINE
  5
1B2
330
1F
100
AcDbEntity
  8
TRMODEL1
  6
Continuous
 62
     2
100
AcDbLine
 10
8.6856052246
 20
5.3427814828
 30
0.0
 11
8.6622522034
 21
5.2457893178
 31
0.0
  0
LINE
  5
1B3
330
1F
100
AcDbEntity
  8
TRMODEL1
  6
Continuous
 62
     2
100
AcDbLine
 10
8.3317458525
 20
5.9274940742
 30
0.0
 11
8.3317458525
 21
5.0207766953
 31
0.0
  0
LINE
  5
1B4
330
1F
100
AcDbEntity
  8
TRMODEL1
  6
Continuous
 62
     2
100
AcDbLine
 10
6.2636843232
 20
5.8017766953
 30
0.0
 11
6.2636843232
 21
5.3017766953
 31
0.0
  0
LINE
  5
1B5
330
1F
100
AcDbEntity
  8
TRMODEL1
  6
Continuous
 62
     2
100
AcDbLine
 10
6.231614818
 20
5.7559766953
 30
0.0
 11
6.231614818
 21
5.3475766953
 31
0.0
  0
LINE
  5
1B6
330
1F
100
AcDbEntity
  8
TRMODEL1
  6
Continuous
 62
     2
100
AcDbLine
 10
6.3065493007
 20
5.7559766953
 30
0.0
 11
6.3065493007
 21
5.3475766953
 31
0.0
  0
LINE
  5
1B7
330
1F
100
AcDbEntity
  8
TRMODEL1
  6
Continuous
 62
     2
100
AcDbLine
 10
6.2744797955
 20
5.8017766953
 30
0.0
 11
6.2744797955
 21
5.3017766953
 31
0.0
  0
LINE
  5
1B8
330
1F
100
AcDbEntity
  8
TRMODEL1
  6
Continuous
 62
     2
100
AcDbLine
 10
6.3187458525
 20
5.2270171689
 30
0.0
 11
6.3187458525
 21
5.5517766953
 31
0.0
  0
LINE
  5
1B9
330
1F
100
AcDbEntity
  8
TRMODEL1
  6
Continuous
 62
     2
100
AcDbLine
 10
6.3687458525
 20
5.3352703444
 30
0.0
 11
6.3473266833
 21
5.3906232844
 31
0.0
  0
LINE
  5
1BA
330
1F
100
AcDbEntity
  8
TRMODEL1
  6
Continuous
 62
     2
100
AcDbLine
 10
6.3473266833
 20
5.3906232844
 30
0.0
 11
6.3265289949
 21
5.4689856009
 31
0.0
  0
LINE
  5
1BB
330
1F
100
AcDbEntity
  8
TRMODEL1
  6
Continuous
 62
     2
100
AcDbLine
 10
6.3265289949
 20
5.4689856009
 30
0.0
 11
6.3187458525
 21
5.5517766953
 31
0.0
  0
LINE
  5
1BC
330
1F
100
AcDbEntity
  8
TRMODEL1
  6
Continuous
 62
     2
100
AcDbLine
 10
6.7167458525
 20
5.3352703444
 30
0.0
 11
6.7381650216
 21
5.3906232844
 31
0.0
  0
LINE
  5
1BD
330
1F
100
AcDbEntity
  8
TRMODEL1
  6
Continuous
 62
     2
100
AcDbLine
 10
6.7381650216
 20
5.3906232844
 30
0.0
 11
6.7589627101
 21
5.4689856009
 31
0.0
  0
LINE
  5
1BE
330
1F
100
AcDbEntity
  8
TRMODEL1
  6
Continuous
 62
     2
100
AcDbLine
 10
6.7589627101
 20
5.4689856009
 30
0.0
 11
6.7667458525
 21
5.5517766953
 31
0.0
  0
LINE
  5
1BF
330
1F
100
AcDbEntity
  8
TRMODEL1
  6
Continuous
 62
     2
100
AcDbLine
 10
6.7667458525
 20
5.3484474517
 30
0.0
 11
6.7667458525
 21
6.0827766953
 31
0.0
  0
LINE
  5
1C0
330
1F
100
AcDbEntity
  8
TRMODEL1
  6
Continuous
 62
     2
100
AcDbLine
 10
7.7367458525
 20
6.6473267278
 30
0.0
 11
8.2367458525
 21
7.1473267278
 31
0.0
  0
LINE
  5
1C1
330
1F
100
AcDbEntity
  8
TRMODEL1
  6
Continuous
 62
     2
100
AcDbLine
 10
7.7367458525
 20
6.824103423
 30
0.0
 11
8.1519191247
 21
7.2392766953
 31
0.0
  0
LINE
  5
1C2
330
1F
100
AcDbEntity
  8
TRMODEL1
  6
Continuous
 62
     2
100
AcDbLine
 10
7.7367458525
 20
7.0008801183
 30
0.0
 11
7.9751424294
 21
7.2392766953
 31
0.0
  0
LINE
  5
1C3
330
1F
100
AcDbEntity
  8
TRMODEL1
  6
Continuous
 62
     2
100
AcDbLine
 10
7.7367458525
 20
7.1776568136
 30
0.0
 11
7.7983657341
 21
7.2392766953
 31
0.0
  0
LINE
  5
1C4
330
1F
100
AcDbEntity
  8
TRMODEL1
  6
Continuous
 62
     2
100
AcDbLine
 10
6.8617458525
 20
6.6562102042
 30
0.0
 11
7.3617458525
 21
7.1562102042
 31
0.0
  0
LINE
  5
1C5
330
1F
100
AcDbEntity
  8
TRMODEL1
  6
Continuous
 62
     2
100
AcDbLine
 10
6.8617458525
 20
6.8329868995
 30
0.0
 11
7.2680356482
 21
7.2392766953
 31
0.0
  0
LINE
  5
1C6
330
1F
100
AcDbEntity
  8
TRMODEL1
  6
Continuous
 62
     2
100
AcDbLine
 10
6.8617458525
 20
7.0097635948
 30
0.0
 11
7.0912589529
 21
7.2392766953
 31
0.0
  0
LINE
  5
1C7
330
1F
100
AcDbEntity
  8
TRMODEL1
  6
Continuous
 62
     2
100
AcDbLine
 10
6.8617458525
 20
7.1865402901
 30
0.0
 11
6.9144822576
 21
7.2392766953
 31
0.0
  0
LINE
  5
1C8
330
1F
100
AcDbEntity
  8
TRMODEL1
  6
Continuous
 62
     2
100
AcDbLine
 10
7.7295524612
 20
7.8613161842
 30
0.0
 11
7.5462853414
 21
8.0445833041
 31
0.0
  0
LINE
  5
1C9
330
1F
100
AcDbEntity
  8
TRMODEL1
  6
Continuous
 62
     2
100
AcDbLine
 10
7.7367458525
 20
7.6773460977
 30
0.0
 11
7.3623152549
 21
8.0517766953
 31
0.0
  0
LINE
  5
1CA
330
1F
100
AcDbEntity
  8
TRMODEL1
  6
Continuous
 62
     2
100
AcDbLine
 10
7.7367458525
 20
7.5005694024
 30
0.0
 11
7.1855385596
 21
8.0517766953
 31
0.0
  0
LINE
  5
1CB
330
1F
100
AcDbEntity
  8
TRMODEL1
  6
Continuous
 62
     2
100
AcDbLine
 10
7.7367458525
 20
7.3237927071
 30
0.0
 11
7.0087618643
 21
8.0517766953
 31
0.0
  0
LINE
  5
1CC
330
1F
100
AcDbEntity
  8
TRMODEL1
  6
Continuous
 62
     2
100
AcDbLine
 10
7.206985169
 20
7.6767766953
 30
0.0
 11
6.831985169
 21
8.0517766953
 31
0.0
  0
LINE
  5
1CD
330
1F
100
AcDbEntity
  8
TRMODEL1
  6
Continuous
 62
     2
100
AcDbLine
 10
7.7367458525
 20
7.1470160118
 30
0.0
 11
7.3617458525
 21
7.5220160118
 31
0.0
  0
LINE
  5
1CE
330
1F
100
AcDbEntity
  8
TRMODEL1
  6
Continuous
 62
     2
100
AcDbLine
 10
7.0302084737
 20
7.6767766953
 30
0.0
 11
6.6552084737
 21
8.0517766953
 31
0.0
  0
LINE
  5
1CF
330
1F
100
AcDbEntity
  8
TRMODEL1
  6
Continuous
 62
     2
100
AcDbLine
 10
7.7367458525
 20
6.9702393165
 30
0.0
 11
7.3617458525
 21
7.3452393165
 31
0.0
  0
LINE
  5
1D0
330
1F
100
AcDbEntity
  8
TRMODEL1
  6
Continuous
 62
     2
100
AcDbLine
 10
6.8534317784
 20
7.6767766953
 30
0.0
 11
6.4784317784
 21
8.0517766953
 31
0.0
  0
LINE
  5
1D1
330
1F
100
AcDbEntity
  8
TRMODEL1
  6
Continuous
 62
     2
100
AcDbLine
 10
7.7367458525
 20
6.7934626212
 30
0.0
 11
7.3617458525
 21
7.1684626212
 31
0.0
  0
LINE
  5
1D2
330
1F
100
AcDbEntity
  8
TRMODEL1
  6
Continuous
 62
     2
100
AcDbLine
 10
6.6766550831
 20
7.6767766953
 30
0.0
 11
6.3016550831
 21
8.0517766953
 31
0.0
  0
LINE
  5
1D3
330
1F
100
AcDbEntity
  8
TRMODEL1
  6
Continuous
 62
     2
100
AcDbLine
 10
7.7367458525
 20
6.6166859259
 30
0.0
 11
7.3617458525
 21
6.9916859259
 31
0.0
  0
LINE
  5
1D4
330
1F
100
AcDbEntity
  8
TRMODEL1
  6
Continuous
 62
     4
100
AcDbLine
 10
7.7367458525
 20
7.2392766953
 30
0.0
 11
8.2367458525
 21
7.2392766953
 31
0.0
  0
LINE
  5
1D5
330
1F
100
AcDbEntity
  8
TRMODEL1
  6
Continuous
 62
     4
100
AcDbLine
 10
6.8617458525
 20
7.2392766953
 30
0.0
 11
7.3617458525
 21
7.2392766953
 31
0.0
  0
LINE
  5
1D6
330
1F
100
AcDbEntity
  8
TRMODEL1
  6
Continuous
 62
     2
100
AcDbLine
 10
7.6879244628
 20
8.3453772673
 30
0.0
 11
8.8535457974
 21
9.5109986019
 31
0.0
  0
LINE
  5
1D7
330
1F
100
AcDbEntity
  8
TRMODEL1
  6
Continuous
 62
     2
100
AcDbLine
 10
8.8535457974
 20
9.5109986019
 30
0.0
 11
9.5697419356
 21
9.5109986019
 31
0.0
  0
ARC
  5
1D8
330
1F
100
AcDbEntity
  8
TRMODEL1
  6
Continuous
 62
     4
100
AcDbCircle
 10
7.2367458525
 20
7.5517766953
 30
0.0
 40
0.125
100
AcDbArc
 50
0.0
 51
90.0
  0
ARC
  5
1D9
330
1F
100
AcDbEntity
  8
TRMODEL1
  6
Continuous
 62
     4
100
AcDbCircle
 10
7.2367458525
 20
0.5517766953
 30
0.0
 40
0.125
100
AcDbArc
 50
270.0
 51
0.0
  0
ARC
  5
1DA
330
1F
100
AcDbEntity
  8
TRMODEL1
  6
Continuous
 62
     4
100
AcDbCircle
 10
5.9242458525
 20
0.2392766953
 30
0.0
 40
0.3750000000001391
100
AcDbArc
 50
150.0
 51
209.9999999999
  0
ARC
  5
1DB
330
1F
100
AcDbEntity
  8
TRMODEL1
  6
Continuous
 62
     4
100
AcDbCircle
 10
7.4867458525
 20
0.3017766953
 30
0.0
 40
0.2500000000000009
100
AcDbArc
 50
270.0
 51
0.0
  0
ARC
  5
1DC
330
1F
100
AcDbEntity
  8
TRMODEL1
  6
Continuous
 62
     4
100
AcDbCircle
 10
7.4867458525
 20
7.8017766953
 30
0.0
 40
0.2500000000000009
100
AcDbArc
 50
0.0000000001
 51
90.0
  0
ARC
  5
1DD
330
1F
100
AcDbEntity
  8
TRMODEL1
  6
Continuous
 62
     4
100
AcDbCircle
 10
5.9242458525
 20
7.8642766953
 30
0.0
 40
0.3750000000001394
100
AcDbArc
 50
150.0000000001
 51
210.0
  0
MTEXT
  5
1DF
330
1F
100
AcDbEntity
  8
TRMODEL1
 62
     4
100
AcDbMText
 10
9.739217674
 20
8.8693287141
 30
0.0
 40
0.5625
 41
0.0
 71
     1
 72
     1
  1
FRP CHANNEL
  7
SLDTEXTSTYLE0
 73
     1
 44
1.0
  0
MTEXT
  5
1E0
330
1F
100
AcDbEntity
  8
TRMODEL1
 62
     4
100
AcDbMText
 10
0.0
 20
4.8177679507
 30
0.0
 40
0.5625
 41
0.0
 71
     1
 72
     1
  1
1/2" THICK
  7
SLDTEXTSTYLE0
 73
     1
 44
1.0
  0
MTEXT
  5
1E1
330
1F
100
AcDbEntity
  8
TRMODEL1
 62
     4
100
AcDbMText
 10
0.0294660846
 20
3.8802679507
 30
0.0
 40
0.5625
 41
0.0
 71
     1
 72
     1
  1
FRP PLATE
  7
SLDTEXTSTYLE0
 73
     1
 44
1.0
  0
MTEXT
  5
1E2
330
1F
100
AcDbEntity
  8
TRMODEL1
 62
     4
100
AcDbMText
 10
10.560602798
 20
4.8177679507
 30
0.0
 40
0.5625
 41
0.0
 71
     1
 72
     1
  1
1/2" THICK
  7
SLDTEXTSTYLE0
 73
     1
 44
1.0
  0
MTEXT
  5
1E3
330
1F
100
AcDbEntity
  8
TRMODEL1
 62
     4
100
AcDbMText
 10
10.5900688826
 20
3.8802679507
 30
0.0
 40
0.5625
 41
0.0
 71
     1
 72
     1
  1
FRP PLATE
  7
SLDTEXTSTYLE0
 73
     1
 44
1.0
  0
MTEXT
  5
1E4
330
1F
100
AcDbEntity
  8
TRMODEL1
 62
     4
100
AcDbMText
 10
9.7686837586
 20
9.8170285126
 30
0.0
 40
0.5625
 41
0.0
 71
     1
 72
     1
  1
8x2 3/16x3/8"
  7
SLDTEXTSTYLE0
 73
     1
 44
1.0
  0
ENDSEC
  0
SECTION
  2
OBJECTS
  0
DICTIONARY
  5
C
330
0
100
AcDbDictionary
281
     1
  3
ACAD_GROUP
350
D
  3
ACAD_LAYOUT
350
1A
  3
ACAD_MLINESTYLE
350
17
  3
ACAD_PLOTSETTINGS
350
19
  3
ACAD_PLOTSTYLENAME
350
E
  3
ACAD_TABLESTYLE
350
1E5
  3
ACAD_VISUALSTYLE
350
2A
  0
DICTIONARY
  5
D
102
{ACAD_REACTORS
330
C
102
}
330
C
100
AcDbDictionary
281
     1
  0
DICTIONARY
  5
1A
102
{ACAD_REACTORS
330
C
102
}
330
C
100
AcDbDictionary
281
     1
  3
Layout1
350
1E
  3
Layout2
350
26
  3
Model
350
22
  0
DICTIONARY
  5
17
102
{ACAD_REACTORS
330
C
102
}
330
C
100
AcDbDictionary
281
     1
  3
Standard
350
18
  0
DICTIONARY
  5
19
102
{ACAD_REACTORS
330
C
102
}
330
C
100
AcDbDictionary
281
     1
  0
ACDBDICTIONARYWDFLT
  5
E
102
{ACAD_REACTORS
330
C
102
}
330
C
100
AcDbDictionary
281
     1
  3
Normal
350
F
100
AcDbDictionaryWithDefault
340
F
  0
DICTIONARY
  5
1E5
102
{ACAD_REACTORS
330
C
102
}
330
C
100
AcDbDictionary
281
     1
  0
DICTIONARY
  5
2A
102
{ACAD_REACTORS
330
C
102
}
330
C
100
AcDbDictionary
281
     1
  3
2dWireframe
350
2F
  3
3D Hidden
350
31
  3
3dWireframe
350
30
  3
Basic
350
32
  3
Brighten
350
36
  3
ColorChange
350
3A
  3
Conceptual
350
34
  3
Dim
350
35
  3
Facepattern
350
39
  3
Flat
350
2B
  3
FlatWithEdges
350
2C
  3
Gouraud
350
2D
  3
GouraudWithEdges
350
2E
  3
Linepattern
350
38
  3
Realistic
350
33
  3
Thicken
350
37
  0
LAYOUT
  5
1E
102
{ACAD_REACTORS
330
1A
102
}
330
1A
100
AcDbPlotSettings
  1

  2
none_device
  4

  6

 40
0.0
 41
0.0
 42
0.0
 43
0.0
 44
0.0
 45
0.0
 46
0.0
 47
0.0
 48
0.0
 49
0.0
140
0.0
141
0.0
142
1.0
143
1.0
 70
   688
 72
     0
 73
     0
 74
     5
  7

 75
    16
147
1.0
148
0.0
149
0.0
100
AcDbLayout
  1
Layout1
 70
     1
 71
     1
 10
0.0
 20
0.0
 11
12.0
 21
9.0
 12
0.0
 22
0.0
 32
0.0
 14
1.0000000000E+20
 24
1.0000000000E+20
 34
1.0000000000E+20
 15
-1.0000000000E+20
 25
-1.0000000000E+20
 35
-1.0000000000E+20
146
0.0
 13
0.0
 23
0.0
 33
0.0
 16
1.0
 26
0.0
 36
0.0
 17
0.0
 27
1.0
 37
0.0
 76
     0
330
1B
  0
LAYOUT
  5
26
102
{ACAD_REACTORS
330
1A
102
}
330
1A
100
AcDbPlotSettings
  1

  2
none_device
  4

  6

 40
0.0
 41
0.0
 42
0.0
 43
0.0
 44
0.0
 45
0.0
 46
0.0
 47
0.0
 48
0.0
 49
0.0
140
0.0
141
0.0
142
1.0
143
1.0
 70
   688
 72
     0
 73
     0
 74
     5
  7

 75
    16
147
1.0
148
0.0
149
0.0
100
AcDbLayout
  1
Layout2
 70
     1
 71
     2
 10
0.0
 20
0.0
 11
0.0
 21
0.0
 12
0.0
 22
0.0
 32
0.0
 14
0.0
 24
0.0
 34
0.0
 15
0.0
 25
0.0
 35
0.0
146
0.0
 13
0.0
 23
0.0
 33
0.0
 16
1.0
 26
0.0
 36
0.0
 17
0.0
 27
1.0
 37
0.0
 76
     0
330
23
  0
LAYOUT
  5
22
102
{ACAD_REACTORS
330
1A
102
}
330
1A
100
AcDbPlotSettings
  1

  2
none_device
  4

  6

 40
0.0
 41
0.0
 42
0.0
 43
0.0
 44
0.0
 45
0.0
 46
0.0
 47
0.0
 48
0.0
 49
0.0
140
0.0
141
0.0
142
1.0
143
1.0
 70
  1712
 72
     0
 73
     0
 74
     0
  7

 75
     0
147
1.0
148
0.0
149
0.0
100
AcDbLayout
  1
Model
 70
     1
 71
     0
 10
0.0
 20
0.0
 11
8.5
 21
11.0
 12
0.0
 22
0.0
 32
0.0
 14
0.0
 24
0.0
 34
0.0
 15
8.5
 25
11.0
 35
0.0
146
0.0
 13
0.0
 23
0.0
 33
0.0
 16
1.0
 26
0.0
 36
0.0
 17
0.0
 27
1.0
 37
0.0
 76
     0
330
1F
331
29
  0
MLINESTYLE
  5
18
102
{ACAD_REACTORS
330
17
102
}
330
17
100
AcDbMlineStyle
  2
Standard
 70
     0
  3

 62
   256
 51
90.0
 52
90.0
 71
     2
 49
0.5
 62
   256
  6
BYLAYER
 49
-0.5
 62
   256
  6
BYLAYER
  0
ACDBPLACEHOLDER
  5
F
102
{ACAD_REACTORS
330
E
102
}
330
E
  0
VISUALSTYLE
  5
2F
102
{ACAD_REACTORS
330
2A
102
}
330
2A
100
AcDbVisualStyle
  2
2dWireframe
 70
     4
 71
     0
 72
     2
 73
     0
 90
        0
 40
-0.6
 41
-30.0
 62
     5
 63
     7
 74
     1
 91
        4
 64
     7
 65
   257
 75
     1
175
     1
 42
1.0
 92
        0
 66
   257
 43
1.0
 76
     1
 77
     6
 78
     2
 67
     7
 79
     5
170
     0
171
     0
290
     0
174
     0
 93
        1
 44
0.0
173
     0
291
     0
 45
0.0
1001
ACAD
1000
AcDbSavedByObjectVersion
1070
     0
  0
VISUALSTYLE
  5
31
102
{ACAD_REACTORS
330
2A
102
}
330
2A
100
AcDbVisualStyle
  2
3D Hidden
 70
     6
 71
     1
 72
     2
 73
     2
 90
        0
 40
-0.6
 41
-30.0
 62
     5
 63
     7
 74
     2
 91
        2
 64
     7
 65
   257
 75
     2
175
     1
 42
40.0
 92
        0
 66
   257
 43
1.0
 76
     1
 77
     6
 78
     2
 67
     7
 79
     3
170
     0
171
     0
290
     0
174
     0
 93
        1
 44
0.0
173
     0
291
     0
 45
0.0
1001
ACAD
1000
AcDbSavedByObjectVersion
1070
     0
  0
VISUALSTYLE
  5
30
102
{ACAD_REACTORS
330
2A
102
}
330
2A
100
AcDbVisualStyle
  2
3dWireframe
 70
     5
 71
     0
 72
     2
 73
     0
 90
        0
 40
-0.6
 41
-30.0
 62
     5
 63
     7
 74
     1
 91
        4
 64
     7
 65
   257
 75
     1
175
     1
 42
1.0
 92
        0
 66
   257
 43
1.0
 76
     1
 77
     6
 78
     2
 67
     7
 79
     5
170
     0
171
     0
290
     0
174
     0
 93
        1
 44
0.0
173
     0
291
     0
 45
0.0
1001
ACAD
1000
AcDbSavedByObjectVersion
1070
     0
  0
VISUALSTYLE
  5
32
102
{ACAD_REACTORS
330
2A
102
}
330
2A
100
AcDbVisualStyle
  2
Basic
 70
     7
 71
     1
 72
     0
 73
     1
 90
        0
 40
-0.6
 41
-30.0
 62
     5
 63
     7
 74
     0
 91
        4
 64
     7
 65
   257
 75
     1
175
     1
 42
1.0
 92
        8
 66
     7
 43
1.0
 76
     1
 77
     6
 78
     2
 67
     7
 79
     5
170
     0
171
     0
290
     0
174
     0
 93
        1
 44
0.0
173
     0
291
     1
 45
0.0
1001
ACAD
1000
AcDbSavedByObjectVersion
1070
     0
  0
VISUALSTYLE
  5
36
102
{ACAD_REACTORS
330
2A
102
}
330
2A
100
AcDbVisualStyle
  2
Brighten
 70
    12
 71
     2
 72
     2
 73
     0
 90
        0
 40
-0.6
 41
-30.0
 62
     5
 63
     7
 74
     1
 91
        4
 64
     7
 65
   257
 75
     1
175
     1
 42
1.0
 92
        8
 66
     7
 43
1.0
 76
     1
 77
     6
 78
     2
 67
     7
 79
     5
170
     0
171
     0
290
     0
174
     0
 93
        1
 44
50.0
173
     0
291
     1
 45
0.0
1001
ACAD
1000
AcDbSavedByObjectVersion
1070
     0
  0
VISUALSTYLE
  5
3A
102
{ACAD_REACTORS
330
2A
102
}
330
2A
100
AcDbVisualStyle
  2
ColorChange
 70
    16
 71
     2
 72
     2
 73
     3
 90
        0
 40
-0.6
 41
-30.0
 62
     5
 63
     8
 74
     1
 91
        4
 64
     7
 65
   257
 75
     1
175
     1
 42
1.0
 92
        8
 66
     8
 43
1.0
 76
     1
 77
     6
 78
     2
 67
     7
 79
     5
170
     0
171
     0
290
     0
174
     0
 93
        1
 44
0.0
173
     0
291
     1
 45
0.0
1001
ACAD
1000
AcDbSavedByObjectVersion
1070
     0
  0
VISUALSTYLE
  5
34
102
{ACAD_REACTORS
330
2A
102
}
330
2A
100
AcDbVisualStyle
  2
Conceptual
 70
     9
 71
     3
 72
     2
 73
     0
 90
        0
 40
-0.6
 41
-30.0
 62
     5
 63
     7
 74
     2
 91
        2
 64
     7
 65
   257
 75
     1
175
     1
 42
40.0
 92
        8
 66
     7
 43
1.0
 76
     1
 77
     6
 78
     2
 67
     7
 79
     3
170
     0
171
     0
290
     0
174
     0
 93
        1
 44
0.0
173
     0
291
     0
 45
0.0
1001
ACAD
1000
AcDbSavedByObjectVersion
1070
     0
  0
VISUALSTYLE
  5
35
102
{ACAD_REACTORS
330
2A
102
}
330
2A
100
AcDbVisualStyle
  2
Dim
 70
    11
 71
     2
 72
     2
 73
     0
 90
        0
 40
-0.6
 41
-30.0
 62
     5
 63
     7
 74
     1
 91
        4
 64
     7
 65
   257
 75
     1
175
     1
 42
1.0
 92
        8
 66
     7
 43
1.0
 76
     1
 77
     6
 78
     2
 67
     7
 79
     5
170
     0
171
     0
290
     0
174
     0
 93
        1
 44
-50.0
173
     0
291
     1
 45
0.0
1001
ACAD
1000
AcDbSavedByObjectVersion
1070
     0
  0
VISUALSTYLE
  5
39
102
{ACAD_REACTORS
330
2A
102
}
330
2A
100
AcDbVisualStyle
  2
Facepattern
 70
    15
 71
     2
 72
     2
 73
     0
 90
        0
 40
-0.6
 41
-30.0
 62
     5
 63
     7
 74
     1
 91
        4
 64
     7
 65
   257
 75
     1
175
     1
 42
1.0
 92
        8
 66
     7
 43
1.0
 76
     1
 77
     6
 78
     2
 67
     7
 79
     5
170
     0
171
     0
290
     0
174
     0
 93
        1
 44
0.0
173
     0
291
     1
 45
0.0
1001
ACAD
1000
AcDbSavedByObjectVersion
1070
     0
  0
VISUALSTYLE
  5
2B
102
{ACAD_REACTORS
330
2A
102
}
330
2A
100
AcDbVisualStyle
  2
Flat
 70
     0
 71
     2
 72
     1
 73
     1
 90
        2
 40
-0.6
 41
30.0
 62
     5
 63
     7
 74
     0
 91
        4
 64
     7
 65
   257
 75
     1
175
     1
 42
1.0
 92
        8
 66
     7
 43
1.0
 76
     1
 77
     6
 78
     2
 67
     7
 79
     5
170
     0
171
     0
290
     0
174
     0
 93
       13
 44
0.0
173
     0
291
     1
 45
0.0
1001
ACAD
1000
AcDbSavedByObjectVersion
1070
     0
  0
VISUALSTYLE
  5
2C
102
{ACAD_REACTORS
330
2A
102
}
330
2A
100
AcDbVisualStyle
  2
FlatWithEdges
 70
     1
 71
     2
 72
     1
 73
     1
 90
        2
 40
-0.6
 41
30.0
 62
     5
 63
     7
 74
     1
 91
        4
 64
     7
 65
   257
 75
     1
175
     1
 42
1.0
 92
        0
 66
   257
 43
1.0
 76
     1
 77
     6
 78
     2
 67
     7
 79
     5
170
     0
171
     0
290
     0
174
     0
 93
       13
 44
0.0
173
     0
291
     1
 45
0.0
1001
ACAD
1000
AcDbSavedByObjectVersion
1070
     0
  0
VISUALSTYLE
  5
2D
102
{ACAD_REACTORS
330
2A
102
}
330
2A
100
AcDbVisualStyle
  2
Gouraud
 70
     2
 71
     2
 72
     2
 73
     1
 90
        2
 40
-0.6
 41
30.0
 62
     5
 63
     7
 74
     0
 91
        4
 64
     7
 65
   257
 75
     1
175
     1
 42
1.0
 92
        0
 66
     7
 43
1.0
 76
     1
 77
     6
 78
     2
 67
     7
 79
     5
170
     0
171
     0
290
     0
174
     0
 93
       13
 44
0.0
173
     0
291
     1
 45
0.0
1001
ACAD
1000
AcDbSavedByObjectVersion
1070
     0
  0
VISUALSTYLE
  5
2E
102
{ACAD_REACTORS
330
2A
102
}
330
2A
100
AcDbVisualStyle
  2
GouraudWithEdges
 70
     3
 71
     2
 72
     2
 73
     1
 90
        2
 40
-0.6
 41
30.0
 62
     5
 63
     7
 74
     1
 91
        4
 64
     7
 65
   257
 75
     1
175
     1
 42
1.0
 92
        0
 66
   257
 43
1.0
 76
     1
 77
     6
 78
     2
 67
     7
 79
     5
170
     0
171
     0
290
     0
174
     0
 93
       13
 44
0.0
173
     0
291
     1
 45
0.0
1001
ACAD
1000
AcDbSavedByObjectVersion
1070
     0
  0
VISUALSTYLE
  5
38
102
{ACAD_REACTORS
330
2A
102
}
330
2A
100
AcDbVisualStyle
  2
Linepattern
 70
    14
 71
     2
 72
     2
 73
     0
 90
        0
 40
-0.6
 41
-30.0
 62
     5
 63
     7
 74
     1
 91
        4
 64
     7
 65
   257
 75
     7
175
     7
 42
1.0
 92
        8
 66
     7
 43
1.0
 76
     1
 77
     6
 78
     2
 67
     7
 79
     5
170
     0
171
     0
290
     0
174
     0
 93
        1
 44
0.0
173
     0
291
     1
 45
0.0
1001
ACAD
1000
AcDbSavedByObjectVersion
1070
     0
  0
VISUALSTYLE
  5
33
102
{ACAD_REACTORS
330
2A
102
}
330
2A
100
AcDbVisualStyle
  2
Realistic
 70
     8
 71
     2
 72
     2
 73
     0
 90
        0
 40
-0.6
 41
-30.0
 62
     5
 63
     7
 74
     1
 91
        0
 64
     7
 65
   257
 75
     1
175
     1
 42
1.0
 92
        8
 66
     8
 43
1.0
 76
     1
 77
     6
 78
     2
 67
     7
 79
     5
170
     0
171
     0
290
     0
174
     0
 93
       13
 44
0.0
173
     0
291
     0
 45
0.0
1001
ACAD
1000
AcDbSavedByObjectVersion
1070
     0
  0
VISUALSTYLE
  5
37
102
{ACAD_REACTORS
330
2A
102
}
330
2A
100
AcDbVisualStyle
  2
Thicken
 70
    13
 71
     2
 72
     2
 73
     0
 90
        0
 40
-0.6
 41
-30.0
 62
     5
 63
     7
 74
     1
 91
        4
 64
     7
 65
   257
 75
     1
175
     1
 42
1.0
 92
       12
 66
     7
 43
1.0
 76
     1
 77
     6
 78
     2
 67
     7
 79
     5
170
     0
171
     0
290
     0
174
     0
 93
        1
 44
0.0
173
     0
291
     1
 45
0.0
1001
ACAD
1000
AcDbSavedByObjectVersion
1070
     0
  0
ENDSEC
  0
EOF
